  0
SECTION
  2
HEADER
  9
$ACADVER
  1
AC1006
  9
$INSBASE
 10
0.0
 20
0.0
 30
0.0
  9
$EXTMIN
 10
-188.3417510986328
 20
-699.4175415039063
  9
$EXTMAX
 10
693.7808174239758
 20
144.7047344744206
  9
$LIMMIN
 10
-188.3417510986328
 20
-699.4175415039063
  9
$LIMMAX
 10
693.7808174239758
 20
144.7047344744206
  9
$ORTHOMODE
 70
     0
  9
$REGENMODE
 70
     1
  9
$FILLMODE
 70
     1
  9
$QTEXTMODE
 70
     0
  9
$MIRRTEXT
 70
     1
  9
$DRAGMODE
 70
     2
  9
$LTSCALE
 40
1.0
  9
$OSMODE
 70
     0
  9
$ATTMODE
 70
     1
  9
$TEXTSIZE
 40
3.0
  9
$TRACEWID
 40
0.5
  9
$TEXTSTYLE
  7
STANDARD
  9
$CLAYER
  8
0
  9
$CELTYPE
  6
BYLAYER
  9
$CECOLOR
 62
   256
  9
$DIMSCALE
 40
1.0
  9
$DIMASZ
 40
3.0
  9
$DIMEXO
 40
1.0
  9
$DIMDLI
 40
5.0
  9
$DIMRND
 40
0.0
  9
$DIMDLE
 40
5.0
  9
$DIMEXE
 40
2.0
  9
$DIMTP
 40
0.0
  9
$DIMTM
 40
0.0
  9
$DIMTXT
 40
3.0
  9
$DIMCEN
 40
2.0
  9
$DIMTSZ
 40
0.0
  9
$DIMTOL
 70
     0
  9
$DIMLIM
 70
     0
  9
$DIMTIH
 70
     0
  9
$DIMTOH
 70
     0
  9
$DIMSE1
 70
     0
  9
$DIMSE2
 70
     0
  9
$DIMTAD
 70
     1
  9
$DIMZIN
 70
     8
  9
$DIMBLK
  1

  9
$DIMASO
 70
     1
  9
$DIMSHO
 70
     0
  9
$DIMPOST
  1

  9
$DIMAPOST
  1

  9
$DIMALT
 70
     0
  9
$DIMALTD
 70
     4
  9
$DIMALTF
 40
25.4
  9
$DIMLFAC
 40
1.0
  9
$DIMTOFL
 70
     1
  9
$DIMTVP
 40
1.0
  9
$DIMTIX
 70
     0
  9
$DIMSOXD
 70
     0
  9
$DIMSAH
 70
     0
  9
$DIMBLK1
  1

  9
$DIMBLK2
  1

  9
$LUNITS
 70
     2
  9
$LUPREC
 70
     4
  9
$AXISMODE
 70
     0
  9
$AXISUNIT
 10
0.0
 20
0.0
  9
$SKETCHINC
 40
1.0
  9
$FILLETRAD
 40
0.0
  9
$AUNITS
 70
     0
  9
$AUPREC
 70
     0
  9
$MENU
  1
acad
  9
$ELEVATION
 40
0.0
  9
$THICKNESS
 40
0.0
  9
$LIMCHECK
 70
     0
  9
$BLIPMODE
 70
     1
  9
$CHAMFERA
 40
0.0
  9
$CHAMFERB
 40
0.0
  9
$SKPOLY
 70
     0
  9
$TDCREATE
 40
2454078.669768518
  9
$TDUPDATE
 40
2454078.669768518
  9
$TDINDWG
 40
0.0
  9
$TDUSRTIMER
 40
0.0
  9
$USRTIMER
 70
     1
  9
$ANGBASE
 50
0.0
  9
$ANGDIR
 70
     0
  9
$PDMODE
 70
     0
  9
$PDSIZE
 40
0.0
  9
$PLINEWID
 40
0.0
  9
$COORDS
 70
     0
  9
$SPLFRAME
 70
     0
  9
$SPLINETYPE
 70
     6
  9
$SPLINESEGS
 70
     8
  9
$ATTDIA
 70
     0
  9
$ATTREQ
 70
     1
  9
$HANDLING
 70
     0
  9
$HANDSEED
  5
0
  9
$SURFTAB1
 70
     6
  9
$SURFTAB2
 70
     6
  9
$SURFTYPE
 70
     6
  9
$SURFU
 70
     6
  9
$SURFV
 70
     6
  9
$FLATLAND
 70
     0
  9
$UCSNAME
  2

  9
$UCSORG
 10
0.0
 20
0.0
 30
0.0
  9
$UCSXDIR
 10
1.0
 20
0.0
 30
0.0
  9
$UCSYDIR
 10
0.0
 20
1.0
 30
0.0
  9
$USERI1
 70
     0
  9
$USERI2
 70
     0
  9
$USERI3
 70
     0
  9
$USERI4
 70
     0
  9
$USERI5
 70
     0
  9
$USERR1
 40
0.0
  9
$USERR2
 40
0.0
  9
$USERR3
 40
0.0
  9
$USERR4
 40
0.0
  9
$USERR5
 40
0.0
  9
$WORLDVIEW
 70
     1
  0
ENDSEC
  0
SECTION
  2
TABLES
  0
TABLE
  2
VPORT
 70
     1
  0
VPORT
  2
*ACTIVE
 70
     0
 10
0.0
 20
0.0
 11
1.0
 21
1.0
 12
252.7195331626715
 22
-277.3564035147429
 13
0.0
 23
0.0
 14
0.0
 24
0.0
 15
0.0
 25
0.0
 16
0.0
 26
0.0
 36
1.0
 17
0.0
 27
0.0
 37
0.0
 40
844.1222759783268
 41
1.5
 42
50.0
 43
0.0
 44
0.0
 50
0.0
 51
0.0
 71
     0
 72
   100
 73
     1
 74
     1
 75
     0
 76
     0
 77
     0
 78
     0
  0
ENDTAB
  0
TABLE
  2
LTYPE
 70
    20
  0
LTYPE
  2
CONTINUOUS
 70
    64
  3
solid line
 72
    65
 73
     0
 40
0.0
  0
LTYPE
  2
CENTER
 70
    64
  3
--- - --- - --- - --- - --- - 
 72
    65
 73
     4
 40
6.0
 49
3.0
 49
-1.0
 49
1.0
 49
-1.0
  0
ENDTAB
  0
TABLE
  2
LAYER
 70
    20
  0
LAYER
  2
0
 70
    64
 62
     7
  6
CONTINUOUS
  0
LAYER
  2
100
 70
    64
 62
     7
  6
CONTINUOUS
  0
LAYER
  2
10
 70
    64
 62
     7
  6
CONTINUOUS
  0
ENDTAB
  0
TABLE
  2
STYLE
 70
     4
  0
ENDTAB
  0
TABLE
  2
VIEW
 70
     0
  0
ENDTAB
  0
TABLE
  2
UCS
 70
     0
  0
ENDTAB
  0
TABLE
  2
DWGMGR
 70
     0
  0
ENDTAB
  0
ENDSEC
  0
SECTION
  2
BLOCKS
  0
BLOCK
  8
100
  2
ＮＭＢロゴ（高さ１０ｍｍ）_0001
 70
    64
 10
0.0
 20
0.0
  0
LINE
  8
10
  6
CONTINUOUS
 10
-29.99999904632568
 20
0.0
 11
-29.99999904632568
 21
2.4000244140625
  0
LINE
  8
10
  6
CONTINUOUS
 10
-20.40002346038818
 20
2.4000244140625
 11
-18.90002346038818
 21
2.4000244140625
  0
LINE
  8
10
  6
CONTINUOUS
 10
-35.70001125335693
 20
2.4000244140625
 11
-35.70001125335693
 21
12.5999755859375
  0
LINE
  8
10
  6
CONTINUOUS
 10
-14.70001125335693
 20
2.4000244140625
 11
-14.70001125335693
 21
12.5999755859375
  0
LINE
  8
10
  6
CONTINUOUS
 10
-31.49999904632568
 20
2.4000244140625
 11
-31.49999904632568
 21
12.60244750976563
  0
LINE
  8
10
  6
CONTINUOUS
 10
-18.90002346038818
 20
5.4906005859375
 11
-18.90002346038818
 21
12.5999755859375
  0
LINE
  8
10
  6
CONTINUOUS
 10
-20.40002346038818
 20
15.0
 11
-13.20001125335693
 21
15.0
  0
LINE
  8
10
  6
CONTINUOUS
 10
-37.20001125335693
 20
12.5999755859375
 11
-35.70001125335693
 21
12.5999755859375
  0
LINE
  8
10
  6
CONTINUOUS
 10
-20.40002346038818
 20
0.0
 11
-13.20001125335693
 21
0.0
  0
LINE
  8
10
  6
CONTINUOUS
 10
-37.20001125335693
 20
0.0
 11
-29.99999904632568
 21
0.0
  0
LINE
  8
10
  6
CONTINUOUS
 10
-37.20001125335693
 20
15.0
 11
-30.64733791351318
 21
15.0
  0
LINE
  8
10
  6
CONTINUOUS
 10
-30.64733791351318
 20
15.0
 11
-18.90002346038818
 21
5.4906005859375
  0
LINE
  8
10
  6
CONTINUOUS
 10
-31.49999904632568
 20
12.60244750976563
 11
-18.89654445648193
 21
2.4000244140625
  0
LINE
  8
10
  6
CONTINUOUS
 10
-20.40002346038818
 20
0.0
 11
-20.40002346038818
 21
2.4000244140625
  0
LINE
  8
10
  6
CONTINUOUS
 10
-20.40002346038818
 20
12.5999755859375
 11
-20.40002346038818
 21
15.0
  0
LINE
  8
10
  6
CONTINUOUS
 10
-13.20001125335693
 20
0.0
 11
-13.20001125335693
 21
2.4000244140625
  0
LINE
  8
10
  6
CONTINUOUS
 10
-13.20001125335693
 20
12.5999755859375
 11
-13.20001125335693
 21
15.0
  0
LINE
  8
10
  6
CONTINUOUS
 10
-37.20001125335693
 20
0.0
 11
-37.20001125335693
 21
2.4000244140625
  0
LINE
  8
10
  6
CONTINUOUS
 10
-37.20001125335693
 20
12.5999755859375
 11
-37.20001125335693
 21
15.0
  0
LINE
  8
10
  6
CONTINUOUS
 10
-13.20001125335693
 20
2.4000244140625
 11
-14.70001125335693
 21
2.4000244140625
  0
LINE
  8
10
  6
CONTINUOUS
 10
-11.99999904632568
 20
0.0
 11
-11.99999904632568
 21
2.4000244140625
  0
LINE
  8
10
  6
CONTINUOUS
 10
-11.99999904632568
 20
12.5999755859375
 11
-11.99999904632568
 21
15.0
  0
LINE
  8
10
  6
CONTINUOUS
 10
-4.800047874450684
 20
0.0
 11
-4.800047874450684
 21
2.4000244140625
  0
LINE
  8
10
  6
CONTINUOUS
 10
13.199951171875
 20
0.0
 11
13.199951171875
 21
2.4000244140625
  0
LINE
  8
10
  6
CONTINUOUS
 10
13.199951171875
 20
12.5999755859375
 11
13.199951171875
 21
15.0
  0
LINE
  8
10
  6
CONTINUOUS
 10
-10.49999904632568
 20
2.4000244140625
 11
-10.49999904632568
 21
12.5999755859375
  0
LINE
  8
10
  6
CONTINUOUS
 10
-6.300047874450684
 20
2.4000244140625
 11
-6.300047874450684
 21
12.60015869140625
  0
LINE
  8
10
  6
CONTINUOUS
 10
11.699951171875
 20
2.4000244140625
 11
11.699951171875
 21
12.5999755859375
  0
LINE
  8
10
  6
CONTINUOUS
 10
6.0
 20
0.0
 11
6.0
 21
2.4000244140625
  0
LINE
  8
10
  6
CONTINUOUS
 10
7.5
 20
2.4000244140625
 11
7.5
 21
12.60015869140625
  0
LINE
  8
10
  6
CONTINUOUS
 10
-11.99999904632568
 20
2.4000244140625
 11
-10.49999904632568
 21
2.4000244140625
  0
LINE
  8
10
  6
CONTINUOUS
 10
-6.300047874450684
 20
2.4000244140625
 11
-4.800047874450684
 21
2.4000244140625
  0
LINE
  8
10
  6
CONTINUOUS
 10
6.0
 20
2.4000244140625
 11
7.5
 21
2.4000244140625
  0
LINE
  8
10
  6
CONTINUOUS
 10
11.699951171875
 20
2.4000244140625
 11
13.199951171875
 21
2.4000244140625
  0
LINE
  8
10
  6
CONTINUOUS
 10
13.199951171875
 20
12.5999755859375
 11
11.699951171875
 21
12.5999755859375
  0
LINE
  8
10
  6
CONTINUOUS
 10
-10.49999904632568
 20
12.5999755859375
 11
-11.99999904632568
 21
12.5999755859375
  0
LINE
  8
10
  6
CONTINUOUS
 10
-4.878050804138184
 20
15.0
 11
0.5999755859375
 21
4.99835205078125
  0
LINE
  8
10
  6
CONTINUOUS
 10
0.5999755859375
 20
4.99835205078125
 11
6.0780029296875
 21
15.0
  0
LINE
  8
10
  6
CONTINUOUS
 10
0.5999755859375
 20
0.002288818359375
 11
7.5
 21
12.60015869140625
  0
LINE
  8
10
  6
CONTINUOUS
 10
-6.300047874450684
 20
12.60015869140625
 11
0.5999755859375
 21
0.002288818359375
  0
LINE
  8
10
  6
CONTINUOUS
 10
-11.99999904632568
 20
15.0
 11
-4.878050804138184
 21
15.0
  0
LINE
  8
10
  6
CONTINUOUS
 10
6.0780029296875
 20
15.0
 11
13.199951171875
 21
15.0
  0
LINE
  8
10
  6
CONTINUOUS
 10
-11.99999904632568
 20
0.0
 11
-4.800047874450684
 21
0.0
  0
LINE
  8
10
  6
CONTINUOUS
 10
6.0
 20
0.0
 11
13.199951171875
 21
0.0
  0
LINE
  8
10
  6
CONTINUOUS
 10
14.39999389648438
 20
0.0
 11
14.39999389648438
 21
2.4000244140625
  0
LINE
  8
10
  6
CONTINUOUS
 10
14.39999389648438
 20
12.5999755859375
 11
14.39999389648438
 21
15.0
  0
LINE
  8
10
  6
CONTINUOUS
 10
14.39999389648438
 20
15.0
 11
32.84997653961182
 21
15.0
  0
LINE
  8
10
  6
CONTINUOUS
 10
14.39999389648438
 20
0.0
 11
32.84997653961182
 21
0.0
  0
LINE
  8
10
  6
CONTINUOUS
 10
15.89999389648438
 20
2.4000244140625
 11
15.89999389648438
 21
12.5999755859375
  0
LINE
  8
10
  6
CONTINUOUS
 10
14.39999389648438
 20
12.5999755859375
 11
15.89999389648438
 21
12.5999755859375
  0
LINE
  8
10
  6
CONTINUOUS
 10
14.39999389648438
 20
2.4000244140625
 11
15.89999389648438
 21
2.4000244140625
  0
LINE
  8
10
  6
CONTINUOUS
 10
20.0999755859375
 20
12.5999755859375
 11
31.04998779296875
 21
12.5999755859375
  0
LINE
  8
10
  6
CONTINUOUS
 10
20.0999755859375
 20
8.70001220703125
 11
31.04998779296875
 21
8.70001220703125
  0
LINE
  8
10
  6
CONTINUOUS
 10
20.0999755859375
 20
6.29998779296875
 11
31.048828125
 21
6.29998779296875
  0
LINE
  8
10
  6
CONTINUOUS
 10
20.0999755859375
 20
2.4000244140625
 11
31.04998779296875
 21
2.4000244140625
  0
LINE
  8
10
  6
CONTINUOUS
 10
20.0999755859375
 20
2.4000244140625
 11
20.0999755859375
 21
6.29998779296875
  0
LINE
  8
10
  6
CONTINUOUS
 10
20.0999755859375
 20
8.70001220703125
 11
20.0999755859375
 21
12.5999755859375
  0
ARC
  8
10
  6
CONTINUOUS
 10
32.84997653961182
 20
10.6500244140625
 40
4.350000381469727
 50
313.6025972022626
 51
90.0
  0
ARC
  8
10
  6
CONTINUOUS
 10
32.84997653961182
 20
4.3499755859375
 40
4.350000381469727
 50
270.0
 51
46.39740279773744
  0
ARC
  8
10
  6
CONTINUOUS
 10
31.04998779296875
 20
10.6500244140625
 40
1.949999928474426
 50
270.0
 51
90.0
  0
ARC
  8
10
  6
CONTINUOUS
 10
31.04998779296875
 20
4.3499755859375
 40
1.950000047683716
 50
270.0
 51
90.03407366998695
  0
LINE
  8
10
  6
CONTINUOUS
 10
-20.40002346038818
 20
12.5999755859375
 11
-18.90002346038818
 21
12.5999755859375
  0
LINE
  8
10
  6
CONTINUOUS
 10
-14.70001125335693
 20
12.5999755859375
 11
-13.20001125335693
 21
12.5999755859375
  0
LINE
  8
10
  6
CONTINUOUS
 10
-37.20001125335693
 20
2.4000244140625
 11
-35.70001125335693
 21
2.4000244140625
  0
LINE
  8
10
  6
CONTINUOUS
 10
-31.49999904632568
 20
2.4000244140625
 11
-29.99999904632568
 21
2.4000244140625
  0
POLYLINE
  8
100
  6
CONTINUOUS
 66
     1
 70
     0
 40
0.0
 41
0.0
  0
VERTEX
  8
100
 10
-14.70001125335693
 20
2.4000244140625
  0
VERTEX
  8
100
 10
-14.70001125335693
 20
12.5999755859375
  0
VERTEX
  8
100
 10
-13.20001125335693
 20
12.5999755859375
  0
VERTEX
  8
100
 10
-13.20001125335693
 20
15.0
  0
VERTEX
  8
100
 10
-20.40002346038818
 20
15.0
  0
VERTEX
  8
100
 10
-20.40002346038818
 20
12.5999755859375
  0
VERTEX
  8
100
 10
-18.90002346038818
 20
12.5999755859375
  0
VERTEX
  8
100
 10
-18.90002346038818
 20
5.4906005859375
  0
VERTEX
  8
100
 10
-30.64733791351318
 20
15.0
  0
VERTEX
  8
100
 10
-37.20001125335693
 20
15.0
  0
VERTEX
  8
100
 10
-37.20001125335693
 20
12.5999755859375
  0
VERTEX
  8
100
 10
-35.70001125335693
 20
12.5999755859375
  0
VERTEX
  8
100
 10
-35.70001125335693
 20
2.4000244140625
  0
VERTEX
  8
100
 10
-37.20001125335693
 20
2.4000244140625
  0
VERTEX
  8
100
 10
-37.20001125335693
 20
0.0
  0
VERTEX
  8
100
 10
-29.99999904632568
 20
0.0
  0
VERTEX
  8
100
 10
-29.99999904632568
 20
2.4000244140625
  0
VERTEX
  8
100
 10
-31.49999904632568
 20
2.4000244140625
  0
VERTEX
  8
100
 10
-31.49999904632568
 20
12.60244750976563
  0
VERTEX
  8
100
 10
-18.89654445648193
 20
2.4000244140625
  0
VERTEX
  8
100
 10
-20.40002346038818
 20
2.4000244140625
  0
VERTEX
  8
100
 10
-20.40002346038818
 20
0.0
  0
VERTEX
  8
100
 10
-13.20001125335693
 20
0.0
  0
VERTEX
  8
100
 10
-13.20001125335693
 20
2.4000244140625
  0
VERTEX
  8
100
 10
-14.70001125335693
 20
2.4000244140625
  0
SEQEND
  8
100
  0
POLYLINE
  8
100
  6
CONTINUOUS
 66
     1
 70
     0
 40
0.0
 41
0.0
  0
VERTEX
  8
100
 10
6.0
 20
0.0
  0
VERTEX
  8
100
 10
13.199951171875
 20
0.0
  0
VERTEX
  8
100
 10
13.199951171875
 20
2.4000244140625
  0
VERTEX
  8
100
 10
11.699951171875
 20
2.4000244140625
  0
VERTEX
  8
100
 10
11.699951171875
 20
12.5999755859375
  0
VERTEX
  8
100
 10
13.199951171875
 20
12.5999755859375
  0
VERTEX
  8
100
 10
13.199951171875
 20
15.0
  0
VERTEX
  8
100
 10
6.0780029296875
 20
15.0
  0
VERTEX
  8
100
 10
0.5999755859375
 20
4.99835205078125
  0
VERTEX
  8
100
 10
-4.878050804138184
 20
15.0
  0
VERTEX
  8
100
 10
-11.99999904632568
 20
15.0
  0
VERTEX
  8
100
 10
-11.99999904632568
 20
12.5999755859375
  0
VERTEX
  8
100
 10
-10.49999904632568
 20
12.5999755859375
  0
VERTEX
  8
100
 10
-10.49999904632568
 20
2.4000244140625
  0
VERTEX
  8
100
 10
-11.99999904632568
 20
2.4000244140625
  0
VERTEX
  8
100
 10
-11.99999904632568
 20
0.0
  0
VERTEX
  8
100
 10
-4.800047874450684
 20
0.0
  0
VERTEX
  8
100
 10
-4.800047874450684
 20
2.4000244140625
  0
VERTEX
  8
100
 10
-6.300047874450684
 20
2.4000244140625
  0
VERTEX
  8
100
 10
-6.300047874450684
 20
12.60015869140625
  0
VERTEX
  8
100
 10
0.5999755859375
 20
0.002288818359375
  0
VERTEX
  8
100
 10
7.5
 20
12.60015869140625
  0
VERTEX
  8
100
 10
7.5
 20
2.4000244140625
  0
VERTEX
  8
100
 10
6.0
 20
2.4000244140625
  0
VERTEX
  8
100
 10
6.0
 20
0.0
  0
SEQEND
  8
100
  0
POLYLINE
  8
100
  6
CONTINUOUS
 66
     1
 70
     0
 40
0.0
 41
0.0
  0
VERTEX
  8
100
 10
32.84997653961182
 20
0.0
  0
VERTEX
  8
100
 10
14.39999389648438
 20
0.0
  0
VERTEX
  8
100
 10
14.39999389648438
 20
2.4000244140625
  0
VERTEX
  8
100
 10
15.89999389648438
 20
2.4000244140625
  0
VERTEX
  8
100
 10
15.89999389648438
 20
12.5999755859375
  0
VERTEX
  8
100
 10
14.39999389648438
 20
12.5999755859375
  0
VERTEX
  8
100
 10
14.39999389648438
 20
15.0
  0
VERTEX
  8
100
 10
32.84997653961182
 20
15.0
 42
-0.6770337277923856
  0
VERTEX
  8
100
 10
35.84997653961182
 20
7.5
  0
SEQEND
  8
100
  0
POLYLINE
  8
100
  6
CONTINUOUS
 66
     1
 70
     0
 40
0.0
 41
0.0
  0
VERTEX
  8
100
 10
31.04998779296875
 20
2.4000244140625
  0
VERTEX
  8
100
 10
20.0999755859375
 20
2.4000244140625
  0
VERTEX
  8
100
 10
20.0999755859375
 20
6.29998779296875
  0
SEQEND
  8
100
  0
POLYLINE
  8
100
  6
CONTINUOUS
 66
     1
 70
     0
 40
0.0
 41
0.0
  0
VERTEX
  8
100
 10
20.0999755859375
 20
8.70001220703125
  0
VERTEX
  8
100
 10
31.0511474609375
 20
8.70001220703125
 42
0.4142135622879118
  0
VERTEX
  8
100
 10
33.00000000000034
 20
10.65118408146411
 42
0.4142138543953274
  0
VERTEX
  8
100
 10
31.04882808813424
 20
12.60003757474614
  0
VERTEX
  8
100
 10
20.0999755859375
 20
12.5999755859375
  0
VERTEX
  8
100
 10
20.0999755859375
 20
8.70001220703125
  0
SEQEND
  8
100
  0
POLYLINE
  8
100
  6
CONTINUOUS
 66
     1
 70
     0
 40
0.0
 41
0.0
  0
VERTEX
  8
100
 10
20.0999755859375
 20
2.4000244140625
  0
VERTEX
  8
100
 10
31.04998779296875
 20
2.4000244140625
 42
0.4143235768793524
  0
VERTEX
  8
100
 10
32.99993882729989
 20
4.350707984477936
 42
0.4143422346612916
  0
VERTEX
  8
100
 10
31.04852294881233
 20
6.299988333997959
  0
VERTEX
  8
100
 10
20.0999755859375
 20
6.29998779296875
  0
VERTEX
  8
100
 10
20.0999755859375
 20
2.4000244140625
  0
SEQEND
  8
100
  0
POLYLINE
  8
100
  6
CONTINUOUS
 66
     1
 70
     0
 40
0.0
 41
0.0
  0
VERTEX
  8
100
 10
-18.89654445648193
 20
2.4000244140625
  0
VERTEX
  8
100
 10
-20.40002346038818
 20
2.4000244140625
  0
VERTEX
  8
100
 10
-20.40002346038818
 20
0.0
  0
VERTEX
  8
100
 10
-13.20001125335693
 20
0.0
  0
VERTEX
  8
100
 10
-13.20001125335693
 20
2.4000244140625
  0
VERTEX
  8
100
 10
-14.70001125335693
 20
2.4000244140625
  0
VERTEX
  8
100
 10
-14.70001125335693
 20
12.5999755859375
  0
VERTEX
  8
100
 10
-13.20001125335693
 20
12.5999755859375
  0
VERTEX
  8
100
 10
-13.20001125335693
 20
15.0
  0
VERTEX
  8
100
 10
-20.40002346038818
 20
15.0
  0
VERTEX
  8
100
 10
-20.40002346038818
 20
12.5999755859375
  0
VERTEX
  8
100
 10
-18.90002346038818
 20
12.5999755859375
  0
VERTEX
  8
100
 10
-18.90002346038818
 20
5.4906005859375
  0
VERTEX
  8
100
 10
-30.64733791351318
 20
15.0
  0
VERTEX
  8
100
 10
-37.20001125335693
 20
15.0
  0
VERTEX
  8
100
 10
-37.20001125335693
 20
12.5999755859375
  0
VERTEX
  8
100
 10
-35.70001125335693
 20
12.5999755859375
  0
VERTEX
  8
100
 10
-35.70001125335693
 20
2.4000244140625
  0
VERTEX
  8
100
 10
-37.20001125335693
 20
2.4000244140625
  0
VERTEX
  8
100
 10
-37.20001125335693
 20
0.0
  0
VERTEX
  8
100
 10
-29.99999904632568
 20
0.0
  0
VERTEX
  8
100
 10
-29.99999904632568
 20
2.4000244140625
  0
VERTEX
  8
100
 10
-31.49999904632568
 20
2.4000244140625
  0
VERTEX
  8
100
 10
-31.49999904632568
 20
12.60244750976563
  0
VERTEX
  8
100
 10
-18.89654445648193
 20
2.4000244140625
  0
SEQEND
  8
100
  0
POLYLINE
  8
100
  6
CONTINUOUS
 66
     1
 70
     0
 40
0.0
 41
0.0
  0
VERTEX
  8
100
 10
7.5
 20
2.4000244140625
  0
VERTEX
  8
100
 10
7.5
 20
12.60015869140625
  0
VERTEX
  8
100
 10
0.5999755859375
 20
0.002288818359375
  0
VERTEX
  8
100
 10
-6.300047874450684
 20
12.60015869140625
  0
VERTEX
  8
100
 10
-6.300047874450684
 20
2.4000244140625
  0
VERTEX
  8
100
 10
-4.800047874450684
 20
2.4000244140625
  0
VERTEX
  8
100
 10
-4.800047874450684
 20
0.0
  0
VERTEX
  8
100
 10
-11.99999904632568
 20
0.0
  0
VERTEX
  8
100
 10
-11.99999904632568
 20
2.4000244140625
  0
VERTEX
  8
100
 10
-10.49999904632568
 20
2.4000244140625
  0
VERTEX
  8
100
 10
-10.49999904632568
 20
12.5999755859375
  0
VERTEX
  8
100
 10
-11.99999904632568
 20
12.5999755859375
  0
VERTEX
  8
100
 10
-11.99999904632568
 20
15.0
  0
VERTEX
  8
100
 10
-4.878050804138184
 20
15.0
  0
VERTEX
  8
100
 10
0.5999755859375
 20
4.99835205078125
  0
VERTEX
  8
100
 10
6.0780029296875
 20
15.0
  0
VERTEX
  8
100
 10
13.199951171875
 20
15.0
  0
VERTEX
  8
100
 10
13.199951171875
 20
12.5999755859375
  0
VERTEX
  8
100
 10
11.699951171875
 20
12.5999755859375
  0
VERTEX
  8
100
 10
11.699951171875
 20
2.4000244140625
  0
VERTEX
  8
100
 10
13.199951171875
 20
2.4000244140625
  0
VERTEX
  8
100
 10
13.199951171875
 20
0.0
  0
VERTEX
  8
100
 10
6.0
 20
0.0
  0
VERTEX
  8
100
 10
6.0
 20
2.4000244140625
  0
VERTEX
  8
100
 10
7.5
 20
2.4000244140625
  0
SEQEND
  8
100
  0
POLYLINE
  8
100
  6
CONTINUOUS
 66
     1
 70
     0
 40
0.0
 41
0.0
  0
VERTEX
  8
100
 10
20.0999755859375
 20
12.5999755859375
  0
VERTEX
  8
100
 10
20.0999755859375
 20
8.70001220703125
  0
VERTEX
  8
100
 10
31.0511474609375
 20
8.70001220703125
 42
0.0
  0
VERTEX
  8
100
 10
31.04998779296875
 20
8.70001220703125
  0
VERTEX
  8
100
 10
20.0999755859375
 20
8.70001220703125
  0
VERTEX
  8
100
 10
20.0999755859375
 20
12.5999755859375
  0
SEQEND
  8
100
  0
POLYLINE
  8
100
  6
CONTINUOUS
 66
     1
 70
     0
 40
0.0
 41
0.0
  0
VERTEX
  8
100
 10
31.04998779296875
 20
8.70001220703125
  0
VERTEX
  8
100
 10
20.0999755859375
 20
8.70001220703125
  0
VERTEX
  8
100
 10
20.0999755859375
 20
12.5999755859375
  0
VERTEX
  8
100
 10
31.04998779296875
 20
12.5999755859375
 42
0.0
  0
VERTEX
  8
100
 10
31.048828125
 20
12.5999755859375
  0
VERTEX
  8
100
 10
20.0999755859375
 20
12.5999755859375
  0
VERTEX
  8
100
 10
20.0999755859375
 20
8.70001220703125
  0
VERTEX
  8
100
 10
31.04998779296875
 20
8.70001220703125
  0
SEQEND
  8
100
  0
POLYLINE
  8
100
  6
CONTINUOUS
 66
     1
 70
     0
 40
0.0
 41
0.0
  0
VERTEX
  8
100
 10
20.0999755859375
 20
6.29998779296875
  0
VERTEX
  8
100
 10
31.048828125
 20
6.29998779296875
  0
VERTEX
  8
100
 10
20.0999755859375
 20
6.29998779296875
  0
SEQEND
  8
100
  0
POLYLINE
  8
100
  6
CONTINUOUS
 66
     1
 70
     0
 40
0.0
 41
0.0
  0
VERTEX
  8
100
 10
-37.20001125335693
 20
2.4000244140625
  0
VERTEX
  8
100
 10
-37.20001125335693
 20
0.0
  0
VERTEX
  8
100
 10
-29.99999904632568
 20
0.0
  0
VERTEX
  8
100
 10
-29.99999904632568
 20
2.4000244140625
  0
VERTEX
  8
100
 10
-31.49999904632568
 20
2.4000244140625
  0
VERTEX
  8
100
 10
-31.49999904632568
 20
12.60244750976563
  0
VERTEX
  8
100
 10
-18.89654445648193
 20
2.4000244140625
  0
VERTEX
  8
100
 10
-20.40002346038818
 20
2.4000244140625
  0
VERTEX
  8
100
 10
-20.40002346038818
 20
0.0
  0
VERTEX
  8
100
 10
-13.20001125335693
 20
0.0
  0
VERTEX
  8
100
 10
-13.20001125335693
 20
2.4000244140625
  0
VERTEX
  8
100
 10
-14.70001125335693
 20
2.4000244140625
  0
VERTEX
  8
100
 10
-14.70001125335693
 20
12.5999755859375
  0
VERTEX
  8
100
 10
-13.20001125335693
 20
12.5999755859375
  0
VERTEX
  8
100
 10
-13.20001125335693
 20
15.0
  0
VERTEX
  8
100
 10
-20.40002346038818
 20
15.0
  0
VERTEX
  8
100
 10
-20.40002346038818
 20
12.5999755859375
  0
VERTEX
  8
100
 10
-18.90002346038818
 20
12.5999755859375
  0
VERTEX
  8
100
 10
-18.90002346038818
 20
5.4906005859375
  0
VERTEX
  8
100
 10
-30.64733791351318
 20
15.0
  0
VERTEX
  8
100
 10
-37.20001125335693
 20
15.0
  0
VERTEX
  8
100
 10
-37.20001125335693
 20
12.5999755859375
  0
VERTEX
  8
100
 10
-35.70001125335693
 20
12.5999755859375
  0
VERTEX
  8
100
 10
-35.70001125335693
 20
2.4000244140625
  0
VERTEX
  8
100
 10
-37.20001125335693
 20
2.4000244140625
  0
SEQEND
  8
100
  0
ENDBLK
  8
100
  0
ENDSEC
  0
SECTION
  2
ENTITIES
  0
LINE
  8
100
  6
CONTINUOUS
 10
-169.2073945999146
 20
-115.0
 11
-169.2073945999146
 21
115.0
  0
LINE
  8
100
  6
CONTINUOUS
 10
140.7926054000855
 20
-123.2952655255795
 11
140.7926054000855
 21
122.7047344744206
  0
LINE
  8
100
  6
CONTINUOUS
 10
-169.2073945999146
 20
-123.2952655255795
 11
-169.2073945999146
 21
122.7047344744206
  0
LINE
  8
100
  6
CONTINUOUS
 10
-147.2073945999146
 20
-145.2952655255795
 11
118.7926054000855
 21
-145.2952655255795
  0
LINE
  8
100
  6
CONTINUOUS
 10
-147.2073945999146
 20
-145.2952655255795
 11
118.7926054000855
 21
-145.2952655255795
  0
LINE
  8
100
  6
CONTINUOUS
 10
-147.2073945999146
 20
144.7047344744206
 11
118.7926054000855
 21
144.7047344744206
  0
LINE
  8
100
  6
CONTINUOUS
 10
340.7926054000855
 20
-106.4155675411699
 11
340.7926054000855
 21
105.8250364900109
  0
LINE
  8
100
  6
CONTINUOUS
 10
394.7926054000855
 20
-145.2952655255795
 11
394.7926054000855
 21
144.7047344744206
  0
LINE
  8
100
  6
CONTINUOUS
 10
669.7926054000855
 20
80.70473447442055
 11
669.7926054000855
 21
129.7047344744206
  0
LINE
  8
100
  6
CONTINUOUS
 10
-139.2073945999146
 20
-102.7952655255795
 11
-139.2073945999146
 21
102.2047344744206
  0
LINE
  8
100
  6
CONTINUOUS
 10
110.7926054000855
 20
-102.7952655255795
 11
110.7926054000855
 21
102.2047344744206
  0
LINE
  8
100
  6
CONTINUOUS
 10
-129.2073945999146
 20
112.2047344744206
 11
100.7926054000855
 21
112.2047344744206
  0
LINE
  8
100
  6
CONTINUOUS
 10
-129.2073945999146
 20
-112.7952655255795
 11
-29.70739459991455
 21
-112.7952655255795
  0
LINE
  8
100
  6
CONTINUOUS
 10
1.292605400085449
 20
-112.7952655255795
 11
100.7926054000855
 21
-112.7952655255795
  0
ARC
  8
100
  6
CONTINUOUS
 10
100.7926054000855
 20
-102.7952655255795
 40
10.0
 50
270.0
 51
0.0
  0
ARC
  8
100
  6
CONTINUOUS
 10
100.7926054000855
 20
102.2047344744206
 40
10.0
 50
0.0
 51
90.0
  0
ARC
  8
100
  6
CONTINUOUS
 10
-129.2073945999146
 20
102.2047344744206
 40
10.0
 50
90.0
 51
180.0
  0
ARC
  8
100
  6
CONTINUOUS
 10
-129.2073945999146
 20
-102.7952655255795
 40
10.0
 50
180.0
 51
270.0
  0
LINE
  8
100
  6
CONTINUOUS
 10
-104.2073945999146
 20
-12.79526552557945
 11
-104.2073945999146
 21
67.20473447442055
  0
LINE
  8
100
  6
CONTINUOUS
 10
75.79260540008545
 20
-12.79526552557945
 11
75.79260540008545
 21
67.20473447442055
  0
LINE
  8
100
  6
CONTINUOUS
 10
-94.20739459991455
 20
77.20473447442055
 11
65.79260540008545
 21
77.20473447442055
  0
LINE
  8
100
  6
CONTINUOUS
 10
-94.20739459991455
 20
-22.79526552557945
 11
65.79260540008545
 21
-22.79526552557945
  0
ARC
  8
100
  6
CONTINUOUS
 10
65.79260540008545
 20
-12.79526552557945
 40
10.0
 50
270.0
 51
0.0
  0
ARC
  8
100
  6
CONTINUOUS
 10
65.79260540008545
 20
67.20473447442055
 40
10.0
 50
0.0
 51
90.0
  0
ARC
  8
100
  6
CONTINUOUS
 10
-94.20739459991455
 20
67.20473447442055
 40
10.0
 50
90.0
 51
180.0
  0
ARC
  8
100
  6
CONTINUOUS
 10
-94.20739459991455
 20
-12.79526552557945
 40
10.0
 50
180.0
 51
270.0
  0
LINE
  8
100
  6
CONTINUOUS
 10
-94.20739459991455
 20
72.20473447442055
 11
65.79260540008545
 21
72.20473447442055
  0
LINE
  8
100
  6
CONTINUOUS
 10
-99.20739459991455
 20
-12.79526552557945
 11
-99.20739459991455
 21
67.20473447442055
  0
LINE
  8
100
  6
CONTINUOUS
 10
-94.20739459991455
 20
-17.79526552557945
 11
65.79260540008545
 21
-17.79526552557945
  0
LINE
  8
100
  6
CONTINUOUS
 10
70.79260540008545
 20
-12.79526552557945
 11
70.79260540008545
 21
67.20473447442055
  0
ARC
  8
100
  6
CONTINUOUS
 10
65.79260540008545
 20
67.20473447442055
 40
5.0
 50
0.0
 51
90.0
  0
ARC
  8
100
  6
CONTINUOUS
 10
65.79260540008545
 20
-12.79526552557945
 40
5.0
 50
270.0
 51
0.0
  0
ARC
  8
100
  6
CONTINUOUS
 10
-94.20739459991455
 20
-12.79526552557945
 40
5.0
 50
180.0
 51
270.0
  0
ARC
  8
100
  6
CONTINUOUS
 10
-94.20739459991455
 20
67.20473447442055
 40
5.0
 50
90.0
 51
180.0
  0
CIRCLE
  8
100
  6
CONTINUOUS
 10
-89.20739459991455
 20
-75.29526552557945
 40
12.5
  0
CIRCLE
  8
100
  6
CONTINUOUS
 10
-39.20739459991455
 20
-75.29526552557945
 40
12.5
  0
CIRCLE
  8
100
  6
CONTINUOUS
 10
10.79260540008545
 20
-75.29526552557945
 40
12.5
  0
CIRCLE
  8
100
  6
CONTINUOUS
 10
60.79260540008545
 20
-75.29526552557945
 40
12.5
  0
CIRCLE
  8
100
  6
CONTINUOUS
 10
-89.20739459991455
 20
-75.29526552557945
 40
13.5
  0
CIRCLE
  8
100
  6
CONTINUOUS
 10
-39.20739459991455
 20
-75.29526552557945
 40
13.5
  0
CIRCLE
  8
100
  6
CONTINUOUS
 10
10.79260540008545
 20
-75.29526552557945
 40
13.5
  0
CIRCLE
  8
100
  6
CONTINUOUS
 10
60.79260540008545
 20
-75.29526552557945
 40
13.5
  0
CIRCLE
  8
100
  6
CONTINUOUS
 10
-89.20739459991455
 20
-75.29526552557945
 40
15.75
  0
CIRCLE
  8
100
  6
CONTINUOUS
 10
-39.20739459991455
 20
-75.29526552557945
 40
15.75
  0
CIRCLE
  8
100
  6
CONTINUOUS
 10
10.79260540008545
 20
-75.29526552557945
 40
15.75
  0
CIRCLE
  8
100
  6
CONTINUOUS
 10
60.79260540008545
 20
-75.29526552557945
 40
15.75
  0
LINE
  8
100
  6
CONTINUOUS
 10
40.79260540008545
 20
-63.29526552557945
 11
40.79260540008545
 21
-50.29526552557945
  0
LINE
  8
100
  6
CONTINUOUS
 10
80.79260540008545
 20
-63.29526552557945
 11
80.79260540008545
 21
-50.29526552557945
  0
LINE
  8
100
  6
CONTINUOUS
 10
-9.207394599914551
 20
-63.29526552557945
 11
-9.207394599914551
 21
-50.29526552557945
  0
LINE
  8
100
  6
CONTINUOUS
 10
30.79260540008545
 20
-63.29526552557945
 11
30.79260540008545
 21
-50.29526552557945
  0
LINE
  8
100
  6
CONTINUOUS
 10
-59.20739459991455
 20
-63.29526552557945
 11
-59.20739459991455
 21
-50.29526552557945
  0
LINE
  8
100
  6
CONTINUOUS
 10
-19.20739459991455
 20
-63.29526552557945
 11
-19.20739459991455
 21
-50.29526552557945
  0
LINE
  8
100
  6
CONTINUOUS
 10
-109.2073945999146
 20
-63.29526552557945
 11
-109.2073945999146
 21
-50.29526552557945
  0
LINE
  8
100
  6
CONTINUOUS
 10
-69.20739459991455
 20
-63.29526552557945
 11
-69.20739459991455
 21
-50.29526552557945
  0
ARC
  8
100
  6
CONTINUOUS
 10
-89.20739459991455
 20
-75.29526552557945
 40
18.00000000000001
 50
180.0
 51
0.0
  0
ARC
  8
100
  6
CONTINUOUS
 10
-39.20739459991455
 20
-75.29526552557945
 40
18.0
 50
180.0
 51
0.0
  0
ARC
  8
100
  6
CONTINUOUS
 10
10.79260540008545
 20
-75.29526552557945
 40
18.0
 50
180.0
 51
0.0
  0
ARC
  8
100
  6
CONTINUOUS
 10
60.79260540008545
 20
-75.29526552557945
 40
18.0
 50
180.0
 51
0.0
  0
LINE
  8
100
  6
CONTINUOUS
 10
-109.2073945999146
 20
-63.29526552557945
 11
-107.2073945999146
 21
-75.29526552557945
  0
LINE
  8
100
  6
CONTINUOUS
 10
-69.20739459991455
 20
-63.29526552557945
 11
-71.20739459991455
 21
-75.29526552557945
  0
LINE
  8
100
  6
CONTINUOUS
 10
-59.20739459991455
 20
-63.29526552557945
 11
-57.20739459991455
 21
-75.29526552557945
  0
LINE
  8
100
  6
CONTINUOUS
 10
-19.20739459991455
 20
-63.29526552557945
 11
-21.20739459991455
 21
-75.29526552557945
  0
LINE
  8
100
  6
CONTINUOUS
 10
-9.207394599914551
 20
-63.29526552557945
 11
-7.207394599914551
 21
-75.29526552557945
  0
LINE
  8
100
  6
CONTINUOUS
 10
30.79260540008545
 20
-63.29526552557945
 11
28.79260540008545
 21
-75.29526552557945
  0
LINE
  8
100
  6
CONTINUOUS
 10
40.79260540008545
 20
-63.29526552557945
 11
42.79260540008545
 21
-75.29526552557945
  0
LINE
  8
100
  6
CONTINUOUS
 10
80.79260540008545
 20
-63.29526552557945
 11
78.79260540008545
 21
-75.29526552557945
  0
LINE
  8
100
  6
CONTINUOUS
 10
-107.2073945999146
 20
-48.29526552557945
 11
-71.20739459991455
 21
-48.29526552557945
  0
LINE
  8
100
  6
CONTINUOUS
 10
-57.20739459991455
 20
-48.29526552557945
 11
-21.20739459991455
 21
-48.29526552557945
  0
LINE
  8
100
  6
CONTINUOUS
 10
-7.207394599914551
 20
-48.29526552557945
 11
28.79260540008545
 21
-48.29526552557945
  0
LINE
  8
100
  6
CONTINUOUS
 10
42.79260540008545
 20
-48.29526552557945
 11
78.79260540008545
 21
-48.29526552557945
  0
ARC
  8
100
  6
CONTINUOUS
 10
42.79260540008545
 20
-50.29526552557945
 40
2.0
 50
90.0
 51
180.0
  0
ARC
  8
100
  6
CONTINUOUS
 10
78.79260540008545
 20
-50.29526552557945
 40
2.0
 50
0.0
 51
90.0
  0
ARC
  8
100
  6
CONTINUOUS
 10
28.79260540008545
 20
-50.29526552557945
 40
2.0
 50
0.0
 51
90.0
  0
ARC
  8
100
  6
CONTINUOUS
 10
-7.207394599914551
 20
-50.29526552557945
 40
2.0
 50
90.0
 51
180.0
  0
ARC
  8
100
  6
CONTINUOUS
 10
-21.20739459991455
 20
-50.29526552557945
 40
2.0
 50
0.0
 51
90.0
  0
ARC
  8
100
  6
CONTINUOUS
 10
-57.20739459991455
 20
-50.29526552557945
 40
2.0
 50
90.0
 51
180.0
  0
ARC
  8
100
  6
CONTINUOUS
 10
-71.20739459991455
 20
-50.29526552557945
 40
2.0
 50
0.0
 51
90.0
  0
ARC
  8
100
  6
CONTINUOUS
 10
-107.2073945999146
 20
-50.29526552557945
 40
2.0
 50
90.0
 51
180.0
  0
CIRCLE
  8
100
  6
CONTINUOUS
 10
75.79260540008545
 20
-132.2952655255795
 40
9.25
  0
CIRCLE
  8
100
  6
CONTINUOUS
 10
-104.2073945999146
 20
-132.2952655255795
 40
9.25
  0
CIRCLE
  8
100
  6
CONTINUOUS
 10
-156.2073945999146
 20
-90.29526552557945
 40
9.25
  0
CIRCLE
  8
100
  6
CONTINUOUS
 10
-156.2073945999146
 20
89.70473447442055
 40
9.25
  0
CIRCLE
  8
100
  6
CONTINUOUS
 10
-104.2073945999146
 20
131.7047344744206
 40
9.25
  0
CIRCLE
  8
100
  6
CONTINUOUS
 10
75.79260540008545
 20
131.7047344744206
 40
9.25
  0
CIRCLE
  8
100
  6
CONTINUOUS
 10
127.7926054000855
 20
89.70473447442055
 40
9.25
  0
CIRCLE
  8
100
  6
CONTINUOUS
 10
127.7926054000855
 20
-90.29526552557945
 40
9.25
  0
LINE
  8
100
  6
CONTINUOUS
 10
118.7926054000855
 20
-145.2952655255795
 11
140.7926054000855
 21
-123.2952655255795
  0
LINE
  8
100
  6
CONTINUOUS
 10
118.7926054000855
 20
144.7047344744206
 11
140.7926054000855
 21
122.7047344744206
  0
LINE
  8
100
  6
CONTINUOUS
 10
-169.2073945999146
 20
122.7047344744206
 11
-147.2073945999146
 21
144.7047344744206
  0
LINE
  8
100
  6
CONTINUOUS
 10
-169.2073945999146
 20
-123.2952655255795
 11
-147.2073945999146
 21
-145.2952655255795
  0
LINE
  8
100
  6
CONTINUOUS
 10
-119.7073945999146
 20
-145.2952655255795
 11
-119.7073945999146
 21
-122.7952655255795
  0
LINE
  8
100
  6
CONTINUOUS
 10
-88.70739459991455
 20
-145.2952655255795
 11
-88.70739459991455
 21
-122.7952655255795
  0
LINE
  8
100
  6
CONTINUOUS
 10
60.29260540008545
 20
-145.2952655255795
 11
60.29260540008545
 21
-122.7952655255795
  0
LINE
  8
100
  6
CONTINUOUS
 10
91.29260540008545
 20
-145.2952655255795
 11
91.29260540008545
 21
-122.7952655255795
  0
LINE
  8
100
  6
CONTINUOUS
 10
-29.70739459991455
 20
-122.7952655255795
 11
-29.70739459991455
 21
-145.2952655255795
  0
LINE
  8
100
  6
CONTINUOUS
 10
1.292605400085449
 20
-145.2952655255795
 11
1.292605400085449
 21
-122.7952655255795
  0
CIRCLE
  8
100
  6
CONTINUOUS
 10
-14.20739459991455
 20
-132.2952655255795
 40
9.25
  0
LINE
  8
100
  6
CONTINUOUS
 10
-129.2073945999146
 20
-122.7952655255795
 11
-128.9573945999146
 21
-122.7952655255795
  0
LINE
  8
100
  6
CONTINUOUS
 10
100.5426054000855
 20
-122.7952655255795
 11
100.7926054000855
 21
-122.7952655255795
  0
LINE
  8
100
  6
CONTINUOUS
 10
-29.70739459991455
 20
-112.7952655255795
 11
1.292605400085449
 21
-112.7952655255795
  0
LINE
  8
100
  6
CONTINUOUS
 10
-120.0516380346361
 20
-129.5452655255795
 11
-119.7073945999146
 21
-132.2952655255795
  0
LINE
  8
100
  6
CONTINUOUS
 10
-88.71012997726174
 20
-122.7952655255795
 11
-88.70739459991455
 21
-127.0452655255795
  0
LINE
  8
100
  6
CONTINUOUS
 10
-119.7101956941403
 20
-132.272888892233
 11
-120.0516380346361
 21
-129.5452655255795
  0
LINE
  8
100
  6
CONTINUOUS
 10
-29.70739459991455
 20
-132.0452655255795
 11
-30.05163803463611
 21
-129.5452655255795
  0
LINE
  8
100
  6
CONTINUOUS
 10
-30.05163803463611
 20
-129.5452655255795
 11
-29.70739459991455
 21
-132.2952655255795
  0
LINE
  8
100
  6
CONTINUOUS
 10
-119.7101956941403
 20
-132.272888892233
 11
-120.0516380346361
 21
-129.5452655255795
  0
LINE
  8
100
  6
CONTINUOUS
 10
-120.0516380346361
 20
-129.5452655255795
 11
-119.7073945999146
 21
-132.2952655255795
  0
LINE
  8
100
  6
CONTINUOUS
 10
-119.3098439312581
 20
-124.1581322605831
 11
-119.7073945999146
 21
-127.0452655255795
  0
LINE
  8
100
  6
CONTINUOUS
 10
1.292605400085449
 20
-132.2952655255795
 11
1.636848834807012
 21
-129.5452655255795
  0
LINE
  8
100
  6
CONTINUOUS
 10
1.292605400085449
 20
-132.2952655255795
 11
1.636848834807012
 21
-129.5452655255795
  0
LINE
  8
100
  6
CONTINUOUS
 10
1.292605400085449
 20
-132.0452655255795
 11
1.636848834807012
 21
-129.5452655255795
  0
LINE
  8
100
  6
CONTINUOUS
 10
1.292605400085449
 20
-132.2952655255795
 11
1.636848834807012
 21
-129.5452655255795
  0
LINE
  8
100
  6
CONTINUOUS
 10
1.292605400085449
 20
-132.2952655255795
 11
1.292605400085449
 21
-127.0452655255795
  0
LINE
  8
100
  6
CONTINUOUS
 10
60.29260540008545
 20
-132.0452655255795
 11
60.29260540008545
 21
-127.0452655255795
  0
LINE
  8
100
  6
CONTINUOUS
 10
91.29260540008545
 20
-132.0452655255795
 11
91.29260540008545
 21
-127.0452655255795
  0
LINE
  8
100
  6
CONTINUOUS
 10
-169.2073945999146
 20
106.7047344744206
 11
-151.2073945999146
 21
106.7047344744206
  0
LINE
  8
100
  6
CONTINUOUS
 10
-139.2073945999146
 20
-102.2922668457031
 11
-139.2073945999146
 21
106.7047344744206
  0
LINE
  8
100
  6
CONTINUOUS
 10
-146.2073945999146
 20
111.7047344744206
 11
-146.2073945999146
 21
112.2047344744206
  0
ARC
  8
100
  6
CONTINUOUS
 10
-151.2073945999146
 20
111.7047344744206
 40
5.0
 50
270.0
 51
0.0
  0
ARC
  8
100
  6
CONTINUOUS
 10
-136.2073945999146
 20
112.2047344744206
 40
10.0
 50
90.0
 51
180.0
  0
LINE
  8
100
  6
CONTINUOUS
 10
-129.2073945999146
 20
-122.7952655255795
 11
-128.3114471435547
 21
-122.7952655255795
  0
LINE
  8
100
  6
CONTINUOUS
 10
-146.2073945999146
 20
-112.7952655255795
 11
-146.2073945999146
 21
-112.2952655255795
  0
LINE
  8
100
  6
CONTINUOUS
 10
-169.2073945999146
 20
-107.2952655255795
 11
-151.2073945999146
 21
-107.2952655255795
  0
ARC
  8
100
  6
CONTINUOUS
 10
-136.2073945999146
 20
-112.7952655255795
 40
10.0
 50
180.0
 51
270.0
  0
ARC
  8
100
  6
CONTINUOUS
 10
-151.2073945999146
 20
-112.2952655255795
 40
5.0
 50
0.0
 51
90.0
  0
CIRCLE
  8
100
  6
CONTINUOUS
 10
127.7926054000855
 20
-0.2952655255794525
 40
9.25
  0
CIRCLE
  8
100
  6
CONTINUOUS
 10
-156.2073945999146
 20
-0.2952655255794525
 40
9.25
  0
CIRCLE
  8
100
  6
CONTINUOUS
 10
-14.20739459991455
 20
131.7047344744206
 40
9.25
  0
LINE
  8
100
  6
CONTINUOUS
 10
-119.7073945999146
 20
122.2047344744206
 11
-119.7073945999146
 21
144.7047344744206
  0
LINE
  8
100
  6
CONTINUOUS
 10
-88.70739459991455
 20
122.2047344744206
 11
-88.70739459991455
 21
144.7047344744206
  0
ARC
  8
100
  6
CONTINUOUS
 10
-124.7073945999146
 20
122.2047344744206
 40
5.0
 50
270.0
 51
0.0
  0
ARC
  8
100
  6
CONTINUOUS
 10
-83.70739459991455
 20
122.2047344744206
 40
5.0
 50
180.0
 51
270.0
  0
ARC
  8
100
  6
CONTINUOUS
 10
-124.7073945999146
 20
127.2047344744206
 40
5.0
 50
270.0
 51
0.0
  0
ARC
  8
100
  6
CONTINUOUS
 10
-83.70739459991455
 20
127.2047344744206
 40
5.0
 50
180.0
 51
270.0
  0
LINE
  8
100
  6
CONTINUOUS
 10
-29.70739459991455
 20
122.2047344744206
 11
-29.70739459991455
 21
144.7047344744206
  0
LINE
  8
100
  6
CONTINUOUS
 10
1.292605400085449
 20
122.2047344744206
 11
1.292605400085449
 21
144.7047344744206
  0
LINE
  8
100
  6
CONTINUOUS
 10
60.29260540008545
 20
122.2047344744206
 11
60.29260540008545
 21
144.7047344744206
  0
LINE
  8
100
  6
CONTINUOUS
 10
91.29260540008545
 20
125.2876892089844
 11
91.29260540008545
 21
144.7047344744206
  0
LINE
  8
100
  6
CONTINUOUS
 10
91.29260540008545
 20
125.2876892089844
 11
91.29260540008545
 21
144.7047344744206
  0
LINE
  8
100
  6
CONTINUOUS
 10
91.29260540008545
 20
122.2047344744206
 11
91.29260540008545
 21
144.7047344744206
  0
ARC
  8
100
  6
CONTINUOUS
 10
-34.70739459991455
 20
127.2047344744206
 40
5.0
 50
270.0
 51
0.0
  0
ARC
  8
100
  6
CONTINUOUS
 10
-34.70739459991455
 20
122.2047344744206
 40
5.0
 50
270.0
 51
0.0
  0
ARC
  8
100
  6
CONTINUOUS
 10
6.292605400085449
 20
127.2047344744206
 40
5.0
 50
180.0
 51
270.0
  0
ARC
  8
100
  6
CONTINUOUS
 10
6.292605400085449
 20
122.2047344744206
 40
5.0
 50
180.0
 51
270.0
  0
ARC
  8
100
  6
CONTINUOUS
 10
55.29260540008545
 20
127.2047344744206
 40
5.0
 50
270.0
 51
0.0
  0
ARC
  8
100
  6
CONTINUOUS
 10
55.29260540008545
 20
122.2047344744206
 40
5.0
 50
270.0
 51
0.0
  0
ARC
  8
100
  6
CONTINUOUS
 10
96.29260540008545
 20
127.2047344744206
 40
5.0
 50
180.0
 51
270.0
  0
ARC
  8
100
  6
CONTINUOUS
 10
96.29260540008545
 20
122.2047344744206
 40
5.0
 50
180.0
 51
270.0
  0
ARC
  8
100
  6
CONTINUOUS
 10
107.7926054000855
 20
112.2047344744206
 40
10.0
 50
0.0
 51
90.0
  0
LINE
  8
100
  6
CONTINUOUS
 10
6.292605400085449
 20
122.2047344744206
 11
55.29260540008545
 21
122.2047344744206
  0
LINE
  8
100
  6
CONTINUOUS
 10
96.29260540008545
 20
122.2047344744206
 11
107.7926054000855
 21
122.2047344744206
  0
LINE
  8
100
  6
CONTINUOUS
 10
-136.2073945999146
 20
122.2047344744206
 11
-124.7073945999146
 21
122.2047344744206
  0
LINE
  8
100
  6
CONTINUOUS
 10
-83.70739459991455
 20
122.2047344744206
 11
-34.70739459991455
 21
122.2047344744206
  0
ARC
  8
100
  6
CONTINUOUS
 10
107.7926054000855
 20
-112.7952655255795
 40
10.0
 50
270.0
 51
0.0
  0
ARC
  8
100
  6
CONTINUOUS
 10
96.29260540008545
 20
-127.7952655255795
 40
5.0
 50
90.0
 51
180.0
  0
ARC
  8
100
  6
CONTINUOUS
 10
96.29260540008545
 20
-122.7952655255795
 40
5.0
 50
90.0
 51
180.0
  0
ARC
  8
100
  6
CONTINUOUS
 10
55.29260540008545
 20
-122.7952655255795
 40
5.0
 50
0.0
 51
90.0
  0
ARC
  8
100
  6
CONTINUOUS
 10
55.29260540008545
 20
-127.7952655255795
 40
5.0
 50
0.0
 51
90.0
  0
ARC
  8
100
  6
CONTINUOUS
 10
6.292605400085449
 20
-127.7952655255795
 40
5.0
 50
90.0
 51
180.0
  0
ARC
  8
100
  6
CONTINUOUS
 10
6.292605400085449
 20
-122.7952655255795
 40
5.0
 50
90.0
 51
180.0
  0
ARC
  8
100
  6
CONTINUOUS
 10
-34.70739459991455
 20
-122.7952655255795
 40
5.0
 50
0.0
 51
90.0
  0
ARC
  8
100
  6
CONTINUOUS
 10
-34.70739459991455
 20
-127.7952655255795
 40
5.0
 50
0.0
 51
90.0
  0
ARC
  8
100
  6
CONTINUOUS
 10
-83.71012894165087
 20
-122.7952655255795
 40
5.000000000000007
 50
90.0
 51
180.0368766013479
  0
ARC
  8
100
  6
CONTINUOUS
 10
-83.70739459991455
 20
-127.7952655255795
 40
5.0
 50
90.0
 51
180.0
  0
ARC
  8
100
  6
CONTINUOUS
 10
-124.857846463045
 20
-127.7952655255795
 40
4.999999999999995
 50
352.1598249325804
 51
90.0
  0
ARC
  8
100
  6
CONTINUOUS
 10
-124.7073945999146
 20
-122.7952655255795
 40
5.0
 50
0.0
 51
90.0
  0
LINE
  8
100
  6
CONTINUOUS
 10
96.29260540008545
 20
-122.7952655255795
 11
107.7926054000855
 21
-122.7952655255795
  0
LINE
  8
100
  6
CONTINUOUS
 10
6.292605400085449
 20
-122.7952655255795
 11
55.29260540008545
 21
-122.7952655255795
  0
LINE
  8
100
  6
CONTINUOUS
 10
-83.70739459991455
 20
-122.7952655255795
 11
-34.70739459991455
 21
-122.7952655255795
  0
LINE
  8
100
  6
CONTINUOUS
 10
-136.2073945999146
 20
-122.7952655255795
 11
-124.857846463045
 21
-122.7952655255795
  0
LINE
  8
100
  6
CONTINUOUS
 10
117.7926054000855
 20
105.2047344744206
 11
140.7926054000855
 21
105.2047344744206
  0
LINE
  8
100
  6
CONTINUOUS
 10
117.7926054000855
 20
74.20473447442055
 11
140.7926054000855
 21
74.20473447442055
  0
LINE
  8
100
  6
CONTINUOUS
 10
117.7926054000855
 20
15.20473447442055
 11
140.7926054000855
 21
15.20473447442055
  0
LINE
  8
100
  6
CONTINUOUS
 10
117.7926054000855
 20
-15.79526552557945
 11
140.7926054000855
 21
-15.79526552557945
  0
LINE
  8
100
  6
CONTINUOUS
 10
117.7926054000855
 20
-74.79526552557945
 11
140.7926054000855
 21
-74.79526552557945
  0
LINE
  8
100
  6
CONTINUOUS
 10
117.7926054000855
 20
-105.7952655255795
 11
140.7926054000855
 21
-105.7952655255795
  0
ARC
  8
100
  6
CONTINUOUS
 10
122.7926054000855
 20
110.2047344744206
 40
5.0
 50
180.0
 51
270.0
  0
ARC
  8
100
  6
CONTINUOUS
 10
122.7926054000855
 20
69.20473447442055
 40
5.0
 50
90.0
 51
180.0
  0
ARC
  8
100
  6
CONTINUOUS
 10
117.7926054000855
 20
69.20473447442055
 40
5.0
 50
90.0
 51
180.0
  0
ARC
  8
100
  6
CONTINUOUS
 10
117.7926054000855
 20
110.2047344744206
 40
5.0
 50
180.0
 51
270.0
  0
ARC
  8
100
  6
CONTINUOUS
 10
122.7926054000855
 20
20.20473447442055
 40
5.0
 50
180.0
 51
270.0
  0
ARC
  8
100
  6
CONTINUOUS
 10
117.7926054000855
 20
20.20473447442055
 40
5.0
 50
180.0
 51
270.0
  0
ARC
  8
100
  6
CONTINUOUS
 10
122.7926054000855
 20
-20.79526552557945
 40
5.0
 50
90.0
 51
180.0
  0
ARC
  8
100
  6
CONTINUOUS
 10
117.7926054000855
 20
-20.79526552557945
 40
5.0
 50
90.0
 51
180.0
  0
ARC
  8
100
  6
CONTINUOUS
 10
122.7926054000855
 20
-69.79526552557945
 40
5.0
 50
180.0
 51
270.0
  0
ARC
  8
100
  6
CONTINUOUS
 10
117.7926054000855
 20
-69.79526552557945
 40
5.0
 50
180.0
 51
270.0
  0
ARC
  8
100
  6
CONTINUOUS
 10
117.7926054000855
 20
-110.7952655255795
 40
5.0
 50
90.0
 51
180.0
  0
ARC
  8
100
  6
CONTINUOUS
 10
122.7926054000855
 20
-110.7952655255795
 40
5.0
 50
90.0
 51
180.0
  0
LINE
  8
100
  6
CONTINUOUS
 10
117.7926054000855
 20
112.2047344744206
 11
117.7926054000855
 21
110.2047344744206
  0
LINE
  8
100
  6
CONTINUOUS
 10
117.7926054000855
 20
69.20473447442055
 11
117.7926054000855
 21
20.20473447442055
  0
LINE
  8
100
  6
CONTINUOUS
 10
117.7926054000855
 20
-20.79526552557945
 11
117.7926054000855
 21
-69.79526552557945
  0
LINE
  8
100
  6
CONTINUOUS
 10
117.7926054000855
 20
-110.7952655255795
 11
117.7926054000855
 21
-112.7952655255795
  0
INSERT
  8
100
  6
CONTINUOUS
  2
ＮＭＢロゴ（高さ１０ｍｍ）_0001
 10
-15.968430519104
 20
89.68197631835938
 41
1.0
 42
1.0
 50
0.0
  0
LINE
  8
100
  6
CONTINUOUS
 10
364.7926054000855
 20
105.2047344744206
 11
379.7926054000855
 21
105.2047344744206
  0
LINE
  8
100
  6
CONTINUOUS
 10
364.7926054000855
 20
74.20473447442055
 11
379.7926054000855
 21
74.20473447442055
  0
LINE
  8
100
  6
CONTINUOUS
 10
364.7926054000855
 20
-15.79526552557945
 11
379.7926054000855
 21
-15.79526552557945
  0
LINE
  8
100
  6
CONTINUOUS
 10
364.7926054000855
 20
15.20473447442055
 11
379.7926054000855
 21
15.20473447442055
  0
LINE
  8
100
  6
CONTINUOUS
 10
364.7926054000855
 20
-74.79526552557945
 11
379.7926054000855
 21
-74.79526552557945
  0
LINE
  8
100
  6
CONTINUOUS
 10
364.7926054000855
 20
-105.7952655255795
 11
379.7926054000855
 21
-105.7952655255795
  0
LINE
  8
100
  6
CONTINUOUS
 10
369.7926054000855
 20
144.7047344744206
 11
412.7926054000855
 21
144.7047344744206
  0
LINE
  8
100
  6
CONTINUOUS
 10
369.7926054000855
 20
-145.2952655255795
 11
412.7926054000855
 21
-145.2952655255795
  0
LINE
  8
100
  6
CONTINUOUS
 10
364.7926054000855
 20
-105.7952655255795
 11
364.7926054000855
 21
-74.79526552557945
  0
LINE
  8
100
  6
CONTINUOUS
 10
364.7926054000855
 20
-15.79526552557945
 11
364.7926054000855
 21
15.20473447442055
  0
LINE
  8
100
  6
CONTINUOUS
 10
364.7926054000855
 20
74.20473447442055
 11
364.7926054000855
 21
105.2047344744206
  0
LINE
  8
100
  6
CONTINUOUS
 10
379.7926054000855
 20
-145.2952655255795
 11
379.7926054000855
 21
-105.7952655255795
  0
LINE
  8
100
  6
CONTINUOUS
 10
379.7926054000855
 20
-74.79526552557945
 11
379.7926054000855
 21
-15.79526552557945
  0
LINE
  8
100
  6
CONTINUOUS
 10
379.7926054000855
 20
15.20473447442055
 11
379.7926054000855
 21
74.20473447442055
  0
LINE
  8
100
  6
CONTINUOUS
 10
379.7926054000855
 20
105.2047344744206
 11
379.7926054000855
 21
144.7047344744206
  0
LINE
  8
100
  6
CONTINUOUS
 10
412.7926054000855
 20
-145.2952655255795
 11
412.7926054000855
 21
144.7047344744206
  0
LINE
  8
100
  6
CONTINUOUS
 10
344.5507286487469
 20
110.6683558202312
 11
359.2763589027625
 21
114.4441584494659
  0
LINE
  8
100
  6
CONTINUOUS
 10
344.5507286487469
 20
-111.2588868713901
 11
359.2763589027625
 21
-115.0346895006248
  0
ARC
  8
100
  6
CONTINUOUS
 10
345.7926054000855
 20
105.8250364900109
 40
5.0
 50
104.3813945910905
 51
180.0
  0
ARC
  8
100
  6
CONTINUOUS
 10
345.7926054000855
 20
-106.4155675411699
 40
5.0
 50
180.0
 51
255.6186054089095
  0
ARC
  8
100
  6
CONTINUOUS
 10
369.7926054000855
 20
-128.0546614943986
 40
9.999999999999996
 50
0.0
 51
75.61860540890952
  0
ARC
  8
100
  6
CONTINUOUS
 10
369.7926054000855
 20
127.4641304432397
 40
9.999999999999996
 50
284.3813945910905
 51
0.0
  0
LINE
  8
100
  6
CONTINUOUS
 10
366.7926054000855
 20
-142.2952655255795
 11
366.7926054000855
 21
-124.7213281610653
  0
LINE
  8
100
  6
CONTINUOUS
 10
366.7926054000855
 20
124.1307971099064
 11
366.7926054000855
 21
141.7047344744206
  0
ARC
  8
100
  6
CONTINUOUS
 10
356.7926054000855
 20
-124.7213281610653
 40
10.0
 50
0.0
 51
75.61860540890952
  0
ARC
  8
100
  6
CONTINUOUS
 10
356.7926054000855
 20
124.1307971099064
 40
9.999999999999996
 50
284.3813945910905
 51
0.0
  0
LINE
  8
100
  6
CONTINUOUS
 10
372.2763589027625
 20
-118.3680228339582
 11
359.2763589027625
 21
-115.0346895006248
  0
LINE
  8
100
  6
CONTINUOUS
 10
372.2763589027625
 20
117.7774917827993
 11
353.9203269824726
 21
113.0708169314429
  0
ARC
  8
100
  6
CONTINUOUS
 10
369.7926054000855
 20
141.7047344744206
 40
3.0
 50
90.0
 51
180.0
  0
ARC
  8
100
  6
CONTINUOUS
 10
369.7926054000855
 20
-142.2952655255795
 40
3.0
 50
180.0
 51
270.0
  0
LINE
  8
100
  6
CONTINUOUS
 10
422.17777020722
 20
-130.2952655255795
 11
475.6692580327336
 21
-130.2952655255795
  0
LINE
  8
100
  6
CONTINUOUS
 10
581.6693140581579
 20
-130.2952655255795
 11
669.7926054000855
 21
-130.2952655255795
  0
LINE
  8
100
  6
CONTINUOUS
 10
412.7926054000855
 20
-145.2952655255795
 11
417.5353867527937
 21
-133.4383121438089
  0
LINE
  8
100
  6
CONTINUOUS
 10
412.7926054000855
 20
144.7047344744206
 11
417.5353867527937
 21
132.84778109265
  0
ARC
  8
100
  6
CONTINUOUS
 10
422.17777020722
 20
-135.2952655255795
 40
5.0
 50
90.0
 51
158.1985905136481
  0
ARC
  8
100
  6
CONTINUOUS
 10
422.17777020722
 20
134.7047344744206
 40
5.0
 50
201.8014094863519
 51
270.0
  0
LINE
  8
100
  6
CONTINUOUS
 10
413.9926054000854
 20
141.7047344744206
 11
649.7926054000855
 21
141.7047344744206
  0
LINE
  8
100
  6
CONTINUOUS
 10
422.17777020722
 20
129.7047344744206
 11
521.9366002498207
 21
129.7047344744206
  0
LINE
  8
100
  6
CONTINUOUS
 10
538.810661376336
 20
4.204734474420659
 11
662.7926054000855
 21
4.204734474420562
  0
LINE
  8
100
  6
CONTINUOUS
 10
538.7952391895572
 20
-4.795265525579563
 11
662.7926054000855
 21
-4.795265525579467
  0
LINE
  8
100
  6
CONTINUOUS
 10
413.9926054000854
 20
-142.2952655255795
 11
649.7926054000855
 21
-142.2952655255795
  0
LINE
  8
100
  6
CONTINUOUS
 10
475.6692580327336
 20
-130.2952655255795
 11
475.65697630872
 21
-142.2407738277619
  0
LINE
  8
100
  6
CONTINUOUS
 10
581.6693140581579
 20
-130.2952655255795
 11
581.6569202833254
 21
-142.349757223397
  0
ARC
  8
100
  6
CONTINUOUS
 10
540.6744331168728
 20
-125.2952655255794
 40
5.000000000000021
 50
179.9410916065384
 51
270.0
  0
ARC
  8
100
  6
CONTINUOUS
 10
516.6744204318711
 20
-125.2952655255795
 40
5.000000000000021
 50
270.0
 51
359.941091606539
  0
LINE
  8
100
  6
CONTINUOUS
 10
535.6919089525135
 20
-108.2952655255795
 11
535.6744357595801
 21
-125.2901247993703
  0
LINE
  8
100
  6
CONTINUOUS
 10
521.7952270330981
 20
-7.798349961304973
 11
521.6744177891638
 21
-125.3004062517886
  0
ARC
  8
100
  6
CONTINUOUS
 10
518.8106508055014
 20
7.204734474420548
 40
3.0
 50
270.0
 51
359.941091606538
  0
ARC
  8
100
  6
CONTINUOUS
 10
518.7952286187225
 20
-7.795265525579453
 40
3.0
 50
359.9410916065376
 51
90.0
  0
ARC
  8
100
  6
CONTINUOUS
 10
538.7952391895572
 20
-7.795265525579453
 40
2.999999999999945
 50
90.0
 51
179.9410916065376
  0
ARC
  8
100
  6
CONTINUOUS
 10
538.810661376336
 20
7.204734474420548
 40
2.999999999999945
 50
179.9410916065375
 51
270.0
  0
LINE
  8
100
  6
CONTINUOUS
 10
535.936607649405
 20
129.7047344744206
 11
669.7926054000855
 21
129.7047344744206
  0
LINE
  8
100
  6
CONTINUOUS
 10
535.9489453988281
 20
141.7047344744206
 11
535.8106629619605
 21
7.207818910146116
  0
LINE
  8
100
  6
CONTINUOUS
 10
521.9489379992438
 20
141.7047344744206
 11
521.810649219877
 21
7.20165003869505
  0
LINE
  8
100
  6
CONTINUOUS
 10
538.9109055903987
 20
107.7047344744205
 11
669.7926054000855
 21
107.7047344744206
  0
LINE
  8
100
  6
CONTINUOUS
 10
535.6919089525136
 20
-108.2952655255795
 11
669.7926054000855
 21
-108.2952655255795
  0
ARC
  8
100
  6
CONTINUOUS
 10
538.9109055903987
 20
104.7047344744206
 40
2.999999999999945
 50
90.0
 51
179.9410916065375
  0
ARC
  8
100
  6
CONTINUOUS
 10
538.7952391895572
 20
-7.795265525579508
 40
2.999999999999945
 50
90.0
 51
179.9410916065376
  0
ARC
  8
100
  6
CONTINUOUS
 10
538.810661376336
 20
7.204734474420604
 40
2.999999999999945
 50
179.9410916065378
 51
270.0
  0
LINE
  8
100
  6
CONTINUOUS
 10
662.7926054000855
 20
-75.29526552557945
 11
662.7926054000855
 21
74.70473447442055
  0
LINE
  8
100
  6
CONTINUOUS
 10
665.7926054000855
 20
-78.29526552557945
 11
666.7926054000855
 21
-78.29526552557945
  0
LINE
  8
100
  6
CONTINUOUS
 10
665.7926054000855
 20
77.70473447442055
 11
666.7926054000855
 21
77.70473447442055
  0
LINE
  8
100
  6
CONTINUOUS
 10
649.7926054000855
 20
141.7047344744206
 11
669.7926054000855
 21
129.7047344744206
  0
LINE
  8
100
  6
CONTINUOUS
 10
649.7926054000855
 20
-142.2952655255795
 11
669.7926054000855
 21
-130.2952655255795
  0
ARC
  8
100
  6
CONTINUOUS
 10
665.7926054000855
 20
74.70473447442055
 40
3.0
 50
90.0
 51
180.0
  0
ARC
  8
100
  6
CONTINUOUS
 10
665.7926054000855
 20
-75.29526552557945
 40
3.0
 50
180.0
 51
270.0
  0
ARC
  8
100
  6
CONTINUOUS
 10
666.7926054000855
 20
-81.29526552557945
 40
3.0
 50
0.0
 51
90.0
  0
ARC
  8
100
  6
CONTINUOUS
 10
666.7926054000855
 20
80.70473447442055
 40
3.0
 50
270.0
 51
0.0
  0
LINE
  8
100
  6
CONTINUOUS
 10
669.7926054000855
 20
-130.2952655255795
 11
669.7926054000855
 21
-81.29526552557945
  0
LINE
  8
100
  6
CONTINUOUS
 10
650.7926054000855
 20
-4.795265525579469
 11
650.7926054000855
 21
4.204734474420564
  0
LINE
  8
100
  6
CONTINUOUS
 10
535.6919089525135
 20
-108.2952655255795
 11
535.7952407751816
 21
-7.792181089853985
  0
LINE
  8
100
  6
CONTINUOUS
 10
-135.1289255646852
 20
-345.2952655255795
 11
106.7141363648561
 21
-345.2952655255795
  0
LINE
  8
100
  6
CONTINUOUS
 10
675.7926054000855
 20
83.70473447442055
 11
675.7926054000855
 21
115.7047344744206
  0
LINE
  8
100
  6
CONTINUOUS
 10
675.7926054000855
 20
-116.2952655255795
 11
675.7926054000855
 21
-84.29526552557945
  0
LINE
  8
100
  6
CENTER
 10
630.9024658203125
 20
99.70473447442055
 11
669.7926054000855
 21
99.70473447442055
  0
LINE
  8
100
  6
CENTER
 10
630.9024658203125
 20
99.70473447442055
 11
693.7808174239758
 21
99.70473447442055
  0
LINE
  8
100
  6
CENTER
 10
633.583740234375
 20
-100.2952655255795
 11
693.5715942382813
 21
-100.2952655255795
  0
LINE
  8
100
  6
CONTINUOUS
 10
669.7926054000855
 20
115.7047344744206
 11
675.7926054000855
 21
115.7047344744206
  0
LINE
  8
100
  6
CONTINUOUS
 10
669.7926054000855
 20
83.70473447442055
 11
675.7926054000855
 21
83.70473447442055
  0
LINE
  8
100
  6
CONTINUOUS
 10
669.7926054000855
 20
-84.29526552557945
 11
675.7926054000855
 21
-84.29526552557945
  0
LINE
  8
100
  6
CONTINUOUS
 10
669.7926054000855
 20
-116.2952655255795
 11
675.7926054000855
 21
-116.2952655255795
  0
LINE
  8
100
  6
CONTINUOUS
 10
-176.7073945999146
 20
-680.2952655255795
 11
148.2926054000855
 21
-680.2952655255795
  0
LINE
  8
100
  6
CONTINUOUS
 10
-176.7073945999146
 20
-674.2952655255795
 11
148.2926054000855
 21
-674.2952655255795
  0
LINE
  8
100
  6
CONTINUOUS
 10
-172.2073945999146
 20
-399.2952655255795
 11
140.7926054000855
 21
-399.2952655255795
  0
LINE
  8
100
  6
CONTINUOUS
 10
-169.2073945999146
 20
-420.2952655255795
 11
-169.2073945999146
 21
-366.2952655255795
  0
LINE
  8
100
  6
CONTINUOUS
 10
140.7926054000855
 20
-417.2952655255795
 11
140.7926054000855
 21
-371.2952655255795
  0
LINE
  8
100
  6
CONTINUOUS
 10
60.29260540008545
 20
-384.2952655255795
 11
60.29260540008545
 21
-369.2952655255795
  0
LINE
  8
100
  6
CONTINUOUS
 10
91.29260540008545
 20
-384.2952655255795
 11
91.29260540008545
 21
-369.2952655255795
  0
LINE
  8
100
  6
CONTINUOUS
 10
-29.70739459991455
 20
-384.2952655255795
 11
-29.70739459991455
 21
-369.2952655255795
  0
LINE
  8
100
  6
CONTINUOUS
 10
1.292605400085449
 20
-384.2952655255795
 11
1.292605400085449
 21
-369.2952655255795
  0
LINE
  8
100
  6
CONTINUOUS
 10
-88.70739459991455
 20
-384.2952655255795
 11
-88.70739459991455
 21
-369.2952655255795
  0
LINE
  8
100
  6
CONTINUOUS
 10
-119.7073945999146
 20
-384.2952655255795
 11
-119.7073945999146
 21
-369.2952655255795
  0
LINE
  8
100
  6
CONTINUOUS
 10
-119.7073945999146
 20
-369.2952655255795
 11
-88.70739459991455
 21
-369.2952655255795
  0
LINE
  8
100
  6
CONTINUOUS
 10
-29.70739459991455
 20
-369.2952655255795
 11
1.292605400085449
 21
-369.2952655255795
  0
LINE
  8
100
  6
CONTINUOUS
 10
60.29260540008545
 20
-369.2952655255795
 11
91.29260540008545
 21
-369.2952655255795
  0
LINE
  8
100
  6
CONTINUOUS
 10
-169.2073945999146
 20
-384.2952655255795
 11
-119.7073945999146
 21
-384.2952655255795
  0
LINE
  8
100
  6
CONTINUOUS
 10
-88.70739459991455
 20
-384.2952655255795
 11
-29.70739459991455
 21
-384.2952655255795
  0
LINE
  8
100
  6
CONTINUOUS
 10
1.292605400085449
 20
-384.2952655255795
 11
60.29260540008545
 21
-384.2952655255795
  0
LINE
  8
100
  6
CONTINUOUS
 10
-169.2073945999146
 20
-417.2952655255795
 11
140.7926054000855
 21
-417.2952655255795
  0
LINE
  8
100
  6
CONTINUOUS
 10
111.6121498680636
 20
-349.2905448069728
 11
115.3063942654407
 21
-367.2999862441861
  0
LINE
  8
100
  6
CONTINUOUS
 10
-140.0269390678927
 20
-349.2905448069728
 11
-143.7211834652698
 21
-367.2999862441861
  0
LINE
  8
100
  6
CONTINUOUS
 10
91.29260540008545
 20
-384.2952655255795
 11
140.7926054000855
 21
-384.2952655255795
  0
ARC
  8
100
  6
CONTINUOUS
 10
106.7141363648561
 20
-350.2952655255795
 40
5.0
 50
11.5921754102913
 51
90.0
  0
ARC
  8
100
  6
CONTINUOUS
 10
-135.1289255646852
 20
-350.2952655255795
 40
4.999999999999991
 50
90.0
 51
168.4078245897087
  0
ARC
  8
100
  6
CONTINUOUS
 10
-151.2858636351439
 20
-379.2952655255795
 40
4.999999999999991
 50
270.0
 51
348.4078245897086
  0
ARC
  8
100
  6
CONTINUOUS
 10
122.8710744353148
 20
-379.2952655255795
 40
5.000000000000004
 50
191.5921754102913
 51
270.0
  0
LINE
  8
100
  6
CONTINUOUS
 10
120.2044077686481
 20
-371.2952655255795
 11
140.7926054000855
 21
-371.2952655255795
  0
LINE
  8
100
  6
CONTINUOUS
 10
-169.2073945999146
 20
-371.2952655255795
 11
-148.6191969684772
 21
-371.2952655255795
  0
ARC
  8
100
  6
CONTINUOUS
 10
120.2044077686481
 20
-366.2952655255795
 40
5.000000000000004
 50
191.5921754102913
 51
270.0
  0
ARC
  8
100
  6
CONTINUOUS
 10
-148.6191969684772
 20
-366.2952655255795
 40
4.999999999999991
 50
270.0
 51
348.4078245897086
  0
LINE
  8
100
  6
CONTINUOUS
 10
-143.0762355682602
 20
-364.1558652462643
 11
-146.3878501319364
 21
-380.2999862441861
  0
LINE
  8
100
  6
CONTINUOUS
 10
113.9418679076415
 20
-360.6479202499149
 11
117.9730609321073
 21
-380.2999862441861
  0
ARC
  8
100
  6
CONTINUOUS
 10
88.79260540008545
 20
-429.2952655255795
 40
5.0
 50
0.0
 51
90.0
  0
LINE
  8
100
  6
CONTINUOUS
 10
0.7926054000854492
 20
-424.2952655255795
 11
88.79260540008545
 21
-424.2952655255795
  0
ARC
  8
100
  6
CONTINUOUS
 10
0.7926054000854492
 20
-429.2952655255795
 40
5.0
 50
90.0
 51
180.0
  0
LINE
  8
100
  6
CONTINUOUS
 10
-4.207394599914551
 20
-429.2952655255795
 11
-4.207394599914551
 21
-439.2952655255795
  0
LINE
  8
100
  6
CONTINUOUS
 10
-24.20739459991455
 20
-439.2952655255795
 11
-4.207394599914551
 21
-439.2952655255795
  0
LINE
  8
100
  6
CONTINUOUS
 10
-24.20739459991455
 20
-429.2901274393619
 11
-24.20739459991455
 21
-439.2952655255795
  0
ARC
  8
100
  6
CONTINUOUS
 10
-29.20739459991455
 20
-429.2901274393619
 40
5.0
 50
0.0
 51
89.94109160653738
  0
LINE
  8
100
  6
CONTINUOUS
 10
-29.20225387370533
 20
-424.2901300820691
 11
-117.2022538737053
 21
-424.1996532529664
  0
ARC
  8
100
  6
CONTINUOUS
 10
-117.2073945999146
 20
-429.1996506102591
 40
5.0
 50
89.94109160653738
 51
180.0
  0
LINE
  8
100
  6
CONTINUOUS
 10
-123.2073945999146
 20
-479.2952655255795
 11
94.79260540008545
 21
-479.2952655255795
  0
LINE
  8
100
  6
CONTINUOUS
 10
-123.2073945999146
 20
-584.2952655255795
 11
94.79260540008545
 21
-584.2952655255795
  0
LINE
  8
100
  6
CONTINUOUS
 10
99.79260540008545
 20
-579.2952655255795
 11
99.79260540008545
 21
-484.2952655255795
  0
LINE
  8
100
  6
CONTINUOUS
 10
-128.2073945999146
 20
-579.2952655255795
 11
-128.2073945999146
 21
-484.2952655255795
  0
LINE
  8
100
  6
CONTINUOUS
 10
93.79260540008545
 20
-429.2952655255795
 11
93.79260540008545
 21
-479.2952655255795
  0
LINE
  8
100
  6
CONTINUOUS
 10
93.79260540008545
 20
-584.2952655255795
 11
93.79260540008545
 21
-674.2952655255795
  0
LINE
  8
100
  6
CONTINUOUS
 10
-9.707394599914551
 20
-439.2952655255795
 11
-9.707394599914551
 21
-479.2952655255795
  0
LINE
  8
100
  6
CONTINUOUS
 10
-9.707394599914551
 20
-584.2952655255795
 11
-9.707394599914551
 21
-659.2952655255795
  0
LINE
  8
100
  6
CONTINUOUS
 10
-18.70739459991455
 20
-439.2952655255795
 11
-18.70739459991455
 21
-479.2952655255795
  0
LINE
  8
100
  6
CONTINUOUS
 10
-18.70739459991455
 20
-584.2952655255795
 11
-18.70739459991455
 21
-659.2952655255795
  0
LINE
  8
100
  6
CONTINUOUS
 10
-122.2073945999146
 20
-429.1996506102591
 11
-122.2073945999146
 21
-479.2952655255795
  0
LINE
  8
100
  6
CONTINUOUS
 10
-122.2073945999146
 20
-584.2952655255795
 11
-122.2073945999146
 21
-674.2952655255795
  0
LINE
  8
100
  6
CONTINUOUS
 10
-149.2073945999146
 20
-674.2952655255795
 11
-149.2073945999146
 21
-541.2952655255795
  0
LINE
  8
100
  6
CONTINUOUS
 10
-149.2073945999146
 20
-527.2952655255795
 11
-149.2073945999146
 21
-417.2952655255795
  0
LINE
  8
100
  6
CONTINUOUS
 10
137.7926054000855
 20
-659.2952655255795
 11
137.7926054000855
 21
-417.2952655255795
  0
LINE
  8
100
  6
CONTINUOUS
 10
-166.2073945999146
 20
-659.2952655255795
 11
-166.2073945999146
 21
-417.2952655255795
  0
LINE
  8
100
  6
CONTINUOUS
 10
137.7926054000855
 20
-659.2952655255795
 11
120.7926054000855
 21
-674.2952655255795
  0
LINE
  8
100
  6
CONTINUOUS
 10
-166.2073945999146
 20
-659.2952655255795
 11
-149.2073945999146
 21
-674.2952655255795
  0
LINE
  8
100
  6
CONTINUOUS
 10
-18.70739459991455
 20
-659.2952655255795
 11
-9.707394599914551
 21
-659.2952655255795
  0
LINE
  8
100
  6
CONTINUOUS
 10
-166.2073945999146
 20
-527.2952655255795
 11
-128.2073945999146
 21
-527.2952655255795
  0
LINE
  8
100
  6
CONTINUOUS
 10
99.79260540008545
 20
-527.2952655255795
 11
137.7926054000855
 21
-527.2952655255795
  0
LINE
  8
100
  6
CONTINUOUS
 10
99.79260540008545
 20
-541.2952655255795
 11
137.7926054000855
 21
-541.2952655255795
  0
LINE
  8
100
  6
CONTINUOUS
 10
-166.2073945999146
 20
-541.2952655255795
 11
-128.2073945999146
 21
-541.2952655255795
  0
LINE
  8
100
  6
CONTINUOUS
 10
120.7926054000855
 20
-527.2952655255795
 11
120.7926054000855
 21
-417.2952655255795
  0
LINE
  8
100
  6
CONTINUOUS
 10
120.7926054000855
 20
-674.2952655255795
 11
120.7926054000855
 21
-541.2952655255795
  0
ARC
  8
100
  6
CONTINUOUS
 10
-131.2073945999146
 20
-524.2952655255795
 40
3.0
 50
270.0
 51
0.0
  0
ARC
  8
100
  6
CONTINUOUS
 10
-131.2073945999146
 20
-544.2952655255795
 40
3.0
 50
0.0
 51
90.0
  0
ARC
  8
100
  6
CONTINUOUS
 10
102.7926054000855
 20
-524.2952655255795
 40
3.0
 50
180.0
 51
270.0
  0
ARC
  8
100
  6
CONTINUOUS
 10
102.7926054000855
 20
-544.2952655255795
 40
3.0
 50
90.0
 51
180.0
  0
ARC
  8
100
  6
CONTINUOUS
 10
-6.707394599914551
 20
-476.2952655255795
 40
3.0
 50
180.0
 51
270.0
  0
ARC
  8
100
  6
CONTINUOUS
 10
-21.70739459991455
 20
-476.2952655255795
 40
3.0
 50
270.0
 51
0.0
  0
ARC
  8
100
  6
CONTINUOUS
 10
-21.70739459991455
 20
-587.2952655255795
 40
3.0
 50
0.0
 51
90.0
  0
ARC
  8
100
  6
CONTINUOUS
 10
-6.707394599914551
 20
-587.2952655255795
 40
3.0
 50
90.0
 51
180.0
  0
ARC
  8
100
  6
CONTINUOUS
 10
-152.2073945999146
 20
-524.2952655255795
 40
3.0
 50
270.0
 51
0.0
  0
ARC
  8
100
  6
CONTINUOUS
 10
-152.2073945999146
 20
-544.2952655255795
 40
3.0
 50
0.0
 51
90.0
  0
ARC
  8
100
  6
CONTINUOUS
 10
123.7926054000855
 20
-524.2952655255795
 40
3.0
 50
180.0
 51
270.0
  0
ARC
  8
100
  6
CONTINUOUS
 10
123.7926054000855
 20
-544.2952655255795
 40
3.0
 50
90.0
 51
180.0
  0
ARC
  8
100
  6
CONTINUOUS
 10
94.79260540008545
 20
-484.2952655255795
 40
5.0
 50
0.0
 51
90.0
  0
ARC
  8
100
  6
CONTINUOUS
 10
94.79260540008545
 20
-579.2952655255795
 40
5.0
 50
270.0
 51
0.0
  0
ARC
  8
100
  6
CONTINUOUS
 10
-123.2073945999146
 20
-579.2952655255795
 40
5.0
 50
180.0
 51
270.0
  0
ARC
  8
100
  6
CONTINUOUS
 10
-123.2073945999146
 20
-484.2952655255795
 40
5.0
 50
90.0
 51
180.0
  0
LINE
  8
100
  6
CONTINUOUS
 10
-176.7073945999146
 20
-680.2952655255795
 11
-176.7073945999146
 21
-674.2952655255795
  0
LINE
  8
100
  6
CONTINUOUS
 10
148.2926054000855
 20
-680.2952655255795
 11
148.2926054000855
 21
-674.2952655255795
  0
LINE
  8
100
  6
CENTER
 10
-164.2073945999146
 20
-699.4175415039063
 11
-164.2073945999146
 21
-644.3597412109375
  0
LINE
  8
100
  6
CENTER
 10
135.7926054000855
 20
-699.4175415039063
 11
135.7926054000855
 21
-644.3597412109375
  0
CIRCLE
  8
100
  6
CONTINUOUS
 10
-54.20739459991455
 20
-559.2952655255795
 40
6.5
  0
CIRCLE
  8
100
  6
CONTINUOUS
 10
-94.20739459991455
 20
-509.2952655255795
 40
6.5
  0
CIRCLE
  8
100
  6
CONTINUOUS
 10
-14.20739459991455
 20
-509.2952655255795
 40
6.5
  0
CIRCLE
  8
100
  6
CONTINUOUS
 10
65.79260540008545
 20
-509.2952655255795
 40
6.5
  0
CIRCLE
  8
100
  6
CONTINUOUS
 10
25.79260540008545
 20
-559.2952655255795
 40
6.5
  0
CIRCLE
  8
100
  6
CONTINUOUS
 10
-54.20739459991455
 20
-559.2952655255795
 40
9.5
  0
CIRCLE
  8
100
  6
CONTINUOUS
 10
25.79260540008545
 20
-559.2952655255795
 40
9.5
  0
CIRCLE
  8
100
  6
CONTINUOUS
 10
65.79260540008545
 20
-509.2952655255795
 40
9.5
  0
CIRCLE
  8
100
  6
CONTINUOUS
 10
-14.20739459991455
 20
-509.2952655255795
 40
9.5
  0
CIRCLE
  8
100
  6
CONTINUOUS
 10
-94.20739459991455
 20
-509.2952655255795
 40
9.5
  0
CIRCLE
  8
100
  6
CONTINUOUS
 10
-54.20739459991455
 20
-559.2952655255795
 40
10.5
  0
CIRCLE
  8
100
  6
CONTINUOUS
 10
-94.20739459991455
 20
-509.2952655255795
 40
10.5
  0
CIRCLE
  8
100
  6
CONTINUOUS
 10
-14.20739459991455
 20
-509.2952655255795
 40
10.5
  0
CIRCLE
  8
100
  6
CONTINUOUS
 10
65.79260540008545
 20
-509.2952655255795
 40
10.5
  0
CIRCLE
  8
100
  6
CONTINUOUS
 10
25.79260540008545
 20
-559.2952655255795
 40
10.5
  0
CIRCLE
  8
100
  6
CONTINUOUS
 10
-54.20739459991455
 20
-559.2952655255795
 40
14.0
  0
CIRCLE
  8
100
  6
CONTINUOUS
 10
25.79260540008545
 20
-559.2952655255795
 40
14.0
  0
CIRCLE
  8
100
  6
CONTINUOUS
 10
65.79260540008545
 20
-509.2952655255795
 40
14.0
  0
CIRCLE
  8
100
  6
CONTINUOUS
 10
-14.20739459991455
 20
-509.2952655255795
 40
14.0
  0
CIRCLE
  8
100
  6
CONTINUOUS
 10
-94.20739459991455
 20
-509.2952655255795
 40
14.0
  0
CIRCLE
  8
100
  6
CONTINUOUS
 10
25.79260540008545
 20
-559.2952655255795
 40
17.0
  0
CIRCLE
  8
100
  6
CONTINUOUS
 10
65.79260540008545
 20
-509.2952655255795
 40
17.0
  0
CIRCLE
  8
100
  6
CONTINUOUS
 10
-14.20739459991455
 20
-509.2952655255795
 40
17.0
  0
CIRCLE
  8
100
  6
CONTINUOUS
 10
-94.20739459991455
 20
-509.2952655255795
 40
17.0
  0
LINE
  8
100
  6
CONTINUOUS
 10
-11.20739459991455
 20
-491.0401292620508
 11
-3.420384300048795
 21
-494.2656145385944
  0
LINE
  8
100
  6
CONTINUOUS
 10
-24.99440489978049
 20
-494.2656145385942
 11
-17.20739459991455
 21
-491.0401292620508
  0
LINE
  8
100
  6
CONTINUOUS
 10
-32.46253086344323
 20
-506.2952655255795
 11
-29.23704558689968
 21
-498.5082552257136
  0
LINE
  8
100
  6
CONTINUOUS
 10
-32.46253086344325
 20
-512.2952655255795
 11
-29.23704558689965
 21
-520.0822758254452
  0
LINE
  8
100
  6
CONTINUOUS
 10
-24.99440489978052
 20
-524.3249165125646
 11
-17.20739459991455
 21
-527.5504017891082
  0
LINE
  8
100
  6
CONTINUOUS
 10
-11.20739459991455
 20
-527.5504017891082
 11
-3.420384300048767
 21
-524.3249165125645
  0
LINE
  8
100
  6
CONTINUOUS
 10
4.047741663614147
 20
-512.2952655255795
 11
0.8222563870706665
 21
-520.0822758254453
  0
LINE
  8
100
  6
CONTINUOUS
 10
0.8222563870706665
 20
-498.5082552257135
 11
4.047741663614133
 21
-506.2952655255795
  0
CIRCLE
  8
100
  6
CONTINUOUS
 10
-14.20739459991455
 20
-509.2952655255795
 40
17.0
  0
LINE
  8
100
  6
CONTINUOUS
 10
68.79260540008545
 20
-491.0401292620508
 11
76.57961569995121
 21
-494.2656145385944
  0
ARC
  8
100
  6
CONTINUOUS
 10
65.79260540008545
 20
-509.2952655255795
 40
18.5
 50
0.0
 51
9.332418183802639
  0
ARC
  8
100
  6
CONTINUOUS
 10
65.79260540008545
 20
-509.2952655255795
 40
18.50000000000001
 50
35.6675818161975
 51
54.33241818380275
  0
ARC
  8
100
  6
CONTINUOUS
 10
65.79260540008545
 20
-509.2952655255795
 40
18.49999999999978
 50
80.66758181619738
 51
99.33241818380265
  0
ARC
  8
100
  6
CONTINUOUS
 10
65.79260540008545
 20
-509.2952655255795
 40
18.50000000000001
 50
125.6675818161973
 51
144.3324181838027
  0
ARC
  8
100
  6
CONTINUOUS
 10
65.79260540008545
 20
-509.2952655255795
 40
18.49999999999988
 50
170.6675818161973
 51
189.3324181838027
  0
ARC
  8
100
  6
CONTINUOUS
 10
65.79260540008545
 20
-509.2952655255795
 40
18.49999999999963
 50
215.667581816197
 51
234.3324181838028
  0
ARC
  8
100
  6
CONTINUOUS
 10
65.79260540008545
 20
-509.2952655255795
 40
18.4999999999999
 50
260.6675818161973
 51
279.3324181838027
  0
ARC
  8
100
  6
CONTINUOUS
 10
65.79260540008545
 20
-509.2952655255795
 40
18.49999999999959
 50
305.6675818161971
 51
324.3324181838028
  0
ARC
  8
100
  6
CONTINUOUS
 10
65.79260540008545
 20
-509.2952655255795
 40
18.50000000000001
 50
350.6675818161974
 51
0.0
  0
LINE
  8
100
  6
CONTINUOUS
 10
55.00559510021951
 20
-494.2656145385942
 11
62.79260540008545
 21
-491.0401292620508
  0
LINE
  8
100
  6
CONTINUOUS
 10
47.53746913655677
 20
-506.2952655255795
 11
50.76295441310032
 21
-498.5082552257136
  0
LINE
  8
100
  6
CONTINUOUS
 10
47.53746913655675
 20
-512.2952655255795
 11
50.76295441310035
 21
-520.0822758254452
  0
LINE
  8
100
  6
CONTINUOUS
 10
55.00559510021948
 20
-524.3249165125646
 11
62.79260540008545
 21
-527.5504017891082
  0
LINE
  8
100
  6
CONTINUOUS
 10
68.79260540008545
 20
-527.5504017891082
 11
76.57961569995123
 21
-524.3249165125645
  0
LINE
  8
100
  6
CONTINUOUS
 10
84.04774166361415
 20
-512.2952655255795
 11
80.82225638707067
 21
-520.0822758254453
  0
LINE
  8
100
  6
CONTINUOUS
 10
80.82225638707067
 20
-498.5082552257135
 11
84.04774166361413
 21
-506.2952655255795
  0
LINE
  8
100
  6
CONTINUOUS
 10
28.79260540008545
 20
-541.0401292620508
 11
36.57961569995121
 21
-544.2656145385944
  0
ARC
  8
100
  6
CONTINUOUS
 10
25.79260540008545
 20
-559.2952655255795
 40
18.5
 50
0.0
 51
9.332418183802639
  0
ARC
  8
100
  6
CONTINUOUS
 10
25.79260540008545
 20
-559.2952655255795
 40
18.50000000000001
 50
35.6675818161975
 51
54.33241818380265
  0
ARC
  8
100
  6
CONTINUOUS
 10
25.79260540008545
 20
-559.2952655255795
 40
18.49999999999978
 50
80.66758181619738
 51
99.33241818380265
  0
ARC
  8
100
  6
CONTINUOUS
 10
25.79260540008545
 20
-559.2952655255795
 40
18.50000000000001
 50
125.6675818161974
 51
144.3324181838029
  0
ARC
  8
100
  6
CONTINUOUS
 10
25.79260540008545
 20
-559.2952655255795
 40
18.49999999999988
 50
170.6675818161973
 51
189.3324181838027
  0
ARC
  8
100
  6
CONTINUOUS
 10
25.79260540008545
 20
-559.2952655255795
 40
18.49999999999963
 50
215.667581816197
 51
234.3324181838028
  0
ARC
  8
100
  6
CONTINUOUS
 10
25.79260540008545
 20
-559.2952655255795
 40
18.4999999999999
 50
260.6675818161973
 51
279.3324181838026
  0
ARC
  8
100
  6
CONTINUOUS
 10
25.79260540008545
 20
-559.2952655255795
 40
18.49999999999959
 50
305.6675818161971
 51
324.3324181838028
  0
ARC
  8
100
  6
CONTINUOUS
 10
25.79260540008545
 20
-559.2952655255795
 40
18.50000000000001
 50
350.6675818161974
 51
0.0
  0
LINE
  8
100
  6
CONTINUOUS
 10
15.00559510021951
 20
-544.2656145385943
 11
22.79260540008545
 21
-541.0401292620508
  0
LINE
  8
100
  6
CONTINUOUS
 10
7.537469136556766
 20
-556.2952655255795
 11
10.76295441310032
 21
-548.5082552257136
  0
LINE
  8
100
  6
CONTINUOUS
 10
7.537469136556751
 20
-562.2952655255795
 11
10.76295441310035
 21
-570.0822758254452
  0
LINE
  8
100
  6
CONTINUOUS
 10
15.00559510021948
 20
-574.3249165125646
 11
22.79260540008545
 21
-577.5504017891082
  0
LINE
  8
100
  6
CONTINUOUS
 10
28.79260540008545
 20
-577.5504017891082
 11
36.57961569995123
 21
-574.3249165125645
  0
LINE
  8
100
  6
CONTINUOUS
 10
44.04774166361415
 20
-562.2952655255795
 11
40.82225638707067
 21
-570.0822758254453
  0
LINE
  8
100
  6
CONTINUOUS
 10
40.82225638707067
 20
-548.5082552257135
 11
44.04774166361413
 21
-556.2952655255795
  0
CIRCLE
  8
100
  6
CONTINUOUS
 10
25.79260540008545
 20
-559.2952655255795
 40
17.0
  0
CIRCLE
  8
100
  6
CONTINUOUS
 10
65.79260540008545
 20
-509.2952655255795
 40
17.0
  0
ARC
  8
100
  6
CONTINUOUS
 10
-14.20739459991455
 20
-509.2952655255795
 40
18.5
 50
0.0
 51
9.332418183802639
  0
ARC
  8
100
  6
CONTINUOUS
 10
-14.20739459991455
 20
-509.2952655255795
 40
18.50000000000001
 50
35.6675818161975
 51
54.33241818380275
  0
ARC
  8
100
  6
CONTINUOUS
 10
-14.20739459991455
 20
-509.2952655255795
 40
18.49999999999978
 50
80.66758181619738
 51
99.33241818380265
  0
ARC
  8
100
  6
CONTINUOUS
 10
-14.20739459991455
 20
-509.2952655255795
 40
18.50000000000001
 50
125.6675818161973
 51
144.3324181838027
  0
ARC
  8
100
  6
CONTINUOUS
 10
-14.20739459991455
 20
-509.2952655255795
 40
18.49999999999988
 50
170.6675818161973
 51
189.3324181838027
  0
ARC
  8
100
  6
CONTINUOUS
 10
-14.20739459991455
 20
-509.2952655255795
 40
18.49999999999963
 50
215.667581816197
 51
234.3324181838028
  0
ARC
  8
100
  6
CONTINUOUS
 10
-14.20739459991455
 20
-509.2952655255795
 40
18.4999999999999
 50
260.6675818161973
 51
279.3324181838026
  0
ARC
  8
100
  6
CONTINUOUS
 10
-14.20739459991455
 20
-509.2952655255795
 40
18.49999999999959
 50
305.6675818161971
 51
324.3324181838028
  0
ARC
  8
100
  6
CONTINUOUS
 10
-14.20739459991455
 20
-509.2952655255795
 40
18.50000000000001
 50
350.6675818161974
 51
0.0
  0
LINE
  8
100
  6
CONTINUOUS
 10
-91.20739459991455
 20
-491.0401292620508
 11
-83.4203843000488
 21
-494.2656145385944
  0
ARC
  8
100
  6
CONTINUOUS
 10
-94.20739459991455
 20
-509.2952655255795
 40
18.5
 50
0.0
 51
9.332418183802639
  0
ARC
  8
100
  6
CONTINUOUS
 10
-94.20739459991455
 20
-509.2952655255795
 40
18.50000000000001
 50
35.6675818161975
 51
54.33241818380275
  0
ARC
  8
100
  6
CONTINUOUS
 10
-94.20739459991455
 20
-509.2952655255795
 40
18.49999999999978
 50
80.66758181619738
 51
99.33241818380266
  0
ARC
  8
100
  6
CONTINUOUS
 10
-94.20739459991455
 20
-509.2952655255795
 40
18.50000000000001
 50
125.6675818161973
 51
144.3324181838027
  0
ARC
  8
100
  6
CONTINUOUS
 10
-94.20739459991455
 20
-509.2952655255795
 40
18.49999999999988
 50
170.6675818161973
 51
189.3324181838027
  0
ARC
  8
100
  6
CONTINUOUS
 10
-94.20739459991455
 20
-509.2952655255795
 40
18.49999999999963
 50
215.667581816197
 51
234.3324181838028
  0
ARC
  8
100
  6
CONTINUOUS
 10
-94.20739459991455
 20
-509.2952655255795
 40
18.4999999999999
 50
260.6675818161973
 51
279.3324181838027
  0
ARC
  8
100
  6
CONTINUOUS
 10
-94.20739459991455
 20
-509.2952655255795
 40
18.49999999999959
 50
305.6675818161971
 51
324.3324181838028
  0
ARC
  8
100
  6
CONTINUOUS
 10
-94.20739459991455
 20
-509.2952655255795
 40
18.50000000000001
 50
350.6675818161974
 51
0.0
  0
LINE
  8
100
  6
CONTINUOUS
 10
-104.9944048997805
 20
-494.2656145385942
 11
-97.20739459991455
 21
-491.0401292620508
  0
LINE
  8
100
  6
CONTINUOUS
 10
-112.4625308634432
 20
-506.2952655255795
 11
-109.2370455868997
 21
-498.5082552257136
  0
LINE
  8
100
  6
CONTINUOUS
 10
-112.4625308634433
 20
-512.2952655255795
 11
-109.2370455868997
 21
-520.0822758254452
  0
LINE
  8
100
  6
CONTINUOUS
 10
-104.9944048997805
 20
-524.3249165125646
 11
-97.20739459991455
 21
-527.5504017891082
  0
LINE
  8
100
  6
CONTINUOUS
 10
-75.95225833638585
 20
-512.2952655255795
 11
-79.17774361292933
 21
-520.0822758254453
  0
LINE
  8
100
  6
CONTINUOUS
 10
-79.17774361292933
 20
-498.5082552257135
 11
-75.95225833638587
 21
-506.2952655255795
  0
CIRCLE
  8
100
  6
CONTINUOUS
 10
-94.20739459991455
 20
-509.2952655255795
 40
17.0
  0
LINE
  8
100
  6
CONTINUOUS
 10
-51.20739459991455
 20
-541.0401292620508
 11
-43.4203843000488
 21
-544.2656145385944
  0
ARC
  8
100
  6
CONTINUOUS
 10
-54.20739459991455
 20
-559.2952655255795
 40
18.5
 50
0.0
 51
9.332418183802639
  0
ARC
  8
100
  6
CONTINUOUS
 10
-54.20739459991455
 20
-559.2952655255795
 40
18.50000000000001
 50
35.6675818161975
 51
54.33241818380265
  0
ARC
  8
100
  6
CONTINUOUS
 10
-54.20739459991455
 20
-559.2952655255795
 40
18.49999999999978
 50
80.66758181619738
 51
99.33241818380265
  0
ARC
  8
100
  6
CONTINUOUS
 10
-54.20739459991455
 20
-559.2952655255795
 40
18.50000000000001
 50
125.6675818161974
 51
144.3324181838029
  0
ARC
  8
100
  6
CONTINUOUS
 10
-54.20739459991455
 20
-559.2952655255795
 40
18.49999999999988
 50
170.6675818161973
 51
189.3324181838027
  0
ARC
  8
100
  6
CONTINUOUS
 10
-54.20739459991455
 20
-559.2952655255795
 40
18.49999999999963
 50
215.667581816197
 51
234.3324181838028
  0
ARC
  8
100
  6
CONTINUOUS
 10
-54.20739459991455
 20
-559.2952655255795
 40
18.4999999999999
 50
260.6675818161973
 51
279.3324181838026
  0
ARC
  8
100
  6
CONTINUOUS
 10
-54.20739459991455
 20
-559.2952655255795
 40
18.49999999999959
 50
305.6675818161971
 51
324.3324181838028
  0
ARC
  8
100
  6
CONTINUOUS
 10
-54.20739459991455
 20
-559.2952655255795
 40
18.50000000000001
 50
350.6675818161974
 51
0.0
  0
LINE
  8
100
  6
CONTINUOUS
 10
-64.99440489978049
 20
-544.2656145385943
 11
-57.20739459991455
 21
-541.0401292620508
  0
LINE
  8
100
  6
CONTINUOUS
 10
-72.46253086344323
 20
-556.2952655255795
 11
-69.23704558689968
 21
-548.5082552257136
  0
LINE
  8
100
  6
CONTINUOUS
 10
-72.46253086344325
 20
-562.2952655255795
 11
-69.23704558689965
 21
-570.0822758254452
  0
LINE
  8
100
  6
CONTINUOUS
 10
-64.99440489978052
 20
-574.3249165125646
 11
-57.20739459991455
 21
-577.5504017891082
  0
LINE
  8
100
  6
CONTINUOUS
 10
-51.20739459991455
 20
-577.5504017891082
 11
-43.42038430004877
 21
-574.3249165125645
  0
LINE
  8
100
  6
CONTINUOUS
 10
-35.95225833638585
 20
-562.2952655255795
 11
-39.17774361292933
 21
-570.0822758254453
  0
LINE
  8
100
  6
CONTINUOUS
 10
-39.17774361292933
 20
-548.5082552257135
 11
-35.95225833638587
 21
-556.2952655255795
  0
CIRCLE
  8
100
  6
CONTINUOUS
 10
-54.20739459991455
 20
-559.2952655255795
 40
17.0
  0
LINE
  8
100
  6
CONTINUOUS
 10
514.7926054000855
 20
-145.2952655255795
 11
514.7926054000855
 21
-142.2952655255795
  0
LINE
  8
100
  6
CONTINUOUS
 10
486.7926054000855
 20
-145.2952655255795
 11
486.7926054000855
 21
-142.2952655255795
  0
LINE
  8
100
  6
CONTINUOUS
 10
488.7926054000855
 20
-147.7952655255795
 11
488.7926054000855
 21
-145.2952655255795
  0
LINE
  8
100
  6
CONTINUOUS
 10
512.7926054000855
 20
-147.7952655255795
 11
512.7926054000855
 21
-145.2952655255795
  0
LINE
  8
100
  6
CONTINUOUS
 10
483.7926054000855
 20
-155.7952655255795
 11
517.7926054000855
 21
-155.7952655255795
  0
LINE
  8
100
  6
CONTINUOUS
 10
516.5426054000855
 20
-161.7952655255795
 11
516.5426054000855
 21
-155.7952655255795
  0
LINE
  8
100
  6
CONTINUOUS
 10
485.0426054000855
 20
-161.7952655255795
 11
485.0426054000855
 21
-155.7952655255795
  0
LINE
  8
100
  6
CONTINUOUS
 10
483.7926054000855
 20
-155.7952655255795
 11
483.7926054000855
 21
-147.7952655255795
  0
LINE
  8
100
  6
CONTINUOUS
 10
517.7926054000855
 20
-155.7952655255795
 11
517.7926054000855
 21
-147.7952655255795
  0
LINE
  8
100
  6
CONTINUOUS
 10
482.2926054000855
 20
-161.7952655255795
 11
519.2926054000855
 21
-161.7952655255795
  0
LINE
  8
100
  6
CONTINUOUS
 10
482.2926054000855
 20
-178.7952655255795
 11
519.2926054000855
 21
-178.7952655255795
  0
LINE
  8
100
  6
CONTINUOUS
 10
482.2926054000855
 20
-178.7952655255795
 11
482.2926054000855
 21
-161.7952655255795
  0
LINE
  8
100
  6
CONTINUOUS
 10
519.2926054000855
 20
-178.7952655255795
 11
519.2926054000855
 21
-161.7952655255795
  0
LINE
  8
100
  6
CONTINUOUS
 10
517.7926054000855
 20
-200.7952655255795
 11
517.7926054000855
 21
-178.7952655255795
  0
LINE
  8
100
  6
CONTINUOUS
 10
483.7926054000855
 20
-200.7952655255795
 11
483.7926054000855
 21
-178.7952655255795
  0
LINE
  8
100
  6
CONTINUOUS
 10
483.7926054000855
 20
-200.7952655255795
 11
517.7926054000855
 21
-200.7952655255795
  0
LINE
  8
100
  6
CONTINUOUS
 10
486.7926054000855
 20
-212.7952655255795
 11
486.7926054000855
 21
-200.7952655255795
  0
LINE
  8
100
  6
CONTINUOUS
 10
514.7926054000855
 20
-212.7952655255795
 11
514.7926054000855
 21
-200.7952655255795
  0
LINE
  8
100
  6
CONTINUOUS
 10
486.7926054000855
 20
-212.7952655255795
 11
514.7926054000855
 21
-212.7952655255795
  0
LINE
  8
100
  6
CONTINUOUS
 10
504.2926054000855
 20
-178.7952655255795
 11
504.2926054000855
 21
-161.7952655255795
  0
LINE
  8
100
  6
CONTINUOUS
 10
504.2926054000855
 20
-155.7952655255795
 11
504.2926054000855
 21
-147.7952655255795
  0
LINE
  8
100
  6
CONTINUOUS
 10
497.2926054000855
 20
-178.7952655255795
 11
497.2926054000855
 21
-161.7952655255795
  0
LINE
  8
100
  6
CONTINUOUS
 10
497.2926054000855
 20
-155.7952655255795
 11
497.2926054000855
 21
-147.7952655255795
  0
LINE
  8
100
  6
CONTINUOUS
 10
486.2926054000855
 20
-178.7952655255795
 11
486.2926054000855
 21
-161.7952655255795
  0
LINE
  8
100
  6
CONTINUOUS
 10
515.2926054000855
 20
-178.7952655255795
 11
515.2926054000855
 21
-161.7952655255795
  0
LINE
  8
100
  6
CONTINUOUS
 10
515.2926054000855
 20
-155.7952655255795
 11
515.2926054000855
 21
-147.7952655255795
  0
LINE
  8
100
  6
CONTINUOUS
 10
486.2926054000855
 20
-155.7952655255795
 11
486.2926054000855
 21
-147.7952655255795
  0
LINE
  8
100
  6
CONTINUOUS
 10
483.7926054000855
 20
-147.7952655255795
 11
517.7926054000855
 21
-147.7952655255795
  0
LINE
  8
100
  6
CONTINUOUS
 10
486.7926054000855
 20
-145.2952655255795
 11
514.7926054000855
 21
-145.2952655255795
  0
ARC
  8
100
  6
CONTINUOUS
 10
498.2926054000855
 20
-237.2570037841797
 40
3.625
 50
226.3971810272964
 51
313.6028189727036
  0
ARC
  8
100
  6
CONTINUOUS
 10
503.2926054000855
 20
-237.2570037841797
 40
3.625
 50
226.3971810272964
 51
313.6028189727036
  0
ARC
  8
100
  6
CONTINUOUS
 10
503.2926054000855
 20
-242.5070037841797
 40
3.625
 50
46.39718102729638
 51
133.6028189727036
  0
LINE
  8
100
  6
CONTINUOUS
 10
505.7926054000855
 20
-239.8820037841797
 11
505.7926054000855
 21
-212.7952655255795
  0
LINE
  8
100
  6
CONTINUOUS
 10
495.7926054000855
 20
-239.8820037841797
 11
495.7926054000855
 21
-212.7952655255795
  0
LINE
  8
100
  6
CONTINUOUS
 10
53.79260540008545
 20
-147.7952655255795
 11
53.79260540008545
 21
-145.2952655255795
  0
LINE
  8
100
  6
CONTINUOUS
 10
77.79260540008545
 20
-147.7952655255795
 11
77.79260540008545
 21
-145.2952655255795
  0
LINE
  8
100
  6
CONTINUOUS
 10
48.79260540008545
 20
-155.7952655255795
 11
82.79260540008545
 21
-155.7952655255795
  0
LINE
  8
100
  6
CONTINUOUS
 10
81.54260540008545
 20
-161.7952655255795
 11
81.54260540008545
 21
-155.7952655255795
  0
LINE
  8
100
  6
CONTINUOUS
 10
50.04260540008545
 20
-161.7952655255795
 11
50.04260540008545
 21
-155.7952655255795
  0
LINE
  8
100
  6
CONTINUOUS
 10
48.79260540008545
 20
-155.7952655255795
 11
48.79260540008545
 21
-147.7952655255795
  0
LINE
  8
100
  6
CONTINUOUS
 10
82.79260540008545
 20
-155.7952655255795
 11
82.79260540008545
 21
-147.7952655255795
  0
LINE
  8
100
  6
CONTINUOUS
 10
47.29260540008545
 20
-161.7952655255795
 11
84.29260540008545
 21
-161.7952655255795
  0
LINE
  8
100
  6
CONTINUOUS
 10
47.29260540008545
 20
-178.7952655255795
 11
84.29260540008545
 21
-178.7952655255795
  0
LINE
  8
100
  6
CONTINUOUS
 10
47.29260540008545
 20
-178.7952655255795
 11
47.29260540008545
 21
-161.7952655255795
  0
LINE
  8
100
  6
CONTINUOUS
 10
84.29260540008545
 20
-178.7952655255795
 11
84.29260540008545
 21
-161.7952655255795
  0
LINE
  8
100
  6
CONTINUOUS
 10
82.79260540008545
 20
-200.7952655255795
 11
82.79260540008545
 21
-178.7952655255795
  0
LINE
  8
100
  6
CONTINUOUS
 10
48.79260540008545
 20
-200.7952655255795
 11
82.79260540008545
 21
-200.7952655255795
  0
LINE
  8
100
  6
CONTINUOUS
 10
51.79260540008545
 20
-212.7952655255795
 11
51.79260540008545
 21
-200.7952655255795
  0
LINE
  8
100
  6
CONTINUOUS
 10
79.79260540008545
 20
-212.7952655255795
 11
79.79260540008545
 21
-200.7952655255795
  0
LINE
  8
100
  6
CONTINUOUS
 10
51.79260540008545
 20
-212.7952655255795
 11
79.79260540008545
 21
-212.7952655255795
  0
LINE
  8
100
  6
CONTINUOUS
 10
69.29260540008545
 20
-178.7952655255795
 11
69.29260540008545
 21
-161.7952655255795
  0
LINE
  8
100
  6
CONTINUOUS
 10
69.29260540008545
 20
-155.7952655255795
 11
69.29260540008545
 21
-147.7952655255795
  0
LINE
  8
100
  6
CONTINUOUS
 10
62.29260540008545
 20
-178.7952655255795
 11
62.29260540008545
 21
-161.7952655255795
  0
LINE
  8
100
  6
CONTINUOUS
 10
62.29260540008545
 20
-155.7952655255795
 11
62.29260540008545
 21
-147.7952655255795
  0
LINE
  8
100
  6
CONTINUOUS
 10
51.29260540008545
 20
-178.7952655255795
 11
51.29260540008545
 21
-161.7952655255795
  0
LINE
  8
100
  6
CONTINUOUS
 10
80.29260540008545
 20
-178.7952655255795
 11
80.29260540008545
 21
-161.7952655255795
  0
LINE
  8
100
  6
CONTINUOUS
 10
80.29260540008545
 20
-155.7952655255795
 11
80.29260540008545
 21
-147.7952655255795
  0
LINE
  8
100
  6
CONTINUOUS
 10
51.29260540008545
 20
-155.7952655255795
 11
51.29260540008545
 21
-147.7952655255795
  0
LINE
  8
100
  6
CONTINUOUS
 10
48.79260540008545
 20
-147.7952655255795
 11
82.79260540008545
 21
-147.7952655255795
  0
LINE
  8
100
  6
CONTINUOUS
 10
51.79260540008545
 20
-145.2952655255795
 11
79.79260540008545
 21
-145.2952655255795
  0
ARC
  8
100
  6
CONTINUOUS
 10
63.29260540008545
 20
-237.2570037841797
 40
3.625
 50
226.3971810272964
 51
313.6028189727036
  0
ARC
  8
100
  6
CONTINUOUS
 10
68.29260540008545
 20
-237.2570037841797
 40
3.625
 50
226.3971810272964
 51
313.6028189727036
  0
ARC
  8
100
  6
CONTINUOUS
 10
68.29260540008545
 20
-242.5070037841797
 40
3.625
 50
46.39718102729638
 51
133.6028189727036
  0
LINE
  8
100
  6
CONTINUOUS
 10
70.79260540008545
 20
-239.8820037841797
 11
70.79260540008545
 21
-212.7952655255795
  0
LINE
  8
100
  6
CONTINUOUS
 10
60.79260540008545
 20
-239.8820037841797
 11
60.79260540008545
 21
-212.7952655255795
  0
LINE
  8
100
  6
CONTINUOUS
 10
-26.20739459991455
 20
-147.7952655255795
 11
-26.20739459991455
 21
-145.2952655255795
  0
LINE
  8
100
  6
CONTINUOUS
 10
-2.207394599914551
 20
-147.7952655255795
 11
-2.207394599914551
 21
-145.2952655255795
  0
LINE
  8
100
  6
CONTINUOUS
 10
-31.20739459991455
 20
-155.7952655255795
 11
2.792605400085449
 21
-155.7952655255795
  0
LINE
  8
100
  6
CONTINUOUS
 10
1.542605400085449
 20
-161.7952655255795
 11
1.542605400085449
 21
-155.7952655255795
  0
LINE
  8
100
  6
CONTINUOUS
 10
-29.95739459991455
 20
-161.7952655255795
 11
-29.95739459991455
 21
-155.7952655255795
  0
LINE
  8
100
  6
CONTINUOUS
 10
-31.20739459991455
 20
-155.7952655255795
 11
-31.20739459991455
 21
-147.7952655255795
  0
LINE
  8
100
  6
CONTINUOUS
 10
2.792605400085449
 20
-155.7952655255795
 11
2.792605400085449
 21
-147.7952655255795
  0
LINE
  8
100
  6
CONTINUOUS
 10
-32.70739459991455
 20
-161.7952655255795
 11
4.292605400085449
 21
-161.7952655255795
  0
LINE
  8
100
  6
CONTINUOUS
 10
-32.70739459991455
 20
-178.7952655255795
 11
4.292605400085449
 21
-178.7952655255795
  0
LINE
  8
100
  6
CONTINUOUS
 10
-32.70739459991455
 20
-178.7952655255795
 11
-32.70739459991455
 21
-161.7952655255795
  0
LINE
  8
100
  6
CONTINUOUS
 10
4.292605400085449
 20
-178.7952655255795
 11
4.292605400085449
 21
-161.7952655255795
  0
LINE
  8
100
  6
CONTINUOUS
 10
-31.20739459991455
 20
-200.7952655255795
 11
-31.20739459991455
 21
-178.7952655255795
  0
LINE
  8
100
  6
CONTINUOUS
 10
-31.20739459991455
 20
-200.7952655255795
 11
2.792605400085449
 21
-200.7952655255795
  0
LINE
  8
100
  6
CONTINUOUS
 10
-28.20739459991455
 20
-212.7952655255795
 11
-28.20739459991455
 21
-200.7952655255795
  0
LINE
  8
100
  6
CONTINUOUS
 10
-0.2073945999145508
 20
-212.7952655255795
 11
-0.2073945999145508
 21
-200.7952655255795
  0
LINE
  8
100
  6
CONTINUOUS
 10
-28.20739459991455
 20
-212.7952655255795
 11
-0.2073945999145508
 21
-212.7952655255795
  0
LINE
  8
100
  6
CONTINUOUS
 10
-10.70739459991455
 20
-178.7952655255795
 11
-10.70739459991455
 21
-161.7952655255795
  0
LINE
  8
100
  6
CONTINUOUS
 10
-10.70739459991455
 20
-155.7952655255795
 11
-10.70739459991455
 21
-147.7952655255795
  0
LINE
  8
100
  6
CONTINUOUS
 10
-17.70739459991455
 20
-178.7952655255795
 11
-17.70739459991455
 21
-161.7952655255795
  0
LINE
  8
100
  6
CONTINUOUS
 10
-17.70739459991455
 20
-155.7952655255795
 11
-17.70739459991455
 21
-147.7952655255795
  0
LINE
  8
100
  6
CONTINUOUS
 10
-28.70739459991455
 20
-178.7952655255795
 11
-28.70739459991455
 21
-161.7952655255795
  0
LINE
  8
100
  6
CONTINUOUS
 10
0.2926054000854492
 20
-178.7952655255795
 11
0.2926054000854492
 21
-161.7952655255795
  0
LINE
  8
100
  6
CONTINUOUS
 10
0.2926054000854492
 20
-155.7952655255795
 11
0.2926054000854492
 21
-147.7952655255795
  0
LINE
  8
100
  6
CONTINUOUS
 10
-28.70739459991455
 20
-155.7952655255795
 11
-28.70739459991455
 21
-147.7952655255795
  0
LINE
  8
100
  6
CONTINUOUS
 10
-31.20739459991455
 20
-147.7952655255795
 11
2.792605400085449
 21
-147.7952655255795
  0
LINE
  8
100
  6
CONTINUOUS
 10
-28.20739459991455
 20
-145.2952655255795
 11
-0.2073945999145508
 21
-145.2952655255795
  0
ARC
  8
100
  6
CONTINUOUS
 10
-16.70739459991455
 20
-237.2570037841797
 40
3.625
 50
226.3971810272964
 51
313.6028189727036
  0
ARC
  8
100
  6
CONTINUOUS
 10
-11.70739459991455
 20
-237.2570037841797
 40
3.625
 50
226.3971810272964
 51
313.6028189727036
  0
ARC
  8
100
  6
CONTINUOUS
 10
-11.70739459991455
 20
-242.5070037841797
 40
3.625
 50
46.39718102729638
 51
133.6028189727036
  0
LINE
  8
100
  6
CONTINUOUS
 10
-9.207394599914551
 20
-239.8820037841797
 11
-9.207394599914551
 21
-212.7952655255795
  0
LINE
  8
100
  6
CONTINUOUS
 10
-19.20739459991455
 20
-239.8820037841797
 11
-19.20739459991455
 21
-212.7952655255795
  0
LINE
  8
100
  6
CONTINUOUS
 10
-106.2073945999146
 20
-147.7952655255795
 11
-106.2073945999146
 21
-145.2952655255795
  0
LINE
  8
100
  6
CONTINUOUS
 10
-82.20739459991455
 20
-147.7952655255795
 11
-82.20739459991455
 21
-145.2952655255795
  0
LINE
  8
100
  6
CONTINUOUS
 10
-111.2073945999146
 20
-155.7952655255795
 11
-77.20739459991455
 21
-155.7952655255795
  0
LINE
  8
100
  6
CONTINUOUS
 10
-78.45739459991455
 20
-161.7952655255795
 11
-78.45739459991455
 21
-155.7952655255795
  0
LINE
  8
100
  6
CONTINUOUS
 10
-109.9573945999146
 20
-161.7952655255795
 11
-109.9573945999146
 21
-155.7952655255795
  0
LINE
  8
100
  6
CONTINUOUS
 10
-111.2073945999146
 20
-155.7952655255795
 11
-111.2073945999146
 21
-147.7952655255795
  0
LINE
  8
100
  6
CONTINUOUS
 10
-77.20739459991455
 20
-155.7952655255795
 11
-77.20739459991455
 21
-147.7952655255795
  0
LINE
  8
100
  6
CONTINUOUS
 10
-112.7073945999146
 20
-161.7952655255795
 11
-75.70739459991455
 21
-161.7952655255795
  0
LINE
  8
100
  6
CONTINUOUS
 10
-112.7073945999146
 20
-178.7952655255795
 11
-75.70739459991455
 21
-178.7952655255795
  0
LINE
  8
100
  6
CONTINUOUS
 10
-112.7073945999146
 20
-178.7952655255795
 11
-112.7073945999146
 21
-161.7952655255795
  0
LINE
  8
100
  6
CONTINUOUS
 10
-75.70739459991455
 20
-178.7952655255795
 11
-75.70739459991455
 21
-161.7952655255795
  0
LINE
  8
100
  6
CONTINUOUS
 10
-77.20739459991455
 20
-200.7952655255795
 11
-77.20739459991455
 21
-178.7952655255795
  0
LINE
  8
100
  6
CONTINUOUS
 10
-111.2073945999146
 20
-200.7952655255795
 11
-111.2073945999146
 21
-178.7952655255795
  0
LINE
  8
100
  6
CONTINUOUS
 10
-111.2073945999146
 20
-200.7952655255795
 11
-77.20739459991455
 21
-200.7952655255795
  0
LINE
  8
100
  6
CONTINUOUS
 10
-108.2073945999146
 20
-212.7952655255795
 11
-108.2073945999146
 21
-200.7952655255795
  0
LINE
  8
100
  6
CONTINUOUS
 10
-80.20739459991455
 20
-212.7952655255795
 11
-80.20739459991455
 21
-200.7952655255795
  0
LINE
  8
100
  6
CONTINUOUS
 10
-108.2073945999146
 20
-212.7952655255795
 11
-80.20739459991455
 21
-212.7952655255795
  0
LINE
  8
100
  6
CONTINUOUS
 10
-90.70739459991455
 20
-178.7952655255795
 11
-90.70739459991455
 21
-161.7952655255795
  0
LINE
  8
100
  6
CONTINUOUS
 10
-90.70739459991455
 20
-155.7952655255795
 11
-90.70739459991455
 21
-147.7952655255795
  0
LINE
  8
100
  6
CONTINUOUS
 10
-97.70739459991455
 20
-178.7952655255795
 11
-97.70739459991455
 21
-161.7952655255795
  0
LINE
  8
100
  6
CONTINUOUS
 10
-97.70739459991455
 20
-155.7952655255795
 11
-97.70739459991455
 21
-147.7952655255795
  0
LINE
  8
100
  6
CONTINUOUS
 10
-108.7073945999146
 20
-178.7952655255795
 11
-108.7073945999146
 21
-161.7952655255795
  0
LINE
  8
100
  6
CONTINUOUS
 10
-79.70739459991455
 20
-178.7952655255795
 11
-79.70739459991455
 21
-161.7952655255795
  0
LINE
  8
100
  6
CONTINUOUS
 10
-79.70739459991455
 20
-155.7952655255795
 11
-79.70739459991455
 21
-147.7952655255795
  0
LINE
  8
100
  6
CONTINUOUS
 10
-108.7073945999146
 20
-155.7952655255795
 11
-108.7073945999146
 21
-147.7952655255795
  0
LINE
  8
100
  6
CONTINUOUS
 10
-111.2073945999146
 20
-147.7952655255795
 11
-77.20739459991455
 21
-147.7952655255795
  0
LINE
  8
100
  6
CONTINUOUS
 10
-108.2073945999146
 20
-145.2952655255795
 11
-80.20739459991455
 21
-145.2952655255795
  0
ARC
  8
100
  6
CONTINUOUS
 10
-96.70739459991455
 20
-237.2570037841797
 40
3.625
 50
226.3971810272964
 51
313.6028189727036
  0
ARC
  8
100
  6
CONTINUOUS
 10
-91.70739459991455
 20
-237.2570037841797
 40
3.625
 50
226.3971810272964
 51
313.6028189727036
  0
ARC
  8
100
  6
CONTINUOUS
 10
-91.70739459991455
 20
-242.5070037841797
 40
3.625
 50
46.39718102729638
 51
133.6028189727036
  0
LINE
  8
100
  6
CONTINUOUS
 10
-89.20739459991455
 20
-239.8820037841797
 11
-89.20739459991455
 21
-212.7952655255795
  0
LINE
  8
100
  6
CONTINUOUS
 10
-99.20739459991455
 20
-239.8820037841797
 11
-99.20739459991455
 21
-212.7952655255795
  0
LINE
  8
100
  6
CONTINUOUS
 10
564.7926054000855
 20
-145.2952655255795
 11
564.7926054000855
 21
-142.2952655255795
  0
LINE
  8
100
  6
CONTINUOUS
 10
536.7926054000855
 20
-145.2952655255795
 11
536.7926054000855
 21
-142.2952655255795
  0
LINE
  8
100
  6
CONTINUOUS
 10
538.7926054000855
 20
-147.7952655255795
 11
538.7926054000855
 21
-145.2952655255795
  0
LINE
  8
100
  6
CONTINUOUS
 10
562.7926054000855
 20
-147.7952655255795
 11
562.7926054000855
 21
-145.2952655255795
  0
LINE
  8
100
  6
CONTINUOUS
 10
533.7926054000855
 20
-155.7952655255795
 11
567.7926054000855
 21
-155.7952655255795
  0
LINE
  8
100
  6
CONTINUOUS
 10
566.5426054000855
 20
-161.7952655255795
 11
566.5426054000855
 21
-155.7952655255795
  0
LINE
  8
100
  6
CONTINUOUS
 10
535.0426054000855
 20
-161.7952655255795
 11
535.0426054000855
 21
-155.7952655255795
  0
LINE
  8
100
  6
CONTINUOUS
 10
533.7926054000855
 20
-155.7952655255795
 11
533.7926054000855
 21
-147.7952655255795
  0
LINE
  8
100
  6
CONTINUOUS
 10
567.7926054000855
 20
-155.7952655255795
 11
567.7926054000855
 21
-147.7952655255795
  0
LINE
  8
100
  6
CONTINUOUS
 10
532.2926054000855
 20
-161.7952655255795
 11
569.2926054000855
 21
-161.7952655255795
  0
LINE
  8
100
  6
CONTINUOUS
 10
554.2926054000855
 20
-155.7952655255795
 11
554.2926054000855
 21
-147.7952655255795
  0
LINE
  8
100
  6
CONTINUOUS
 10
547.2926054000855
 20
-155.7952655255795
 11
547.2926054000855
 21
-147.7952655255795
  0
LINE
  8
100
  6
CONTINUOUS
 10
565.2926054000855
 20
-155.7952655255795
 11
565.2926054000855
 21
-147.7952655255795
  0
LINE
  8
100
  6
CONTINUOUS
 10
536.2926054000855
 20
-155.7952655255795
 11
536.2926054000855
 21
-147.7952655255795
  0
LINE
  8
100
  6
CONTINUOUS
 10
533.7926054000855
 20
-147.7952655255795
 11
567.7926054000855
 21
-147.7952655255795
  0
LINE
  8
100
  6
CONTINUOUS
 10
536.7926054000855
 20
-145.2952655255795
 11
564.7926054000855
 21
-145.2952655255795
  0
LINE
  8
100
  6
CONTINUOUS
 10
532.2926054000855
 20
-178.7952655255795
 11
569.2926054000855
 21
-178.7952655255795
  0
LINE
  8
100
  6
CONTINUOUS
 10
532.2926054000855
 20
-178.7952655255795
 11
532.2926054000855
 21
-161.7952655255795
  0
LINE
  8
100
  6
CONTINUOUS
 10
569.2926054000855
 20
-178.7952655255795
 11
569.2926054000855
 21
-161.7952655255795
  0
LINE
  8
100
  6
CONTINUOUS
 10
554.2926054000855
 20
-178.7952655255795
 11
554.2926054000855
 21
-161.7952655255795
  0
LINE
  8
100
  6
CONTINUOUS
 10
547.2926054000855
 20
-178.7952655255795
 11
547.2926054000855
 21
-161.7952655255795
  0
LINE
  8
100
  6
CONTINUOUS
 10
536.2926054000855
 20
-178.7952655255795
 11
536.2926054000855
 21
-161.7952655255795
  0
LINE
  8
100
  6
CONTINUOUS
 10
565.2926054000855
 20
-178.7952655255795
 11
565.2926054000855
 21
-161.7952655255795
  0
LINE
  8
100
  6
CONTINUOUS
 10
567.7926054000855
 20
-200.7952655255795
 11
567.7926054000855
 21
-178.7952655255795
  0
LINE
  8
100
  6
CONTINUOUS
 10
533.7926054000855
 20
-200.7952655255795
 11
533.7926054000855
 21
-178.7952655255795
  0
LINE
  8
100
  6
CONTINUOUS
 10
533.7926054000855
 20
-200.7952655255795
 11
567.7926054000855
 21
-200.7952655255795
  0
LINE
  8
100
  6
CONTINUOUS
 10
536.7926054000855
 20
-212.7952655255795
 11
536.7926054000855
 21
-200.7952655255795
  0
LINE
  8
100
  6
CONTINUOUS
 10
564.7926054000855
 20
-212.7952655255795
 11
564.7926054000855
 21
-200.7952655255795
  0
LINE
  8
100
  6
CONTINUOUS
 10
536.7926054000855
 20
-212.7952655255795
 11
564.7926054000855
 21
-212.7952655255795
  0
ARC
  8
100
  6
CONTINUOUS
 10
547.5426054000855
 20
-259.0559387207031
 40
5.78125
 50
235.7945420618952
 51
304.2054579381048
  0
ARC
  8
100
  6
CONTINUOUS
 10
554.0426054000855
 20
-259.0559387207031
 40
5.78125
 50
235.7945420618952
 51
304.2054579381048
  0
ARC
  8
100
  6
CONTINUOUS
 10
554.0426054000855
 20
-268.6184387207031
 40
5.78125
 50
55.79454206189526
 51
124.2054579381047
  0
LINE
  8
100
  6
CONTINUOUS
 10
557.2926054000855
 20
-263.8371887207031
 11
557.2926054000855
 21
-212.7952655255795
  0
LINE
  8
100
  6
CONTINUOUS
 10
544.2926054000855
 20
-263.8371887207031
 11
544.2926054000855
 21
-212.7952655255795
  0
LINE
  8
100
  6
CONTINUOUS
 10
48.79260540008545
 20
-200.7952655255795
 11
48.79260540008545
 21
-178.7952655255795
  0
LINE
  8
100
  6
CONTINUOUS
 10
13.79260540008545
 20
-147.7952655255795
 11
13.79260540008545
 21
-145.2952655255795
  0
LINE
  8
100
  6
CONTINUOUS
 10
37.79260540008545
 20
-147.7952655255795
 11
37.79260540008545
 21
-145.2952655255795
  0
LINE
  8
100
  6
CONTINUOUS
 10
8.792605400085449
 20
-155.7952655255795
 11
42.79260540008545
 21
-155.7952655255795
  0
LINE
  8
100
  6
CONTINUOUS
 10
41.54260540008545
 20
-161.7952655255795
 11
41.54260540008545
 21
-155.7952655255795
  0
LINE
  8
100
  6
CONTINUOUS
 10
10.04260540008545
 20
-161.7952655255795
 11
10.04260540008545
 21
-155.7952655255795
  0
LINE
  8
100
  6
CONTINUOUS
 10
8.792605400085449
 20
-155.7952655255795
 11
8.792605400085449
 21
-147.7952655255795
  0
LINE
  8
100
  6
CONTINUOUS
 10
42.79260540008545
 20
-155.7952655255795
 11
42.79260540008545
 21
-147.7952655255795
  0
LINE
  8
100
  6
CONTINUOUS
 10
7.292605400085449
 20
-161.7952655255795
 11
44.29260540008545
 21
-161.7952655255795
  0
LINE
  8
100
  6
CONTINUOUS
 10
29.29260540008545
 20
-155.7952655255795
 11
29.29260540008545
 21
-147.7952655255795
  0
LINE
  8
100
  6
CONTINUOUS
 10
22.29260540008545
 20
-155.7952655255795
 11
22.29260540008545
 21
-147.7952655255795
  0
LINE
  8
100
  6
CONTINUOUS
 10
40.29260540008545
 20
-155.7952655255795
 11
40.29260540008545
 21
-147.7952655255795
  0
LINE
  8
100
  6
CONTINUOUS
 10
11.29260540008545
 20
-155.7952655255795
 11
11.29260540008545
 21
-147.7952655255795
  0
LINE
  8
100
  6
CONTINUOUS
 10
8.792605400085449
 20
-147.7952655255795
 11
42.79260540008545
 21
-147.7952655255795
  0
LINE
  8
100
  6
CONTINUOUS
 10
11.79260540008545
 20
-145.2952655255795
 11
39.79260540008545
 21
-145.2952655255795
  0
LINE
  8
100
  6
CONTINUOUS
 10
7.292605400085449
 20
-178.7952655255795
 11
44.29260540008545
 21
-178.7952655255795
  0
LINE
  8
100
  6
CONTINUOUS
 10
7.292605400085449
 20
-178.7952655255795
 11
7.292605400085449
 21
-161.7952655255795
  0
LINE
  8
100
  6
CONTINUOUS
 10
44.29260540008545
 20
-178.7952655255795
 11
44.29260540008545
 21
-161.7952655255795
  0
LINE
  8
100
  6
CONTINUOUS
 10
29.29260540008545
 20
-178.7952655255795
 11
29.29260540008545
 21
-161.7952655255795
  0
LINE
  8
100
  6
CONTINUOUS
 10
22.29260540008545
 20
-178.7952655255795
 11
22.29260540008545
 21
-161.7952655255795
  0
LINE
  8
100
  6
CONTINUOUS
 10
11.29260540008545
 20
-178.7952655255795
 11
11.29260540008545
 21
-161.7952655255795
  0
LINE
  8
100
  6
CONTINUOUS
 10
40.29260540008545
 20
-178.7952655255795
 11
40.29260540008545
 21
-161.7952655255795
  0
LINE
  8
100
  6
CONTINUOUS
 10
42.79260540008545
 20
-200.7952655255795
 11
42.79260540008545
 21
-178.7952655255795
  0
LINE
  8
100
  6
CONTINUOUS
 10
8.792605400085449
 20
-200.7952655255795
 11
8.792605400085449
 21
-178.7952655255795
  0
LINE
  8
100
  6
CONTINUOUS
 10
8.792605400085449
 20
-200.7952655255795
 11
42.79260540008545
 21
-200.7952655255795
  0
LINE
  8
100
  6
CONTINUOUS
 10
11.79260540008545
 20
-212.7952655255795
 11
11.79260540008545
 21
-200.7952655255795
  0
LINE
  8
100
  6
CONTINUOUS
 10
39.79260540008545
 20
-212.7952655255795
 11
39.79260540008545
 21
-200.7952655255795
  0
LINE
  8
100
  6
CONTINUOUS
 10
11.79260540008545
 20
-212.7952655255795
 11
39.79260540008545
 21
-212.7952655255795
  0
ARC
  8
100
  6
CONTINUOUS
 10
22.54260540008545
 20
-259.0559387207031
 40
5.78125
 50
235.7945420618952
 51
304.2054579381048
  0
ARC
  8
100
  6
CONTINUOUS
 10
29.04260540008545
 20
-259.0559387207031
 40
5.78125
 50
235.7945420618952
 51
304.2054579381048
  0
ARC
  8
100
  6
CONTINUOUS
 10
29.04260540008545
 20
-268.6184387207031
 40
5.78125
 50
55.79454206189526
 51
124.2054579381047
  0
LINE
  8
100
  6
CONTINUOUS
 10
32.29260540008545
 20
-263.8371887207031
 11
32.29260540008545
 21
-212.7952655255795
  0
LINE
  8
100
  6
CONTINUOUS
 10
19.29260540008545
 20
-263.8371887207031
 11
19.29260540008545
 21
-212.7952655255795
  0
LINE
  8
100
  6
CONTINUOUS
 10
2.792605400085449
 20
-200.7952655255795
 11
2.792605400085449
 21
-178.7952655255795
  0
LINE
  8
100
  6
CONTINUOUS
 10
-66.20739459991455
 20
-147.7952655255795
 11
-66.20739459991455
 21
-145.2952655255795
  0
LINE
  8
100
  6
CONTINUOUS
 10
-42.20739459991455
 20
-147.7952655255795
 11
-42.20739459991455
 21
-145.2952655255795
  0
LINE
  8
100
  6
CONTINUOUS
 10
-71.20739459991455
 20
-155.7952655255795
 11
-37.20739459991455
 21
-155.7952655255795
  0
LINE
  8
100
  6
CONTINUOUS
 10
-38.45739459991455
 20
-161.7952655255795
 11
-38.45739459991455
 21
-155.7952655255795
  0
LINE
  8
100
  6
CONTINUOUS
 10
-69.95739459991455
 20
-161.7952655255795
 11
-69.95739459991455
 21
-155.7952655255795
  0
LINE
  8
100
  6
CONTINUOUS
 10
-71.20739459991455
 20
-155.7952655255795
 11
-71.20739459991455
 21
-147.7952655255795
  0
LINE
  8
100
  6
CONTINUOUS
 10
-37.20739459991455
 20
-155.7952655255795
 11
-37.20739459991455
 21
-147.7952655255795
  0
LINE
  8
100
  6
CONTINUOUS
 10
-72.70739459991455
 20
-161.7952655255795
 11
-35.70739459991455
 21
-161.7952655255795
  0
LINE
  8
100
  6
CONTINUOUS
 10
-50.70739459991455
 20
-155.7952655255795
 11
-50.70739459991455
 21
-147.7952655255795
  0
LINE
  8
100
  6
CONTINUOUS
 10
-57.70739459991455
 20
-155.7952655255795
 11
-57.70739459991455
 21
-147.7952655255795
  0
LINE
  8
100
  6
CONTINUOUS
 10
-39.70739459991455
 20
-155.7952655255795
 11
-39.70739459991455
 21
-147.7952655255795
  0
LINE
  8
100
  6
CONTINUOUS
 10
-68.70739459991455
 20
-155.7952655255795
 11
-68.70739459991455
 21
-147.7952655255795
  0
LINE
  8
100
  6
CONTINUOUS
 10
-71.20739459991455
 20
-147.7952655255795
 11
-37.20739459991455
 21
-147.7952655255795
  0
LINE
  8
100
  6
CONTINUOUS
 10
-68.20739459991455
 20
-145.2952655255795
 11
-40.20739459991455
 21
-145.2952655255795
  0
LINE
  8
100
  6
CONTINUOUS
 10
-72.70739459991455
 20
-178.7952655255795
 11
-35.70739459991455
 21
-178.7952655255795
  0
LINE
  8
100
  6
CONTINUOUS
 10
-72.70739459991455
 20
-178.7952655255795
 11
-72.70739459991455
 21
-161.7952655255795
  0
LINE
  8
100
  6
CONTINUOUS
 10
-35.70739459991455
 20
-178.7952655255795
 11
-35.70739459991455
 21
-161.7952655255795
  0
LINE
  8
100
  6
CONTINUOUS
 10
-50.70739459991455
 20
-178.7952655255795
 11
-50.70739459991455
 21
-161.7952655255795
  0
LINE
  8
100
  6
CONTINUOUS
 10
-57.70739459991455
 20
-178.7952655255795
 11
-57.70739459991455
 21
-161.7952655255795
  0
LINE
  8
100
  6
CONTINUOUS
 10
-68.70739459991455
 20
-178.7952655255795
 11
-68.70739459991455
 21
-161.7952655255795
  0
LINE
  8
100
  6
CONTINUOUS
 10
-39.70739459991455
 20
-178.7952655255795
 11
-39.70739459991455
 21
-161.7952655255795
  0
LINE
  8
100
  6
CONTINUOUS
 10
-37.20739459991455
 20
-200.7952655255795
 11
-37.20739459991455
 21
-178.7952655255795
  0
LINE
  8
100
  6
CONTINUOUS
 10
-71.20739459991455
 20
-200.7952655255795
 11
-71.20739459991455
 21
-178.7952655255795
  0
LINE
  8
100
  6
CONTINUOUS
 10
-71.20739459991455
 20
-200.7952655255795
 11
-37.20739459991455
 21
-200.7952655255795
  0
LINE
  8
100
  6
CONTINUOUS
 10
-68.20739459991455
 20
-212.7952655255795
 11
-68.20739459991455
 21
-200.7952655255795
  0
LINE
  8
100
  6
CONTINUOUS
 10
-40.20739459991455
 20
-212.7952655255795
 11
-40.20739459991455
 21
-200.7952655255795
  0
LINE
  8
100
  6
CONTINUOUS
 10
-68.20739459991455
 20
-212.7952655255795
 11
-40.20739459991455
 21
-212.7952655255795
  0
ARC
  8
100
  6
CONTINUOUS
 10
-57.45739459991455
 20
-259.0559387207031
 40
5.78125
 50
235.7945420618952
 51
304.2054579381048
  0
ARC
  8
100
  6
CONTINUOUS
 10
-50.95739459991455
 20
-259.0559387207031
 40
5.78125
 50
235.7945420618952
 51
304.2054579381048
  0
ARC
  8
100
  6
CONTINUOUS
 10
-50.95739459991455
 20
-268.6184387207031
 40
5.78125
 50
55.79454206189526
 51
124.2054579381047
  0
LINE
  8
100
  6
CONTINUOUS
 10
-47.70739459991455
 20
-263.8371887207031
 11
-47.70739459991455
 21
-212.7952655255795
  0
LINE
  8
100
  6
CONTINUOUS
 10
-60.70739459991455
 20
-263.8371887207031
 11
-60.70739459991455
 21
-212.7952655255795
  0
LINE
  8
100
  6
CENTER
 10
-14.20739459991455
 20
-275.2952655255795
 11
-14.20739459991455
 21
-250.5838775634766
  0
LINE
  8
100
  6
CONTINUOUS
 10
75.79260540008545
 20
-332.2952655255795
 11
77.79260540008545
 21
-337.2952655255795
  0
LINE
  8
100
  6
CONTINUOUS
 10
45.79260540008545
 20
-332.2952655255795
 11
43.79260540008545
 21
-337.2952655255795
  0
LINE
  8
100
  6
CONTINUOUS
 10
77.79260540008545
 20
-337.2952655255795
 11
77.79260540008545
 21
-345.2952655255795
  0
LINE
  8
100
  6
CONTINUOUS
 10
43.79260540008545
 20
-337.2952655255795
 11
43.79260540008545
 21
-345.2952655255795
  0
LINE
  8
100
  6
CONTINUOUS
 10
43.79260540008545
 20
-337.2952655255795
 11
77.79260540008545
 21
-337.2952655255795
  0
LINE
  8
100
  6
CONTINUOUS
 10
43.79260540008545
 20
-341.2952655255795
 11
77.79260540008545
 21
-341.2952655255795
  0
LINE
  8
100
  6
CONTINUOUS
 10
62.79260540008545
 20
-337.2952655255795
 11
62.79260540008545
 21
-345.2952655255795
  0
LINE
  8
100
  6
CONTINUOUS
 10
64.79260540008545
 20
-337.2952655255795
 11
64.79260540008545
 21
-345.2952655255795
  0
LINE
  8
100
  6
CONTINUOUS
 10
66.79260540008545
 20
-337.2952655255795
 11
66.79260540008545
 21
-345.2952655255795
  0
LINE
  8
100
  6
CONTINUOUS
 10
68.79260540008545
 20
-337.2952655255795
 11
68.79260540008545
 21
-345.2952655255795
  0
LINE
  8
100
  6
CONTINUOUS
 10
70.79260540008545
 20
-337.2952655255795
 11
70.79260540008545
 21
-345.2952655255795
  0
LINE
  8
100
  6
CONTINUOUS
 10
72.79260540008545
 20
-337.2952655255795
 11
72.79260540008545
 21
-345.2952655255795
  0
LINE
  8
100
  6
CONTINUOUS
 10
74.79260540008545
 20
-337.2952655255795
 11
74.79260540008545
 21
-345.2952655255795
  0
LINE
  8
100
  6
CONTINUOUS
 10
76.79260540008545
 20
-337.2952655255795
 11
76.79260540008545
 21
-345.2952655255795
  0
LINE
  8
100
  6
CONTINUOUS
 10
58.79260540008545
 20
-337.2952655255795
 11
58.79260540008545
 21
-345.2952655255795
  0
LINE
  8
100
  6
CONTINUOUS
 10
56.79260540008545
 20
-337.2952655255795
 11
56.79260540008545
 21
-345.2952655255795
  0
LINE
  8
100
  6
CONTINUOUS
 10
54.79260540008545
 20
-337.2952655255795
 11
54.79260540008545
 21
-345.2952655255795
  0
LINE
  8
100
  6
CONTINUOUS
 10
52.79260540008545
 20
-337.2952655255795
 11
52.79260540008545
 21
-345.2952655255795
  0
LINE
  8
100
  6
CONTINUOUS
 10
50.79260540008545
 20
-337.2952655255795
 11
50.79260540008545
 21
-345.2952655255795
  0
LINE
  8
100
  6
CONTINUOUS
 10
48.79260540008545
 20
-337.2952655255795
 11
48.79260540008545
 21
-345.2952655255795
  0
LINE
  8
100
  6
CONTINUOUS
 10
46.79260540008545
 20
-337.2952655255795
 11
46.79260540008545
 21
-345.2952655255795
  0
LINE
  8
100
  6
CONTINUOUS
 10
44.79260540008545
 20
-337.2952655255795
 11
44.79260540008545
 21
-345.2952655255795
  0
LINE
  8
100
  6
CONTINUOUS
 10
54.79260540008545
 20
-337.2952655255795
 11
54.79260540008545
 21
-345.2952655255795
  0
LINE
  8
100
  6
CONTINUOUS
 10
45.79260540008545
 20
-332.2952655255795
 11
75.79260540008545
 21
-332.2952655255795
  0
LINE
  8
100
  6
CONTINUOUS
 10
43.79260540008545
 20
-345.2952655255795
 11
77.79260540008545
 21
-345.2952655255795
  0
LINE
  8
100
  6
CONTINUOUS
 10
25.79260540008545
 20
-332.2952655255795
 11
27.79260540008545
 21
-337.2952655255795
  0
LINE
  8
100
  6
CONTINUOUS
 10
-4.207394599914551
 20
-332.2952655255795
 11
-6.207394599914551
 21
-337.2952655255795
  0
LINE
  8
100
  6
CONTINUOUS
 10
27.79260540008545
 20
-337.2952655255795
 11
27.79260540008545
 21
-345.2952655255795
  0
LINE
  8
100
  6
CONTINUOUS
 10
-6.207394599914551
 20
-337.2952655255795
 11
-6.207394599914551
 21
-345.2952655255795
  0
LINE
  8
100
  6
CONTINUOUS
 10
-6.207394599914551
 20
-337.2952655255795
 11
27.79260540008545
 21
-337.2952655255795
  0
LINE
  8
100
  6
CONTINUOUS
 10
-6.207394599914551
 20
-341.2952655255795
 11
27.79260540008545
 21
-341.2952655255795
  0
LINE
  8
100
  6
CONTINUOUS
 10
12.79260540008545
 20
-337.2952655255795
 11
12.79260540008545
 21
-345.2952655255795
  0
LINE
  8
100
  6
CONTINUOUS
 10
14.79260540008545
 20
-337.2952655255795
 11
14.79260540008545
 21
-345.2952655255795
  0
LINE
  8
100
  6
CONTINUOUS
 10
16.79260540008545
 20
-337.2952655255795
 11
16.79260540008545
 21
-345.2952655255795
  0
LINE
  8
100
  6
CONTINUOUS
 10
18.79260540008545
 20
-337.2952655255795
 11
18.79260540008545
 21
-345.2952655255795
  0
LINE
  8
100
  6
CONTINUOUS
 10
20.79260540008545
 20
-337.2952655255795
 11
20.79260540008545
 21
-345.2952655255795
  0
LINE
  8
100
  6
CONTINUOUS
 10
22.79260540008545
 20
-337.2952655255795
 11
22.79260540008545
 21
-345.2952655255795
  0
LINE
  8
100
  6
CONTINUOUS
 10
24.79260540008545
 20
-337.2952655255795
 11
24.79260540008545
 21
-345.2952655255795
  0
LINE
  8
100
  6
CONTINUOUS
 10
26.79260540008545
 20
-337.2952655255795
 11
26.79260540008545
 21
-345.2952655255795
  0
LINE
  8
100
  6
CONTINUOUS
 10
8.792605400085449
 20
-337.2952655255795
 11
8.792605400085449
 21
-345.2952655255795
  0
LINE
  8
100
  6
CONTINUOUS
 10
6.792605400085449
 20
-337.2952655255795
 11
6.792605400085449
 21
-345.2952655255795
  0
LINE
  8
100
  6
CONTINUOUS
 10
4.792605400085449
 20
-337.2952655255795
 11
4.792605400085449
 21
-345.2952655255795
  0
LINE
  8
100
  6
CONTINUOUS
 10
2.792605400085449
 20
-337.2952655255795
 11
2.792605400085449
 21
-345.2952655255795
  0
LINE
  8
100
  6
CONTINUOUS
 10
0.7926054000854492
 20
-337.2952655255795
 11
0.7926054000854492
 21
-345.2952655255795
  0
LINE
  8
100
  6
CONTINUOUS
 10
-1.207394599914551
 20
-337.2952655255795
 11
-1.207394599914551
 21
-345.2952655255795
  0
LINE
  8
100
  6
CONTINUOUS
 10
-3.207394599914551
 20
-337.2952655255795
 11
-3.207394599914551
 21
-345.2952655255795
  0
LINE
  8
100
  6
CONTINUOUS
 10
-5.207394599914551
 20
-337.2952655255795
 11
-5.207394599914551
 21
-345.2952655255795
  0
LINE
  8
100
  6
CONTINUOUS
 10
4.792605400085449
 20
-337.2952655255795
 11
4.792605400085449
 21
-345.2952655255795
  0
LINE
  8
100
  6
CONTINUOUS
 10
-4.207394599914551
 20
-332.2952655255795
 11
25.79260540008545
 21
-332.2952655255795
  0
LINE
  8
100
  6
CONTINUOUS
 10
-6.207394599914551
 20
-345.2952655255795
 11
27.79260540008545
 21
-345.2952655255795
  0
LINE
  8
100
  6
CONTINUOUS
 10
-24.20739459991455
 20
-332.2952655255795
 11
-22.20739459991455
 21
-337.2952655255795
  0
LINE
  8
100
  6
CONTINUOUS
 10
-54.20739459991455
 20
-332.2952655255795
 11
-56.20739459991455
 21
-337.2952655255795
  0
LINE
  8
100
  6
CONTINUOUS
 10
-22.20739459991455
 20
-337.2952655255795
 11
-22.20739459991455
 21
-345.2952655255795
  0
LINE
  8
100
  6
CONTINUOUS
 10
-56.20739459991455
 20
-337.2952655255795
 11
-56.20739459991455
 21
-345.2952655255795
  0
LINE
  8
100
  6
CONTINUOUS
 10
-56.20739459991455
 20
-337.2952655255795
 11
-22.20739459991455
 21
-337.2952655255795
  0
LINE
  8
100
  6
CONTINUOUS
 10
-56.20739459991455
 20
-341.2952655255795
 11
-22.20739459991455
 21
-341.2952655255795
  0
LINE
  8
100
  6
CONTINUOUS
 10
-37.20739459991455
 20
-337.2952655255795
 11
-37.20739459991455
 21
-345.2952655255795
  0
LINE
  8
100
  6
CONTINUOUS
 10
-35.20739459991455
 20
-337.2952655255795
 11
-35.20739459991455
 21
-345.2952655255795
  0
LINE
  8
100
  6
CONTINUOUS
 10
-33.20739459991455
 20
-337.2952655255795
 11
-33.20739459991455
 21
-345.2952655255795
  0
LINE
  8
100
  6
CONTINUOUS
 10
-31.20739459991455
 20
-337.2952655255795
 11
-31.20739459991455
 21
-345.2952655255795
  0
LINE
  8
100
  6
CONTINUOUS
 10
-29.20739459991455
 20
-337.2952655255795
 11
-29.20739459991455
 21
-345.2952655255795
  0
LINE
  8
100
  6
CONTINUOUS
 10
-27.20739459991455
 20
-337.2952655255795
 11
-27.20739459991455
 21
-345.2952655255795
  0
LINE
  8
100
  6
CONTINUOUS
 10
-25.20739459991455
 20
-337.2952655255795
 11
-25.20739459991455
 21
-345.2952655255795
  0
LINE
  8
100
  6
CONTINUOUS
 10
-23.20739459991455
 20
-337.2952655255795
 11
-23.20739459991455
 21
-345.2952655255795
  0
LINE
  8
100
  6
CONTINUOUS
 10
-41.20739459991455
 20
-337.2952655255795
 11
-41.20739459991455
 21
-345.2952655255795
  0
LINE
  8
100
  6
CONTINUOUS
 10
-43.20739459991455
 20
-337.2952655255795
 11
-43.20739459991455
 21
-345.2952655255795
  0
LINE
  8
100
  6
CONTINUOUS
 10
-45.20739459991455
 20
-337.2952655255795
 11
-45.20739459991455
 21
-345.2952655255795
  0
LINE
  8
100
  6
CONTINUOUS
 10
-47.20739459991455
 20
-337.2952655255795
 11
-47.20739459991455
 21
-345.2952655255795
  0
LINE
  8
100
  6
CONTINUOUS
 10
-49.20739459991455
 20
-337.2952655255795
 11
-49.20739459991455
 21
-345.2952655255795
  0
LINE
  8
100
  6
CONTINUOUS
 10
-51.20739459991455
 20
-337.2952655255795
 11
-51.20739459991455
 21
-345.2952655255795
  0
LINE
  8
100
  6
CONTINUOUS
 10
-53.20739459991455
 20
-337.2952655255795
 11
-53.20739459991455
 21
-345.2952655255795
  0
LINE
  8
100
  6
CONTINUOUS
 10
-55.20739459991455
 20
-337.2952655255795
 11
-55.20739459991455
 21
-345.2952655255795
  0
LINE
  8
100
  6
CONTINUOUS
 10
-45.20739459991455
 20
-337.2952655255795
 11
-45.20739459991455
 21
-345.2952655255795
  0
LINE
  8
100
  6
CONTINUOUS
 10
-54.20739459991455
 20
-332.2952655255795
 11
-24.20739459991455
 21
-332.2952655255795
  0
LINE
  8
100
  6
CONTINUOUS
 10
-56.20739459991455
 20
-345.2952655255795
 11
-22.20739459991455
 21
-345.2952655255795
  0
LINE
  8
100
  6
CONTINUOUS
 10
-74.20739459991455
 20
-332.2952655255795
 11
-72.20739459991455
 21
-337.2952655255795
  0
LINE
  8
100
  6
CONTINUOUS
 10
-104.2073945999146
 20
-332.2952655255795
 11
-106.2073945999146
 21
-337.2952655255795
  0
LINE
  8
100
  6
CONTINUOUS
 10
-72.20739459991455
 20
-337.2952655255795
 11
-72.20739459991455
 21
-345.2952655255795
  0
LINE
  8
100
  6
CONTINUOUS
 10
-106.2073945999146
 20
-337.2952655255795
 11
-106.2073945999146
 21
-345.2952655255795
  0
LINE
  8
100
  6
CONTINUOUS
 10
-106.2073945999146
 20
-337.2952655255795
 11
-72.20739459991455
 21
-337.2952655255795
  0
LINE
  8
100
  6
CONTINUOUS
 10
-106.2073945999146
 20
-341.2952655255795
 11
-72.20739459991455
 21
-341.2952655255795
  0
LINE
  8
100
  6
CONTINUOUS
 10
-87.20739459991455
 20
-337.2952655255795
 11
-87.20739459991455
 21
-345.2952655255795
  0
LINE
  8
100
  6
CONTINUOUS
 10
-85.20739459991455
 20
-337.2952655255795
 11
-85.20739459991455
 21
-345.2952655255795
  0
LINE
  8
100
  6
CONTINUOUS
 10
-83.20739459991455
 20
-337.2952655255795
 11
-83.20739459991455
 21
-345.2952655255795
  0
LINE
  8
100
  6
CONTINUOUS
 10
-81.20739459991455
 20
-337.2952655255795
 11
-81.20739459991455
 21
-345.2952655255795
  0
LINE
  8
100
  6
CONTINUOUS
 10
-79.20739459991455
 20
-337.2952655255795
 11
-79.20739459991455
 21
-345.2952655255795
  0
LINE
  8
100
  6
CONTINUOUS
 10
-77.20739459991455
 20
-337.2952655255795
 11
-77.20739459991455
 21
-345.2952655255795
  0
LINE
  8
100
  6
CONTINUOUS
 10
-75.20739459991455
 20
-337.2952655255795
 11
-75.20739459991455
 21
-345.2952655255795
  0
LINE
  8
100
  6
CONTINUOUS
 10
-73.20739459991455
 20
-337.2952655255795
 11
-73.20739459991455
 21
-345.2952655255795
  0
LINE
  8
100
  6
CONTINUOUS
 10
-91.20739459991455
 20
-337.2952655255795
 11
-91.20739459991455
 21
-345.2952655255795
  0
LINE
  8
100
  6
CONTINUOUS
 10
-93.20739459991455
 20
-337.2952655255795
 11
-93.20739459991455
 21
-345.2952655255795
  0
LINE
  8
100
  6
CONTINUOUS
 10
-95.20739459991455
 20
-337.2952655255795
 11
-95.20739459991455
 21
-345.2952655255795
  0
LINE
  8
100
  6
CONTINUOUS
 10
-97.20739459991455
 20
-337.2952655255795
 11
-97.20739459991455
 21
-345.2952655255795
  0
LINE
  8
100
  6
CONTINUOUS
 10
-99.20739459991455
 20
-337.2952655255795
 11
-99.20739459991455
 21
-345.2952655255795
  0
LINE
  8
100
  6
CONTINUOUS
 10
-101.2073945999146
 20
-337.2952655255795
 11
-101.2073945999146
 21
-345.2952655255795
  0
LINE
  8
100
  6
CONTINUOUS
 10
-103.2073945999146
 20
-337.2952655255795
 11
-103.2073945999146
 21
-345.2952655255795
  0
LINE
  8
100
  6
CONTINUOUS
 10
-105.2073945999146
 20
-337.2952655255795
 11
-105.2073945999146
 21
-345.2952655255795
  0
LINE
  8
100
  6
CONTINUOUS
 10
-95.20739459991455
 20
-337.2952655255795
 11
-95.20739459991455
 21
-345.2952655255795
  0
LINE
  8
100
  6
CONTINUOUS
 10
-104.2073945999146
 20
-332.2952655255795
 11
-74.20739459991455
 21
-332.2952655255795
  0
LINE
  8
100
  6
CONTINUOUS
 10
-106.2073945999146
 20
-345.2952655255795
 11
-72.20739459991455
 21
-345.2952655255795
  0
LINE
  8
100
  6
CONTINUOUS
 10
-179.2073945999146
 20
-12.79526552557945
 11
-169.2073945999146
 21
-12.79526552557945
  0
LINE
  8
100
  6
CONTINUOUS
 10
-179.2073945999146
 20
12.20473447442055
 11
-169.2073945999146
 21
12.20473447442055
  0
LINE
  8
100
  6
CONTINUOUS
 10
-179.2073945999146
 20
-77.79526552557945
 11
-169.2073945999146
 21
-77.79526552557945
  0
LINE
  8
100
  6
CONTINUOUS
 10
-179.2073945999146
 20
77.20473447442055
 11
-169.2073945999146
 21
77.20473447442055
  0
LINE
  8
100
  6
CONTINUOUS
 10
-172.2073945999146
 20
-77.79526552557945
 11
-172.2073945999146
 21
-12.79526552557945
  0
LINE
  8
100
  6
CONTINUOUS
 10
-172.2073945999146
 20
12.20473447442055
 11
-172.2073945999146
 21
77.20473447442055
  0
LINE
  8
100
  6
CONTINUOUS
 10
-179.2073945999146
 20
-77.79526552557945
 11
-179.2073945999146
 21
-12.79526552557945
  0
LINE
  8
100
  6
CONTINUOUS
 10
-179.2073945999146
 20
12.20473447442055
 11
-179.2073945999146
 21
77.20473447442055
  0
LINE
  8
100
  6
CENTER
 10
-188.3417510986328
 20
44.70473447442055
 11
-169.2073945999146
 21
44.70473447442055
  0
LINE
  8
100
  6
CENTER
 10
-188.3417510986328
 20
-45.29526552557945
 11
-169.2073945999146
 21
-45.29526552557945
  0
LINE
  8
100
  6
CENTER
 10
-188.3417510986328
 20
66.70473447442055
 11
-169.2073945999146
 21
66.70473447442055
  0
LINE
  8
100
  6
CENTER
 10
-188.3417510986328
 20
22.70473447442055
 11
-169.2073945999146
 21
22.70473447442055
  0
LINE
  8
100
  6
CENTER
 10
-188.3417510986328
 20
-23.29526552557945
 11
-169.2073945999146
 21
-23.29526552557945
  0
LINE
  8
100
  6
CENTER
 10
-188.3417510986328
 20
-67.29526552557945
 11
-169.2073945999146
 21
-67.29526552557945
  0
LINE
  8
100
  6
CENTER
 10
-175.4580965042114
 20
-67.29526552557945
 11
-169.6263399124146
 21
-67.29526552557945
  0
LINE
  8
10
  6
CONTINUOUS
 10
-172.2073945999146
 20
63.92741308146404
 11
-172.2073945999146
 21
69.42741308146404
  0
LINE
  8
10
  6
CONTINUOUS
 10
-173.0546434827927
 20
69.35328840902719
 11
-172.2073945999146
 21
69.42741308146404
  0
LINE
  8
10
  6
CONTINUOUS
 10
-173.0546434827927
 20
64.00153775390088
 11
-172.2073945999146
 21
63.92741308146404
  0
ARC
  8
10
  6
CONTINUOUS
 10
-167.2073945999146
 20
66.67741308146404
 40
7.0
 50
163.7429721033965
 51
196.2570278966036
  0
ARC
  8
10
  6
CONTINUOUS
 10
-172.967487740045
 20
68.35709371093545
 40
1.0
 50
95.00000000000144
 51
163.742972103397
  0
ARC
  8
10
  6
CONTINUOUS
 10
-172.967487740045
 20
64.99773245199262
 40
1.0
 50
196.257027896603
 51
264.9999999999986
  0
LINE
  8
100
  6
CENTER
 10
-175.4580965042114
 20
66.70473447442055
 11
-169.6263399124146
 21
66.70473447442055
  0
LINE
  8
100
  6
CENTER
 10
-175.4580965042114
 20
44.70473447442055
 11
-169.6263399124146
 21
44.70473447442055
  0
LINE
  8
10
  6
CONTINUOUS
 10
-172.2073945999146
 20
41.92741308146404
 11
-172.2073945999146
 21
47.42741308146404
  0
LINE
  8
10
  6
CONTINUOUS
 10
-173.0546434827927
 20
47.35328840902719
 11
-172.2073945999146
 21
47.42741308146404
  0
LINE
  8
10
  6
CONTINUOUS
 10
-173.0546434827927
 20
42.00153775390088
 11
-172.2073945999146
 21
41.92741308146404
  0
ARC
  8
10
  6
CONTINUOUS
 10
-167.2073945999146
 20
44.67741308146404
 40
7.0
 50
163.7429721033965
 51
196.2570278966036
  0
ARC
  8
10
  6
CONTINUOUS
 10
-172.967487740045
 20
46.35709371093545
 40
1.0
 50
95.00000000000141
 51
163.742972103397
  0
ARC
  8
10
  6
CONTINUOUS
 10
-172.967487740045
 20
42.99773245199262
 40
1.0
 50
196.257027896603
 51
264.9999999999986
  0
LINE
  8
100
  6
CENTER
 10
-175.4580965042114
 20
22.70473447442055
 11
-169.6263399124146
 21
22.70473447442055
  0
LINE
  8
10
  6
CONTINUOUS
 10
-172.2073945999146
 20
19.92741308146404
 11
-172.2073945999146
 21
25.42741308146404
  0
LINE
  8
10
  6
CONTINUOUS
 10
-173.0546434827927
 20
25.35328840902719
 11
-172.2073945999146
 21
25.42741308146404
  0
LINE
  8
10
  6
CONTINUOUS
 10
-173.0546434827927
 20
20.00153775390088
 11
-172.2073945999146
 21
19.92741308146404
  0
ARC
  8
10
  6
CONTINUOUS
 10
-167.2073945999146
 20
22.67741308146404
 40
7.0
 50
163.7429721033964
 51
196.2570278966036
  0
ARC
  8
10
  6
CONTINUOUS
 10
-172.967487740045
 20
24.35709371093545
 40
1.0
 50
95.00000000000142
 51
163.742972103397
  0
ARC
  8
10
  6
CONTINUOUS
 10
-172.967487740045
 20
20.99773245199262
 40
1.0
 50
196.257027896603
 51
264.9999999999986
  0
LINE
  8
100
  6
CENTER
 10
-175.4580965042114
 20
-23.29526552557945
 11
-169.6263399124146
 21
-23.29526552557945
  0
LINE
  8
10
  6
CONTINUOUS
 10
-172.2073945999146
 20
-26.07258691853597
 11
-172.2073945999146
 21
-20.57258691853597
  0
LINE
  8
10
  6
CONTINUOUS
 10
-173.0546434827927
 20
-20.64671159097281
 11
-172.2073945999146
 21
-20.57258691853597
  0
LINE
  8
10
  6
CONTINUOUS
 10
-173.0546434827927
 20
-25.99846224609912
 11
-172.2073945999146
 21
-26.07258691853597
  0
ARC
  8
10
  6
CONTINUOUS
 10
-167.2073945999146
 20
-23.32258691853597
 40
7.0
 50
163.7429721033964
 51
196.2570278966036
  0
ARC
  8
10
  6
CONTINUOUS
 10
-172.967487740045
 20
-21.64290628906455
 40
1.0
 50
95.00000000000142
 51
163.742972103397
  0
ARC
  8
10
  6
CONTINUOUS
 10
-172.967487740045
 20
-25.00226754800738
 40
1.0
 50
196.257027896603
 51
264.9999999999986
  0
LINE
  8
10
  6
CONTINUOUS
 10
-172.2073945999146
 20
-70.07258691853596
 11
-172.2073945999146
 21
-64.57258691853596
  0
LINE
  8
10
  6
CONTINUOUS
 10
-173.0546434827927
 20
-64.64671159097281
 11
-172.2073945999146
 21
-64.57258691853596
  0
LINE
  8
10
  6
CONTINUOUS
 10
-173.0546434827927
 20
-69.99846224609912
 11
-172.2073945999146
 21
-70.07258691853596
  0
ARC
  8
10
  6
CONTINUOUS
 10
-167.2073945999146
 20
-67.32258691853596
 40
7.0
 50
163.7429721033965
 51
196.2570278966036
  0
ARC
  8
10
  6
CONTINUOUS
 10
-172.967487740045
 20
-69.00226754800738
 40
1.0
 50
196.257027896603
 51
264.9999999999986
  0
ARC
  8
10
  6
CONTINUOUS
 10
-172.967487740045
 20
-65.64290628906456
 40
1.0
 50
95.00000000000144
 51
163.742972103397
  0
LINE
  8
10
  6
CONTINUOUS
 10
-172.2073945999146
 20
-48.07258691853596
 11
-172.2073945999146
 21
-42.57258691853596
  0
LINE
  8
10
  6
CONTINUOUS
 10
-173.0546434827927
 20
-42.64671159097281
 11
-172.2073945999146
 21
-42.57258691853596
  0
LINE
  8
10
  6
CONTINUOUS
 10
-173.0546434827927
 20
-47.99846224609912
 11
-172.2073945999146
 21
-48.07258691853596
  0
ARC
  8
10
  6
CONTINUOUS
 10
-167.2073945999146
 20
-45.32258691853596
 40
7.0
 50
163.7429721033965
 51
196.2570278966036
  0
ARC
  8
10
  6
CONTINUOUS
 10
-172.967487740045
 20
-47.00226754800738
 40
1.0
 50
196.257027896603
 51
264.9999999999986
  0
LINE
  8
100
  6
CENTER
 10
-175.4580965042114
 20
-45.29526552557945
 11
-169.6263399124146
 21
-45.29526552557945
  0
ARC
  8
10
  6
CONTINUOUS
 10
-172.967487740045
 20
-43.64290628906456
 40
1.0
 50
95.00000000000141
 51
163.742972103397
  0
LINE
  8
100
  6
CONTINUOUS
 10
-172.2073945999146
 20
-418.2952655255795
 11
-172.2073945999146
 21
-368.2952655255795
  0
ARC
  8
100
  6
CONTINUOUS
 10
-175.2073945999146
 20
-393.2952655255795
 40
6.0
 50
60.0
 51
0.0
  0
CIRCLE
  8
100
  6
CONTINUOUS
 10
-175.2073945999146
 20
-393.2952655255795
 40
3.0
  0
LINE
  8
100
  6
CONTINUOUS
 10
-172.2073945999146
 20
-418.2952655255795
 11
-169.2073945999146
 21
-418.2952655255795
  0
LINE
  8
100
  6
CONTINUOUS
 10
-172.2073945999146
 20
-368.2952655255795
 11
-169.2073945999146
 21
-368.2952655255795
  0
LINE
  8
100
  6
CONTINUOUS
 10
-172.2073945999146
 20
-400.2952655255795
 11
-169.2073945999146
 21
-400.2952655255795
  0
LINE
  8
100
  6
CONTINUOUS
 10
-169.2073945999146
 20
-420.2952655255795
 11
-166.2073945999146
 21
-420.2952655255795
  0
LINE
  8
100
  6
CONTINUOUS
 10
-169.2073945999146
 20
-366.2952655255795
 11
-143.5150869076069
 21
-366.2952655255795
  0
CIRCLE
  8
100
  6
CONTINUOUS
 10
85.79260540008545
 20
-570.2952655255795
 40
4.0
  0
CIRCLE
  8
100
  6
CONTINUOUS
 10
85.79260540008545
 20
-570.2952655255795
 40
3.0
  0
LINE
  8
100
  6
CONTINUOUS
 10
-91.20739459991455
 20
-527.550401789108
 11
-83.42038430004875
 21
-524.3249165125646
  0
LINE
  8
100
  6
CONTINUOUS
 10
326.7926054000855
 20
-60.29526552557945
 11
332.7926054000855
 21
-58.29526552557945
  0
LINE
  8
100
  6
CONTINUOUS
 10
326.7926054000855
 20
-90.29526552557945
 11
332.7926054000855
 21
-92.29526552557945
  0
LINE
  8
100
  6
CONTINUOUS
 10
332.7926054000855
 20
-58.29526552557945
 11
340.7926054000855
 21
-58.29526552557945
  0
LINE
  8
100
  6
CONTINUOUS
 10
332.7926054000855
 20
-92.29526552557945
 11
340.7926054000855
 21
-92.29526552557945
  0
LINE
  8
100
  6
CONTINUOUS
 10
332.7926054000855
 20
-92.29526552557945
 11
332.7926054000855
 21
-58.29526552557945
  0
LINE
  8
100
  6
CONTINUOUS
 10
336.7926054000855
 20
-92.29526552557945
 11
336.7926054000855
 21
-58.29526552557945
  0
LINE
  8
100
  6
CONTINUOUS
 10
332.7926054000855
 20
-73.29526552557945
 11
340.7926054000855
 21
-73.29526552557945
  0
LINE
  8
100
  6
CONTINUOUS
 10
332.7926054000855
 20
-71.29526552557945
 11
340.7926054000855
 21
-71.29526552557945
  0
LINE
  8
100
  6
CONTINUOUS
 10
332.7926054000855
 20
-69.29526552557945
 11
340.7926054000855
 21
-69.29526552557945
  0
LINE
  8
100
  6
CONTINUOUS
 10
332.7926054000855
 20
-67.29526552557945
 11
340.7926054000855
 21
-67.29526552557945
  0
LINE
  8
100
  6
CONTINUOUS
 10
332.7926054000855
 20
-65.29526552557945
 11
340.7926054000855
 21
-65.29526552557945
  0
LINE
  8
100
  6
CONTINUOUS
 10
332.7926054000855
 20
-63.29526552557945
 11
340.7926054000855
 21
-63.29526552557945
  0
LINE
  8
100
  6
CONTINUOUS
 10
332.7926054000855
 20
-61.29526552557945
 11
340.7926054000855
 21
-61.29526552557945
  0
LINE
  8
100
  6
CONTINUOUS
 10
332.7926054000855
 20
-59.29526552557945
 11
340.7926054000855
 21
-59.29526552557945
  0
LINE
  8
100
  6
CONTINUOUS
 10
332.7926054000855
 20
-77.29526552557945
 11
340.7926054000855
 21
-77.29526552557945
  0
LINE
  8
100
  6
CONTINUOUS
 10
332.7926054000855
 20
-79.29526552557945
 11
340.7926054000855
 21
-79.29526552557945
  0
LINE
  8
100
  6
CONTINUOUS
 10
332.7926054000855
 20
-81.29526552557945
 11
340.7926054000855
 21
-81.29526552557945
  0
LINE
  8
100
  6
CONTINUOUS
 10
332.7926054000855
 20
-83.29526552557945
 11
340.7926054000855
 21
-83.29526552557945
  0
LINE
  8
100
  6
CONTINUOUS
 10
332.7926054000855
 20
-85.29526552557945
 11
340.7926054000855
 21
-85.29526552557945
  0
LINE
  8
100
  6
CONTINUOUS
 10
332.7926054000855
 20
-87.29526552557945
 11
340.7926054000855
 21
-87.29526552557945
  0
LINE
  8
100
  6
CONTINUOUS
 10
332.7926054000855
 20
-89.29526552557945
 11
340.7926054000855
 21
-89.29526552557945
  0
LINE
  8
100
  6
CONTINUOUS
 10
332.7926054000855
 20
-91.29526552557945
 11
340.7926054000855
 21
-91.29526552557945
  0
LINE
  8
100
  6
CONTINUOUS
 10
332.7926054000855
 20
-81.29526552557945
 11
340.7926054000855
 21
-81.29526552557945
  0
LINE
  8
100
  6
CONTINUOUS
 10
326.7926054000855
 20
-90.29526552557945
 11
326.7926054000855
 21
-60.29526552557945
  0
ENDSEC
  0
EOF
