  0
SECTION
  2
HEADER
  9
$ACADVER
  1
AC1006
  9
$INSBASE
 10
0.0
 20
0.0
 30
0.0
  9
$EXTMIN
 10
-177.5
 20
-549.8800964355469
  9
$EXTMAX
 10
177.5
 20
166.2882080078125
  9
$LIMMIN
 10
-177.5
 20
-549.8800964355469
  9
$LIMMAX
 10
177.5
 20
166.2882080078125
  9
$ORTHOMODE
 70
     0
  9
$REGENMODE
 70
     1
  9
$FILLMODE
 70
     1
  9
$QTEXTMODE
 70
     0
  9
$MIRRTEXT
 70
     1
  9
$DRAGMODE
 70
     2
  9
$LTSCALE
 40
1.0
  9
$OSMODE
 70
     0
  9
$ATTMODE
 70
     1
  9
$TEXTSIZE
 40
3.0
  9
$TRACEWID
 40
0.5
  9
$TEXTSTYLE
  7
STANDARD
  9
$CLAYER
  8
0
  9
$CELTYPE
  6
BYLAYER
  9
$CECOLOR
 62
   256
  9
$DIMSCALE
 40
1.0
  9
$DIMASZ
 40
3.0
  9
$DIMEXO
 40
1.0
  9
$DIMDLI
 40
5.0
  9
$DIMRND
 40
0.0
  9
$DIMDLE
 40
5.0
  9
$DIMEXE
 40
2.0
  9
$DIMTP
 40
0.0
  9
$DIMTM
 40
0.0
  9
$DIMTXT
 40
3.0
  9
$DIMCEN
 40
2.0
  9
$DIMTSZ
 40
0.0
  9
$DIMTOL
 70
     0
  9
$DIMLIM
 70
     0
  9
$DIMTIH
 70
     0
  9
$DIMTOH
 70
     0
  9
$DIMSE1
 70
     0
  9
$DIMSE2
 70
     0
  9
$DIMTAD
 70
     1
  9
$DIMZIN
 70
     8
  9
$DIMBLK
  1

  9
$DIMASO
 70
     1
  9
$DIMSHO
 70
     0
  9
$DIMPOST
  1

  9
$DIMAPOST
  1

  9
$DIMALT
 70
     0
  9
$DIMALTD
 70
     4
  9
$DIMALTF
 40
25.4
  9
$DIMLFAC
 40
1.0
  9
$DIMTOFL
 70
     1
  9
$DIMTVP
 40
1.0
  9
$DIMTIX
 70
     0
  9
$DIMSOXD
 70
     0
  9
$DIMSAH
 70
     0
  9
$DIMBLK1
  1

  9
$DIMBLK2
  1

  9
$LUNITS
 70
     2
  9
$LUPREC
 70
     4
  9
$AXISMODE
 70
     0
  9
$AXISUNIT
 10
0.0
 20
0.0
  9
$SKETCHINC
 40
1.0
  9
$FILLETRAD
 40
0.0
  9
$AUNITS
 70
     0
  9
$AUPREC
 70
     0
  9
$MENU
  1
acad
  9
$ELEVATION
 40
0.0
  9
$THICKNESS
 40
0.0
  9
$LIMCHECK
 70
     0
  9
$BLIPMODE
 70
     1
  9
$CHAMFERA
 40
0.0
  9
$CHAMFERB
 40
0.0
  9
$SKPOLY
 70
     0
  9
$TDCREATE
 40
2454078.666273148
  9
$TDUPDATE
 40
2454078.666273148
  9
$TDINDWG
 40
0.0
  9
$TDUSRTIMER
 40
0.0
  9
$USRTIMER
 70
     1
  9
$ANGBASE
 50
0.0
  9
$ANGDIR
 70
     0
  9
$PDMODE
 70
     0
  9
$PDSIZE
 40
0.0
  9
$PLINEWID
 40
0.0
  9
$COORDS
 70
     0
  9
$SPLFRAME
 70
     0
  9
$SPLINETYPE
 70
     6
  9
$SPLINESEGS
 70
     8
  9
$ATTDIA
 70
     0
  9
$ATTREQ
 70
     1
  9
$HANDLING
 70
     0
  9
$HANDSEED
  5
0
  9
$SURFTAB1
 70
     6
  9
$SURFTAB2
 70
     6
  9
$SURFTYPE
 70
     6
  9
$SURFU
 70
     6
  9
$SURFV
 70
     6
  9
$FLATLAND
 70
     0
  9
$UCSNAME
  2

  9
$UCSORG
 10
0.0
 20
0.0
 30
0.0
  9
$UCSXDIR
 10
1.0
 20
0.0
 30
0.0
  9
$UCSYDIR
 10
0.0
 20
1.0
 30
0.0
  9
$USERI1
 70
     0
  9
$USERI2
 70
     0
  9
$USERI3
 70
     0
  9
$USERI4
 70
     0
  9
$USERI5
 70
     0
  9
$USERR1
 40
0.0
  9
$USERR2
 40
0.0
  9
$USERR3
 40
0.0
  9
$USERR4
 40
0.0
  9
$USERR5
 40
0.0
  9
$WORLDVIEW
 70
     1
  0
ENDSEC
  0
SECTION
  2
TABLES
  0
TABLE
  2
VPORT
 70
     1
  0
VPORT
  2
*ACTIVE
 70
     0
 10
0.0
 20
0.0
 11
1.0
 21
1.0
 12
0.0
 22
-191.7959442138672
 13
0.0
 23
0.0
 14
0.0
 24
0.0
 15
0.0
 25
0.0
 16
0.0
 26
0.0
 36
1.0
 17
0.0
 27
0.0
 37
0.0
 40
716.1683044433594
 41
1.5
 42
50.0
 43
0.0
 44
0.0
 50
0.0
 51
0.0
 71
     0
 72
   100
 73
     1
 74
     1
 75
     0
 76
     0
 77
     0
 78
     0
  0
ENDTAB
  0
TABLE
  2
LTYPE
 70
    20
  0
LTYPE
  2
CONTINUOUS
 70
    64
  3
solid line
 72
    65
 73
     0
 40
0.0
  0
LTYPE
  2
DASHED
 70
    64
  3
-- -- -- -- -- -- -- -- -- -- 
 72
    65
 73
     2
 40
3.0
 49
2.0
 49
-1.0
  0
LTYPE
  2
CENTER
 70
    64
  3
--- - --- - --- - --- - --- - 
 72
    65
 73
     4
 40
6.0
 49
3.0
 49
-1.0
 49
1.0
 49
-1.0
  0
ENDTAB
  0
TABLE
  2
LAYER
 70
    20
  0
LAYER
  2
0
 70
    64
 62
     7
  6
CONTINUOUS
  0
LAYER
  2
1
 70
    64
 62
     7
  6
CONTINUOUS
  0
LAYER
  2
10
 70
    64
 62
     7
  6
CONTINUOUS
  0
ENDTAB
  0
TABLE
  2
STYLE
 70
     4
  0
ENDTAB
  0
TABLE
  2
VIEW
 70
     0
  0
ENDTAB
  0
TABLE
  2
UCS
 70
     0
  0
ENDTAB
  0
TABLE
  2
DWGMGR
 70
     0
  0
ENDTAB
  0
ENDSEC
  0
SECTION
  2
BLOCKS
  0
BLOCK
  8
10
  2
COMP1
 70
    64
 10
0.0
 20
0.0
  0
LINE
  8
10
  6
CONTINUOUS
 10
-82.0
 20
-250.5
 11
-82.0
 21
-263.5
  0
LINE
  8
10
  6
CONTINUOUS
 10
-110.0
 20
-263.5
 11
-82.0
 21
-263.5
  0
LINE
  8
10
  6
CONTINUOUS
 10
-113.5
 20
-250.5
 11
-78.5
 21
-250.5
  0
ARC
  8
10
  6
CONTINUOUS
 10
-80.84455543377231
 20
-222.521316316808
 40
4.478683683192002
 50
221.6884757300877
 51
318.311524269912
  0
ARC
  8
10
  6
CONTINUOUS
 10
-96.0
 20
-211.3352652672321
 40
15.6647347327679
 50
244.7215886504576
 51
295.2784113495424
  0
ARC
  8
10
  6
CONTINUOUS
 10
-96.0
 20
-224.6647347327679
 40
15.6647347327679
 50
64.72158865045758
 51
115.2784113495424
  0
ARC
  8
10
  6
CONTINUOUS
 10
-80.84455543377231
 20
-213.478683683192
 40
4.478683683192002
 50
41.68847573008797
 51
138.3115242699123
  0
ARC
  8
10
  6
CONTINUOUS
 10
-80.84455543377231
 20
-200.021316316808
 40
4.478683683192002
 50
221.6884757300877
 51
318.311524269912
  0
ARC
  8
10
  6
CONTINUOUS
 10
-96.0
 20
-188.8352652672321
 40
15.6647347327679
 50
244.7215886504576
 51
295.2784113495424
  0
ARC
  8
10
  6
CONTINUOUS
 10
-96.0
 20
-212.1647347327679
 40
15.6647347327679
 50
64.72158865045758
 51
115.2784113495424
  0
ARC
  8
10
  6
CONTINUOUS
 10
-80.84455543377231
 20
-200.978683683192
 40
4.478683683192002
 50
41.68847573008797
 51
138.3115242699123
  0
LINE
  8
10
  6
CONTINUOUS
 10
-89.31088913245537
 20
-210.5
 11
-89.31088913245537
 21
-225.5
  0
LINE
  8
10
  6
CONTINUOUS
 10
-84.18911086754466
 20
-210.5
 11
-84.18911086754466
 21
-225.5
  0
LINE
  8
10
  6
CONTINUOUS
 10
-77.5
 20
-210.5
 11
-77.5
 21
-225.5
  0
LINE
  8
10
  6
CONTINUOUS
 10
-89.31088913245537
 20
-198.0
 11
-89.31088913245537
 21
-203.0
  0
LINE
  8
10
  6
CONTINUOUS
 10
-84.18911086754466
 20
-198.0
 11
-84.18911086754466
 21
-203.0
  0
LINE
  8
10
  6
CONTINUOUS
 10
-77.5
 20
-198.0
 11
-77.5
 21
-203.0
  0
LINE
  8
10
  6
CONTINUOUS
 10
-107.8108891324554
 20
-225.5
 11
-102.6891108675446
 21
-225.5
  0
LINE
  8
10
  6
CONTINUOUS
 10
-89.31088913245537
 20
-225.5
 11
-84.18911086754466
 21
-225.5
  0
LINE
  8
10
  6
CONTINUOUS
 10
-107.8108891324554
 20
-210.5
 11
-102.6891108675446
 21
-210.5
  0
LINE
  8
10
  6
CONTINUOUS
 10
-89.31088913245537
 20
-210.5
 11
-84.18911086754466
 21
-210.5
  0
LINE
  8
10
  6
CONTINUOUS
 10
-107.8108891324554
 20
-203.0
 11
-102.6891108675446
 21
-203.0
  0
LINE
  8
10
  6
CONTINUOUS
 10
-89.31088913245537
 20
-203.0
 11
-84.18911086754466
 21
-203.0
  0
LINE
  8
10
  6
CONTINUOUS
 10
-107.8108891324554
 20
-198.0
 11
-102.6891108675446
 21
-198.0
  0
LINE
  8
10
  6
CONTINUOUS
 10
-89.31088913245537
 20
-198.0
 11
-84.18911086754466
 21
-198.0
  0
LINE
  8
10
  6
CONTINUOUS
 10
-111.1554445662277
 20
-227.0
 11
-80.84455543377231
 21
-227.0
  0
LINE
  8
10
  6
CONTINUOUS
 10
-111.1554445662277
 20
-209.0
 11
-80.84455543377231
 21
-209.0
  0
LINE
  8
10
  6
CONTINUOUS
 10
-111.1554445662277
 20
-204.5
 11
-80.84455543377231
 21
-204.5
  0
LINE
  8
10
  6
CONTINUOUS
 10
-111.1554445662277
 20
-196.5
 11
-80.84455543377231
 21
-196.5
  0
LINE
  8
10
  6
CONTINUOUS
 10
-87.5
 20
-190.5
 11
-87.5
 21
-196.5
  0
LINE
  8
10
  6
CONTINUOUS
 10
-85.5
 20
-190.5
 11
-85.5
 21
-196.5
  0
LINE
  8
10
  6
CONTINUOUS
 10
-82.5
 20
-190.5
 11
-82.5
 21
-196.5
  0
LINE
  8
10
  6
CONTINUOUS
 10
-81.5
 20
-190.5
 11
-81.5
 21
-196.5
  0
LINE
  8
10
  6
CONTINUOUS
 10
-78.5
 20
-226.3372915987063
 11
-78.5
 21
-250.5
  0
LINE
  8
10
  6
CONTINUOUS
 10
-80.0
 20
-204.4196493707474
 11
-80.0
 21
-209.0803506292526
  0
LINE
  8
10
  6
CONTINUOUS
 10
-110.0
 20
-250.5
 11
-110.0
 21
-263.5
  0
ARC
  8
10
  6
CONTINUOUS
 10
-111.1554445662276
 20
-222.521316316808
 40
4.478683683191992
 50
221.6884757300875
 51
318.3115242699116
  0
ARC
  8
10
  6
CONTINUOUS
 10
-111.1554445662276
 20
-213.478683683192
 40
4.478683683192013
 50
41.68847573008797
 51
138.3115242699125
  0
ARC
  8
10
  6
CONTINUOUS
 10
-111.1554445662276
 20
-200.021316316808
 40
4.478683683191992
 50
221.6884757300875
 51
318.3115242699116
  0
ARC
  8
10
  6
CONTINUOUS
 10
-111.1554445662276
 20
-200.978683683192
 40
4.478683683192013
 50
41.68847573008797
 51
138.3115242699125
  0
LINE
  8
10
  6
CONTINUOUS
 10
-102.6891108675446
 20
-210.5
 11
-102.6891108675446
 21
-225.5
  0
LINE
  8
10
  6
CONTINUOUS
 10
-107.8108891324554
 20
-210.5
 11
-107.8108891324554
 21
-225.5
  0
LINE
  8
10
  6
CONTINUOUS
 10
-114.5
 20
-210.5
 11
-114.5
 21
-225.5
  0
LINE
  8
10
  6
CONTINUOUS
 10
-114.5
 20
-198.0
 11
-114.5
 21
-203.0
  0
LINE
  8
10
  6
CONTINUOUS
 10
-107.8108891324554
 20
-198.0
 11
-107.8108891324554
 21
-203.0
  0
LINE
  8
10
  6
CONTINUOUS
 10
-102.6891108675446
 20
-198.0
 11
-102.6891108675446
 21
-203.0
  0
LINE
  8
10
  6
CONTINUOUS
 10
-104.5
 20
-190.5
 11
-104.5
 21
-196.5
  0
LINE
  8
10
  6
CONTINUOUS
 10
-106.5
 20
-190.5
 11
-106.5
 21
-196.5
  0
LINE
  8
10
  6
CONTINUOUS
 10
-109.5
 20
-190.5
 11
-109.5
 21
-196.5
  0
LINE
  8
10
  6
CONTINUOUS
 10
-110.5
 20
-190.5
 11
-110.5
 21
-196.5
  0
LINE
  8
10
  6
CONTINUOUS
 10
-113.5
 20
-226.3372915987063
 11
-113.5
 21
-250.5
  0
LINE
  8
10
  6
CONTINUOUS
 10
-112.0
 20
-204.4196493707474
 11
-112.0
 21
-209.0803506292526
  0
ENDBLK
  8
10
  0
BLOCK
  8
10
  2
COMP2
 70
    64
 10
0.0
 20
0.0
  0
LINE
  8
10
  6
CONTINUOUS
 10
-34.0
 20
-250.5
 11
-34.0
 21
-263.5
  0
LINE
  8
10
  6
CONTINUOUS
 10
-62.0
 20
-263.5
 11
-34.0
 21
-263.5
  0
LINE
  8
10
  6
CONTINUOUS
 10
-65.5
 20
-250.5
 11
-30.5
 21
-250.5
  0
ARC
  8
10
  6
CONTINUOUS
 10
-32.84455543377231
 20
-222.521316316808
 40
4.478683683192002
 50
221.6884757300877
 51
318.311524269912
  0
ARC
  8
10
  6
CONTINUOUS
 10
-48.0
 20
-211.3352652672321
 40
15.6647347327679
 50
244.7215886504576
 51
295.2784113495424
  0
ARC
  8
10
  6
CONTINUOUS
 10
-48.0
 20
-224.6647347327679
 40
15.6647347327679
 50
64.72158865045758
 51
115.2784113495424
  0
ARC
  8
10
  6
CONTINUOUS
 10
-32.84455543377231
 20
-213.478683683192
 40
4.478683683192002
 50
41.68847573008797
 51
138.3115242699123
  0
ARC
  8
10
  6
CONTINUOUS
 10
-32.84455543377231
 20
-200.021316316808
 40
4.478683683192002
 50
221.6884757300877
 51
318.311524269912
  0
ARC
  8
10
  6
CONTINUOUS
 10
-48.0
 20
-188.8352652672321
 40
15.6647347327679
 50
244.7215886504576
 51
295.2784113495424
  0
ARC
  8
10
  6
CONTINUOUS
 10
-48.0
 20
-212.1647347327679
 40
15.6647347327679
 50
64.72158865045758
 51
115.2784113495424
  0
ARC
  8
10
  6
CONTINUOUS
 10
-32.84455543377231
 20
-200.978683683192
 40
4.478683683192002
 50
41.68847573008797
 51
138.3115242699123
  0
LINE
  8
10
  6
CONTINUOUS
 10
-41.31088913245537
 20
-210.5
 11
-41.31088913245537
 21
-225.5
  0
LINE
  8
10
  6
CONTINUOUS
 10
-36.18911086754466
 20
-210.5
 11
-36.18911086754466
 21
-225.5
  0
LINE
  8
10
  6
CONTINUOUS
 10
-29.5
 20
-210.5
 11
-29.5
 21
-225.5
  0
LINE
  8
10
  6
CONTINUOUS
 10
-41.31088913245537
 20
-198.0
 11
-41.31088913245537
 21
-203.0
  0
LINE
  8
10
  6
CONTINUOUS
 10
-36.18911086754466
 20
-198.0
 11
-36.18911086754466
 21
-203.0
  0
LINE
  8
10
  6
CONTINUOUS
 10
-29.5
 20
-198.0
 11
-29.5
 21
-203.0
  0
LINE
  8
10
  6
CONTINUOUS
 10
-59.81088913245537
 20
-225.5
 11
-54.68911086754463
 21
-225.5
  0
LINE
  8
10
  6
CONTINUOUS
 10
-41.31088913245537
 20
-225.5
 11
-36.18911086754466
 21
-225.5
  0
LINE
  8
10
  6
CONTINUOUS
 10
-59.81088913245537
 20
-210.5
 11
-54.68911086754463
 21
-210.5
  0
LINE
  8
10
  6
CONTINUOUS
 10
-41.31088913245537
 20
-210.5
 11
-36.18911086754466
 21
-210.5
  0
LINE
  8
10
  6
CONTINUOUS
 10
-59.81088913245537
 20
-203.0
 11
-54.68911086754463
 21
-203.0
  0
LINE
  8
10
  6
CONTINUOUS
 10
-41.31088913245537
 20
-203.0
 11
-36.18911086754466
 21
-203.0
  0
LINE
  8
10
  6
CONTINUOUS
 10
-59.81088913245537
 20
-198.0
 11
-54.68911086754463
 21
-198.0
  0
LINE
  8
10
  6
CONTINUOUS
 10
-41.31088913245537
 20
-198.0
 11
-36.18911086754466
 21
-198.0
  0
LINE
  8
10
  6
CONTINUOUS
 10
-63.15544456622769
 20
-227.0
 11
-32.84455543377231
 21
-227.0
  0
LINE
  8
10
  6
CONTINUOUS
 10
-63.15544456622769
 20
-209.0
 11
-32.84455543377231
 21
-209.0
  0
LINE
  8
10
  6
CONTINUOUS
 10
-63.15544456622769
 20
-204.5
 11
-32.84455543377231
 21
-204.5
  0
LINE
  8
10
  6
CONTINUOUS
 10
-63.15544456622769
 20
-196.5
 11
-32.84455543377231
 21
-196.5
  0
LINE
  8
10
  6
CONTINUOUS
 10
-39.5
 20
-190.5
 11
-39.5
 21
-196.5
  0
LINE
  8
10
  6
CONTINUOUS
 10
-37.5
 20
-190.5
 11
-37.5
 21
-196.5
  0
LINE
  8
10
  6
CONTINUOUS
 10
-34.5
 20
-190.5
 11
-34.5
 21
-196.5
  0
LINE
  8
10
  6
CONTINUOUS
 10
-33.5
 20
-190.5
 11
-33.5
 21
-196.5
  0
LINE
  8
10
  6
CONTINUOUS
 10
-30.5
 20
-226.3372915987063
 11
-30.5
 21
-250.5
  0
LINE
  8
10
  6
CONTINUOUS
 10
-32.0
 20
-204.4196493707474
 11
-32.0
 21
-209.0803506292526
  0
LINE
  8
10
  6
CONTINUOUS
 10
-62.0
 20
-250.5
 11
-62.0
 21
-263.5
  0
ARC
  8
10
  6
CONTINUOUS
 10
-63.15544456622763
 20
-222.521316316808
 40
4.478683683191992
 50
221.6884757300875
 51
318.3115242699116
  0
ARC
  8
10
  6
CONTINUOUS
 10
-63.15544456622763
 20
-213.478683683192
 40
4.478683683192013
 50
41.68847573008797
 51
138.3115242699125
  0
ARC
  8
10
  6
CONTINUOUS
 10
-63.15544456622763
 20
-200.021316316808
 40
4.478683683191992
 50
221.6884757300875
 51
318.3115242699116
  0
ARC
  8
10
  6
CONTINUOUS
 10
-63.15544456622763
 20
-200.978683683192
 40
4.478683683192013
 50
41.68847573008797
 51
138.3115242699125
  0
LINE
  8
10
  6
CONTINUOUS
 10
-54.68911086754463
 20
-210.5
 11
-54.68911086754463
 21
-225.5
  0
LINE
  8
10
  6
CONTINUOUS
 10
-59.81088913245537
 20
-210.5
 11
-59.81088913245537
 21
-225.5
  0
LINE
  8
10
  6
CONTINUOUS
 10
-66.5
 20
-210.5
 11
-66.5
 21
-225.5
  0
LINE
  8
10
  6
CONTINUOUS
 10
-66.5
 20
-198.0
 11
-66.5
 21
-203.0
  0
LINE
  8
10
  6
CONTINUOUS
 10
-59.81088913245537
 20
-198.0
 11
-59.81088913245537
 21
-203.0
  0
LINE
  8
10
  6
CONTINUOUS
 10
-54.68911086754463
 20
-198.0
 11
-54.68911086754463
 21
-203.0
  0
LINE
  8
10
  6
CONTINUOUS
 10
-56.5
 20
-190.5
 11
-56.5
 21
-196.5
  0
LINE
  8
10
  6
CONTINUOUS
 10
-58.5
 20
-190.5
 11
-58.5
 21
-196.5
  0
LINE
  8
10
  6
CONTINUOUS
 10
-61.5
 20
-190.5
 11
-61.5
 21
-196.5
  0
LINE
  8
10
  6
CONTINUOUS
 10
-62.5
 20
-190.5
 11
-62.5
 21
-196.5
  0
LINE
  8
10
  6
CONTINUOUS
 10
-65.5
 20
-226.3372915987063
 11
-65.5
 21
-250.5
  0
LINE
  8
10
  6
CONTINUOUS
 10
-64.0
 20
-204.4196493707474
 11
-64.0
 21
-209.0803506292526
  0
ENDBLK
  8
10
  0
BLOCK
  8
10
  2
COMP3
 70
    64
 10
0.0
 20
0.0
  0
LINE
  8
10
  6
CONTINUOUS
 10
14.0
 20
-250.5
 11
14.0
 21
-263.5
  0
LINE
  8
10
  6
CONTINUOUS
 10
-14.0
 20
-263.5
 11
14.0
 21
-263.5
  0
LINE
  8
10
  6
CONTINUOUS
 10
-17.5
 20
-250.5
 11
17.5
 21
-250.5
  0
ARC
  8
10
  6
CONTINUOUS
 10
15.15544456622769
 20
-222.521316316808
 40
4.478683683192002
 50
221.6884757300877
 51
318.311524269912
  0
ARC
  8
10
  6
CONTINUOUS
 10
0.0
 20
-211.3352652672321
 40
15.6647347327679
 50
244.7215886504576
 51
295.2784113495424
  0
ARC
  8
10
  6
CONTINUOUS
 10
0.0
 20
-224.6647347327679
 40
15.6647347327679
 50
64.72158865045758
 51
115.2784113495424
  0
ARC
  8
10
  6
CONTINUOUS
 10
15.15544456622769
 20
-213.478683683192
 40
4.478683683192002
 50
41.68847573008797
 51
138.3115242699123
  0
ARC
  8
10
  6
CONTINUOUS
 10
15.15544456622769
 20
-200.021316316808
 40
4.478683683192002
 50
221.6884757300877
 51
318.311524269912
  0
ARC
  8
10
  6
CONTINUOUS
 10
0.0
 20
-188.8352652672321
 40
15.6647347327679
 50
244.7215886504576
 51
295.2784113495424
  0
ARC
  8
10
  6
CONTINUOUS
 10
0.0
 20
-212.1647347327679
 40
15.6647347327679
 50
64.72158865045758
 51
115.2784113495424
  0
ARC
  8
10
  6
CONTINUOUS
 10
15.15544456622769
 20
-200.978683683192
 40
4.478683683192002
 50
41.68847573008797
 51
138.3115242699123
  0
LINE
  8
10
  6
CONTINUOUS
 10
6.689110867544628
 20
-210.5
 11
6.689110867544628
 21
-225.5
  0
LINE
  8
10
  6
CONTINUOUS
 10
11.81088913245534
 20
-210.5
 11
11.81088913245534
 21
-225.5
  0
LINE
  8
10
  6
CONTINUOUS
 10
18.5
 20
-210.5
 11
18.5
 21
-225.5
  0
LINE
  8
10
  6
CONTINUOUS
 10
6.689110867544628
 20
-198.0
 11
6.689110867544628
 21
-203.0
  0
LINE
  8
10
  6
CONTINUOUS
 10
11.81088913245534
 20
-198.0
 11
11.81088913245534
 21
-203.0
  0
LINE
  8
10
  6
CONTINUOUS
 10
18.5
 20
-198.0
 11
18.5
 21
-203.0
  0
LINE
  8
10
  6
CONTINUOUS
 10
-11.81088913245537
 20
-225.5
 11
-6.689110867544628
 21
-225.5
  0
LINE
  8
10
  6
CONTINUOUS
 10
6.689110867544628
 20
-225.5
 11
11.81088913245534
 21
-225.5
  0
LINE
  8
10
  6
CONTINUOUS
 10
-11.81088913245537
 20
-210.5
 11
-6.689110867544628
 21
-210.5
  0
LINE
  8
10
  6
CONTINUOUS
 10
6.689110867544628
 20
-210.5
 11
11.81088913245534
 21
-210.5
  0
LINE
  8
10
  6
CONTINUOUS
 10
-11.81088913245537
 20
-203.0
 11
-6.689110867544628
 21
-203.0
  0
LINE
  8
10
  6
CONTINUOUS
 10
6.689110867544628
 20
-203.0
 11
11.81088913245534
 21
-203.0
  0
LINE
  8
10
  6
CONTINUOUS
 10
-11.81088913245537
 20
-198.0
 11
-6.689110867544628
 21
-198.0
  0
LINE
  8
10
  6
CONTINUOUS
 10
6.689110867544628
 20
-198.0
 11
11.81088913245534
 21
-198.0
  0
LINE
  8
10
  6
CONTINUOUS
 10
-15.15544456622769
 20
-227.0
 11
15.15544456622769
 21
-227.0
  0
LINE
  8
10
  6
CONTINUOUS
 10
-15.15544456622769
 20
-209.0
 11
15.15544456622769
 21
-209.0
  0
LINE
  8
10
  6
CONTINUOUS
 10
-15.15544456622769
 20
-204.5
 11
15.15544456622769
 21
-204.5
  0
LINE
  8
10
  6
CONTINUOUS
 10
-15.15544456622769
 20
-196.5
 11
15.15544456622769
 21
-196.5
  0
LINE
  8
10
  6
CONTINUOUS
 10
8.5
 20
-190.5
 11
8.5
 21
-196.5
  0
LINE
  8
10
  6
CONTINUOUS
 10
10.5
 20
-190.5
 11
10.5
 21
-196.5
  0
LINE
  8
10
  6
CONTINUOUS
 10
13.5
 20
-190.5
 11
13.5
 21
-196.5
  0
LINE
  8
10
  6
CONTINUOUS
 10
14.5
 20
-190.5
 11
14.5
 21
-196.5
  0
LINE
  8
10
  6
CONTINUOUS
 10
17.5
 20
-226.3372915987063
 11
17.5
 21
-250.5
  0
LINE
  8
10
  6
CONTINUOUS
 10
16.0
 20
-204.4196493707474
 11
16.0
 21
-209.0803506292526
  0
LINE
  8
10
  6
CONTINUOUS
 10
-14.0
 20
-250.5
 11
-14.0
 21
-263.5
  0
ARC
  8
10
  6
CONTINUOUS
 10
-15.15544456622763
 20
-222.521316316808
 40
4.478683683191992
 50
221.6884757300875
 51
318.3115242699116
  0
ARC
  8
10
  6
CONTINUOUS
 10
-15.15544456622763
 20
-213.478683683192
 40
4.478683683192013
 50
41.68847573008797
 51
138.3115242699125
  0
ARC
  8
10
  6
CONTINUOUS
 10
-15.15544456622763
 20
-200.021316316808
 40
4.478683683191992
 50
221.6884757300875
 51
318.3115242699116
  0
ARC
  8
10
  6
CONTINUOUS
 10
-15.15544456622763
 20
-200.978683683192
 40
4.478683683192013
 50
41.68847573008797
 51
138.3115242699125
  0
LINE
  8
10
  6
CONTINUOUS
 10
-6.689110867544628
 20
-210.5
 11
-6.689110867544628
 21
-225.5
  0
LINE
  8
10
  6
CONTINUOUS
 10
-11.81088913245537
 20
-210.5
 11
-11.81088913245537
 21
-225.5
  0
LINE
  8
10
  6
CONTINUOUS
 10
-18.5
 20
-210.5
 11
-18.5
 21
-225.5
  0
LINE
  8
10
  6
CONTINUOUS
 10
-18.5
 20
-198.0
 11
-18.5
 21
-203.0
  0
LINE
  8
10
  6
CONTINUOUS
 10
-11.81088913245537
 20
-198.0
 11
-11.81088913245537
 21
-203.0
  0
LINE
  8
10
  6
CONTINUOUS
 10
-6.689110867544628
 20
-198.0
 11
-6.689110867544628
 21
-203.0
  0
LINE
  8
10
  6
CONTINUOUS
 10
-8.5
 20
-190.5
 11
-8.5
 21
-196.5
  0
LINE
  8
10
  6
CONTINUOUS
 10
-10.5
 20
-190.5
 11
-10.5
 21
-196.5
  0
LINE
  8
10
  6
CONTINUOUS
 10
-13.5
 20
-190.5
 11
-13.5
 21
-196.5
  0
LINE
  8
10
  6
CONTINUOUS
 10
-14.5
 20
-190.5
 11
-14.5
 21
-196.5
  0
LINE
  8
10
  6
CONTINUOUS
 10
-17.5
 20
-226.3372915987063
 11
-17.5
 21
-250.5
  0
LINE
  8
10
  6
CONTINUOUS
 10
-16.0
 20
-204.4196493707474
 11
-16.0
 21
-209.0803506292526
  0
ENDBLK
  8
10
  0
BLOCK
  8
10
  2
COMP4
 70
    64
 10
0.0
 20
0.0
  0
LINE
  8
10
  6
CONTINUOUS
 10
62.0
 20
-250.5
 11
62.0
 21
-263.5
  0
LINE
  8
10
  6
CONTINUOUS
 10
34.0
 20
-263.5
 11
62.0
 21
-263.5
  0
LINE
  8
10
  6
CONTINUOUS
 10
30.5
 20
-250.5
 11
65.5
 21
-250.5
  0
ARC
  8
10
  6
CONTINUOUS
 10
63.15544456622769
 20
-222.521316316808
 40
4.478683683192002
 50
221.6884757300877
 51
318.311524269912
  0
ARC
  8
10
  6
CONTINUOUS
 10
48.0
 20
-211.3352652672321
 40
15.6647347327679
 50
244.7215886504576
 51
295.2784113495424
  0
ARC
  8
10
  6
CONTINUOUS
 10
48.0
 20
-224.6647347327679
 40
15.6647347327679
 50
64.72158865045758
 51
115.2784113495424
  0
ARC
  8
10
  6
CONTINUOUS
 10
63.15544456622769
 20
-213.478683683192
 40
4.478683683192002
 50
41.68847573008797
 51
138.3115242699123
  0
ARC
  8
10
  6
CONTINUOUS
 10
63.15544456622769
 20
-200.021316316808
 40
4.478683683192002
 50
221.6884757300877
 51
318.311524269912
  0
ARC
  8
10
  6
CONTINUOUS
 10
48.0
 20
-188.8352652672321
 40
15.6647347327679
 50
244.7215886504576
 51
295.2784113495424
  0
ARC
  8
10
  6
CONTINUOUS
 10
48.0
 20
-212.1647347327679
 40
15.6647347327679
 50
64.72158865045758
 51
115.2784113495424
  0
ARC
  8
10
  6
CONTINUOUS
 10
63.15544456622769
 20
-200.978683683192
 40
4.478683683192002
 50
41.68847573008797
 51
138.3115242699123
  0
LINE
  8
10
  6
CONTINUOUS
 10
54.68911086754463
 20
-210.5
 11
54.68911086754463
 21
-225.5
  0
LINE
  8
10
  6
CONTINUOUS
 10
59.81088913245534
 20
-210.5
 11
59.81088913245534
 21
-225.5
  0
LINE
  8
10
  6
CONTINUOUS
 10
66.5
 20
-210.5
 11
66.5
 21
-225.5
  0
LINE
  8
10
  6
CONTINUOUS
 10
54.68911086754463
 20
-198.0
 11
54.68911086754463
 21
-203.0
  0
LINE
  8
10
  6
CONTINUOUS
 10
59.81088913245534
 20
-198.0
 11
59.81088913245534
 21
-203.0
  0
LINE
  8
10
  6
CONTINUOUS
 10
66.5
 20
-198.0
 11
66.5
 21
-203.0
  0
LINE
  8
10
  6
CONTINUOUS
 10
36.18911086754463
 20
-225.5
 11
41.31088913245537
 21
-225.5
  0
LINE
  8
10
  6
CONTINUOUS
 10
54.68911086754463
 20
-225.5
 11
59.81088913245534
 21
-225.5
  0
LINE
  8
10
  6
CONTINUOUS
 10
36.18911086754463
 20
-210.5
 11
41.31088913245537
 21
-210.5
  0
LINE
  8
10
  6
CONTINUOUS
 10
54.68911086754463
 20
-210.5
 11
59.81088913245534
 21
-210.5
  0
LINE
  8
10
  6
CONTINUOUS
 10
36.18911086754463
 20
-203.0
 11
41.31088913245537
 21
-203.0
  0
LINE
  8
10
  6
CONTINUOUS
 10
54.68911086754463
 20
-203.0
 11
59.81088913245534
 21
-203.0
  0
LINE
  8
10
  6
CONTINUOUS
 10
36.18911086754463
 20
-198.0
 11
41.31088913245537
 21
-198.0
  0
LINE
  8
10
  6
CONTINUOUS
 10
54.68911086754463
 20
-198.0
 11
59.81088913245534
 21
-198.0
  0
LINE
  8
10
  6
CONTINUOUS
 10
32.84455543377231
 20
-227.0
 11
63.15544456622769
 21
-227.0
  0
LINE
  8
10
  6
CONTINUOUS
 10
32.84455543377231
 20
-209.0
 11
63.15544456622769
 21
-209.0
  0
LINE
  8
10
  6
CONTINUOUS
 10
32.84455543377231
 20
-204.5
 11
63.15544456622769
 21
-204.5
  0
LINE
  8
10
  6
CONTINUOUS
 10
32.84455543377231
 20
-196.5
 11
63.15544456622769
 21
-196.5
  0
LINE
  8
10
  6
CONTINUOUS
 10
56.5
 20
-190.5
 11
56.5
 21
-196.5
  0
LINE
  8
10
  6
CONTINUOUS
 10
58.5
 20
-190.5
 11
58.5
 21
-196.5
  0
LINE
  8
10
  6
CONTINUOUS
 10
61.5
 20
-190.5
 11
61.5
 21
-196.5
  0
LINE
  8
10
  6
CONTINUOUS
 10
62.5
 20
-190.5
 11
62.5
 21
-196.5
  0
LINE
  8
10
  6
CONTINUOUS
 10
65.5
 20
-226.3372915987063
 11
65.5
 21
-250.5
  0
LINE
  8
10
  6
CONTINUOUS
 10
64.0
 20
-204.4196493707474
 11
64.0
 21
-209.0803506292526
  0
LINE
  8
10
  6
CONTINUOUS
 10
34.0
 20
-250.5
 11
34.0
 21
-263.5
  0
ARC
  8
10
  6
CONTINUOUS
 10
32.84455543377237
 20
-222.521316316808
 40
4.478683683191992
 50
221.6884757300875
 51
318.3115242699116
  0
ARC
  8
10
  6
CONTINUOUS
 10
32.84455543377237
 20
-213.478683683192
 40
4.478683683192013
 50
41.68847573008797
 51
138.3115242699125
  0
ARC
  8
10
  6
CONTINUOUS
 10
32.84455543377237
 20
-200.021316316808
 40
4.478683683191992
 50
221.6884757300875
 51
318.3115242699116
  0
ARC
  8
10
  6
CONTINUOUS
 10
32.84455543377237
 20
-200.978683683192
 40
4.478683683192013
 50
41.68847573008797
 51
138.3115242699125
  0
LINE
  8
10
  6
CONTINUOUS
 10
41.31088913245537
 20
-210.5
 11
41.31088913245537
 21
-225.5
  0
LINE
  8
10
  6
CONTINUOUS
 10
36.18911086754463
 20
-210.5
 11
36.18911086754463
 21
-225.5
  0
LINE
  8
10
  6
CONTINUOUS
 10
29.5
 20
-210.5
 11
29.5
 21
-225.5
  0
LINE
  8
10
  6
CONTINUOUS
 10
29.5
 20
-198.0
 11
29.5
 21
-203.0
  0
LINE
  8
10
  6
CONTINUOUS
 10
36.18911086754463
 20
-198.0
 11
36.18911086754463
 21
-203.0
  0
LINE
  8
10
  6
CONTINUOUS
 10
41.31088913245537
 20
-198.0
 11
41.31088913245537
 21
-203.0
  0
LINE
  8
10
  6
CONTINUOUS
 10
39.5
 20
-190.5
 11
39.5
 21
-196.5
  0
LINE
  8
10
  6
CONTINUOUS
 10
37.5
 20
-190.5
 11
37.5
 21
-196.5
  0
LINE
  8
10
  6
CONTINUOUS
 10
34.5
 20
-190.5
 11
34.5
 21
-196.5
  0
LINE
  8
10
  6
CONTINUOUS
 10
33.5
 20
-190.5
 11
33.5
 21
-196.5
  0
LINE
  8
10
  6
CONTINUOUS
 10
30.5
 20
-226.3372915987063
 11
30.5
 21
-250.5
  0
LINE
  8
10
  6
CONTINUOUS
 10
32.0
 20
-204.4196493707474
 11
32.0
 21
-209.0803506292526
  0
ENDBLK
  8
10
  0
BLOCK
  8
10
  2
COMP5
 70
    64
 10
0.0
 20
0.0
  0
LINE
  8
10
  6
CONTINUOUS
 10
110.0
 20
-250.5
 11
110.0
 21
-263.5
  0
LINE
  8
10
  6
CONTINUOUS
 10
82.0
 20
-263.5
 11
110.0
 21
-263.5
  0
LINE
  8
10
  6
CONTINUOUS
 10
78.5
 20
-250.5
 11
113.5
 21
-250.5
  0
ARC
  8
10
  6
CONTINUOUS
 10
111.1554445662277
 20
-222.521316316808
 40
4.478683683192002
 50
221.6884757300877
 51
318.311524269912
  0
ARC
  8
10
  6
CONTINUOUS
 10
96.0
 20
-211.3352652672321
 40
15.6647347327679
 50
244.7215886504576
 51
295.2784113495424
  0
ARC
  8
10
  6
CONTINUOUS
 10
96.0
 20
-224.6647347327679
 40
15.6647347327679
 50
64.72158865045758
 51
115.2784113495424
  0
ARC
  8
10
  6
CONTINUOUS
 10
111.1554445662277
 20
-213.478683683192
 40
4.478683683192002
 50
41.68847573008797
 51
138.3115242699123
  0
ARC
  8
10
  6
CONTINUOUS
 10
111.1554445662277
 20
-200.021316316808
 40
4.478683683192002
 50
221.6884757300877
 51
318.311524269912
  0
ARC
  8
10
  6
CONTINUOUS
 10
96.0
 20
-188.8352652672321
 40
15.6647347327679
 50
244.7215886504576
 51
295.2784113495424
  0
ARC
  8
10
  6
CONTINUOUS
 10
96.0
 20
-212.1647347327679
 40
15.6647347327679
 50
64.72158865045758
 51
115.2784113495424
  0
ARC
  8
10
  6
CONTINUOUS
 10
111.1554445662277
 20
-200.978683683192
 40
4.478683683192002
 50
41.68847573008797
 51
138.3115242699123
  0
LINE
  8
10
  6
CONTINUOUS
 10
102.6891108675446
 20
-210.5
 11
102.6891108675446
 21
-225.5
  0
LINE
  8
10
  6
CONTINUOUS
 10
107.8108891324553
 20
-210.5
 11
107.8108891324553
 21
-225.5
  0
LINE
  8
10
  6
CONTINUOUS
 10
114.5
 20
-210.5
 11
114.5
 21
-225.5
  0
LINE
  8
10
  6
CONTINUOUS
 10
102.6891108675446
 20
-198.0
 11
102.6891108675446
 21
-203.0
  0
LINE
  8
10
  6
CONTINUOUS
 10
107.8108891324553
 20
-198.0
 11
107.8108891324553
 21
-203.0
  0
LINE
  8
10
  6
CONTINUOUS
 10
114.5
 20
-198.0
 11
114.5
 21
-203.0
  0
LINE
  8
10
  6
CONTINUOUS
 10
84.18911086754463
 20
-225.5
 11
89.31088913245537
 21
-225.5
  0
LINE
  8
10
  6
CONTINUOUS
 10
102.6891108675446
 20
-225.5
 11
107.8108891324553
 21
-225.5
  0
LINE
  8
10
  6
CONTINUOUS
 10
84.18911086754463
 20
-210.5
 11
89.31088913245537
 21
-210.5
  0
LINE
  8
10
  6
CONTINUOUS
 10
102.6891108675446
 20
-210.5
 11
107.8108891324553
 21
-210.5
  0
LINE
  8
10
  6
CONTINUOUS
 10
84.18911086754463
 20
-203.0
 11
89.31088913245537
 21
-203.0
  0
LINE
  8
10
  6
CONTINUOUS
 10
102.6891108675446
 20
-203.0
 11
107.8108891324553
 21
-203.0
  0
LINE
  8
10
  6
CONTINUOUS
 10
84.18911086754463
 20
-198.0
 11
89.31088913245537
 21
-198.0
  0
LINE
  8
10
  6
CONTINUOUS
 10
102.6891108675446
 20
-198.0
 11
107.8108891324553
 21
-198.0
  0
LINE
  8
10
  6
CONTINUOUS
 10
80.84455543377231
 20
-227.0
 11
111.1554445662277
 21
-227.0
  0
LINE
  8
10
  6
CONTINUOUS
 10
80.84455543377231
 20
-209.0
 11
111.1554445662277
 21
-209.0
  0
LINE
  8
10
  6
CONTINUOUS
 10
80.84455543377231
 20
-204.5
 11
111.1554445662277
 21
-204.5
  0
LINE
  8
10
  6
CONTINUOUS
 10
80.84455543377231
 20
-196.5
 11
111.1554445662277
 21
-196.5
  0
LINE
  8
10
  6
CONTINUOUS
 10
104.5
 20
-190.5
 11
104.5
 21
-196.5
  0
LINE
  8
10
  6
CONTINUOUS
 10
106.5
 20
-190.5
 11
106.5
 21
-196.5
  0
LINE
  8
10
  6
CONTINUOUS
 10
109.5
 20
-190.5
 11
109.5
 21
-196.5
  0
LINE
  8
10
  6
CONTINUOUS
 10
110.5
 20
-190.5
 11
110.5
 21
-196.5
  0
LINE
  8
10
  6
CONTINUOUS
 10
113.5
 20
-226.3372915987063
 11
113.5
 21
-250.5
  0
LINE
  8
10
  6
CONTINUOUS
 10
112.0
 20
-204.4196493707474
 11
112.0
 21
-209.0803506292526
  0
LINE
  8
10
  6
CONTINUOUS
 10
82.0
 20
-250.5
 11
82.0
 21
-263.5
  0
ARC
  8
10
  6
CONTINUOUS
 10
80.84455543377237
 20
-222.521316316808
 40
4.478683683191992
 50
221.6884757300875
 51
318.3115242699116
  0
ARC
  8
10
  6
CONTINUOUS
 10
80.84455543377237
 20
-213.478683683192
 40
4.478683683192013
 50
41.68847573008797
 51
138.3115242699125
  0
ARC
  8
10
  6
CONTINUOUS
 10
80.84455543377237
 20
-200.021316316808
 40
4.478683683191992
 50
221.6884757300875
 51
318.3115242699116
  0
ARC
  8
10
  6
CONTINUOUS
 10
80.84455543377237
 20
-200.978683683192
 40
4.478683683192013
 50
41.68847573008797
 51
138.3115242699125
  0
LINE
  8
10
  6
CONTINUOUS
 10
89.31088913245537
 20
-210.5
 11
89.31088913245537
 21
-225.5
  0
LINE
  8
10
  6
CONTINUOUS
 10
84.18911086754463
 20
-210.5
 11
84.18911086754463
 21
-225.5
  0
LINE
  8
10
  6
CONTINUOUS
 10
77.5
 20
-210.5
 11
77.5
 21
-225.5
  0
LINE
  8
10
  6
CONTINUOUS
 10
77.5
 20
-198.0
 11
77.5
 21
-203.0
  0
LINE
  8
10
  6
CONTINUOUS
 10
84.18911086754463
 20
-198.0
 11
84.18911086754463
 21
-203.0
  0
LINE
  8
10
  6
CONTINUOUS
 10
89.31088913245537
 20
-198.0
 11
89.31088913245537
 21
-203.0
  0
LINE
  8
10
  6
CONTINUOUS
 10
87.5
 20
-190.5
 11
87.5
 21
-196.5
  0
LINE
  8
10
  6
CONTINUOUS
 10
85.5
 20
-190.5
 11
85.5
 21
-196.5
  0
LINE
  8
10
  6
CONTINUOUS
 10
82.5
 20
-190.5
 11
82.5
 21
-196.5
  0
LINE
  8
10
  6
CONTINUOUS
 10
81.5
 20
-190.5
 11
81.5
 21
-196.5
  0
LINE
  8
10
  6
CONTINUOUS
 10
78.5
 20
-226.3372915987063
 11
78.5
 21
-250.5
  0
LINE
  8
10
  6
CONTINUOUS
 10
80.0
 20
-204.4196493707474
 11
80.0
 21
-209.0803506292526
  0
ENDBLK
  8
10
  0
BLOCK
  8
10
  2
COMP6
 70
    64
 10
0.0
 20
0.0
  0
LINE
  8
10
  6
CONTINUOUS
 10
-77.5
 20
-506.9570600599758
 11
-77.5
 21
-501.0429399400242
  0
LINE
  8
10
  6
CONTINUOUS
 10
-77.5
 20
-501.0429399400242
 11
-84.18911086754467
 21
-489.4570600599757
  0
LINE
  8
10
  6
CONTINUOUS
 10
-89.31088913245537
 20
-486.5
 11
-84.18911086754467
 21
-489.4570600599757
  0
LINE
  8
10
  6
CONTINUOUS
 10
-89.31088913245537
 20
-486.5
 11
-102.6891108675446
 21
-486.5
  0
CIRCLE
  8
10
  6
CONTINUOUS
 10
-96.0
 20
-504.0
 40
14.0
  0
CIRCLE
  8
10
  6
CONTINUOUS
 10
-96.0
 20
-504.0
 40
17.5
  0
CIRCLE
  8
10
  6
CONTINUOUS
 10
-96.0
 20
-504.0
 40
10.5
  0
CIRCLE
  8
10
  6
CONTINUOUS
 10
-96.0
 20
-504.0
 40
9.300000000000001
  0
CIRCLE
  8
10
  6
CONTINUOUS
 10
-96.0
 20
-504.0
 40
5.0
  0
LINE
  8
10
  6
CONTINUOUS
 10
-89.31088913245537
 20
-521.5
 11
-84.18911086754464
 21
-518.5429399400242
  0
LINE
  8
10
  6
CONTINUOUS
 10
-84.18911086754464
 20
-518.5429399400242
 11
-77.5
 21
-506.9570600599758
  0
LINE
  8
10
  6
CONTINUOUS
 10
-102.6891108675446
 20
-521.5
 11
-89.31088913245537
 21
-521.5
  0
LINE
  8
10
  6
CONTINUOUS
 10
-114.5
 20
-506.9570600599758
 11
-114.5
 21
-501.0429399400242
  0
LINE
  8
10
  6
CONTINUOUS
 10
-114.5
 20
-506.9570600599758
 11
-107.8108891324554
 21
-518.5429399400242
  0
LINE
  8
10
  6
CONTINUOUS
 10
-107.8108891324554
 20
-518.5429399400242
 11
-102.6891108675446
 21
-521.5
  0
LINE
  8
10
  6
CONTINUOUS
 10
-102.6891108675446
 20
-486.5
 11
-107.8108891324554
 21
-489.4570600599758
  0
LINE
  8
10
  6
CONTINUOUS
 10
-107.8108891324554
 20
-489.4570600599758
 11
-114.5
 21
-501.0429399400242
  0
ENDBLK
  8
10
  0
BLOCK
  8
10
  2
COMP7
 70
    64
 10
0.0
 20
0.0
  0
LINE
  8
10
  6
CONTINUOUS
 10
18.5
 20
-506.9570600599758
 11
18.5
 21
-501.0429399400242
  0
LINE
  8
10
  6
CONTINUOUS
 10
18.5
 20
-501.0429399400242
 11
11.81088913245533
 21
-489.4570600599757
  0
LINE
  8
10
  6
CONTINUOUS
 10
6.689110867544628
 20
-486.5
 11
11.81088913245533
 21
-489.4570600599757
  0
LINE
  8
10
  6
CONTINUOUS
 10
6.689110867544628
 20
-486.5
 11
-6.689110867544628
 21
-486.5
  0
CIRCLE
  8
10
  6
CONTINUOUS
 10
0.0
 20
-504.0
 40
14.0
  0
CIRCLE
  8
10
  6
CONTINUOUS
 10
0.0
 20
-504.0
 40
17.5
  0
CIRCLE
  8
10
  6
CONTINUOUS
 10
0.0
 20
-504.0
 40
10.5
  0
CIRCLE
  8
10
  6
CONTINUOUS
 10
0.0
 20
-504.0
 40
9.300000000000001
  0
CIRCLE
  8
10
  6
CONTINUOUS
 10
0.0
 20
-504.0
 40
5.0
  0
LINE
  8
10
  6
CONTINUOUS
 10
6.689110867544628
 20
-521.5
 11
11.81088913245536
 21
-518.5429399400242
  0
LINE
  8
10
  6
CONTINUOUS
 10
11.81088913245536
 20
-518.5429399400242
 11
18.5
 21
-506.9570600599758
  0
LINE
  8
10
  6
CONTINUOUS
 10
-6.689110867544628
 20
-521.5
 11
6.689110867544628
 21
-521.5
  0
LINE
  8
10
  6
CONTINUOUS
 10
-18.5
 20
-506.9570600599758
 11
-18.5
 21
-501.0429399400242
  0
LINE
  8
10
  6
CONTINUOUS
 10
-18.5
 20
-506.9570600599758
 11
-11.81088913245537
 21
-518.5429399400242
  0
LINE
  8
10
  6
CONTINUOUS
 10
-11.81088913245537
 20
-518.5429399400242
 11
-6.689110867544628
 21
-521.5
  0
LINE
  8
10
  6
CONTINUOUS
 10
-6.689110867544628
 20
-486.5
 11
-11.81088913245536
 21
-489.4570600599758
  0
LINE
  8
10
  6
CONTINUOUS
 10
-11.81088913245536
 20
-489.4570600599758
 11
-18.5
 21
-501.0429399400242
  0
ENDBLK
  8
10
  0
BLOCK
  8
10
  2
COMP8
 70
    64
 10
0.0
 20
0.0
  0
LINE
  8
10
  6
CONTINUOUS
 10
114.5
 20
-506.9570600599758
 11
114.5
 21
-501.0429399400242
  0
LINE
  8
10
  6
CONTINUOUS
 10
114.5
 20
-501.0429399400242
 11
107.8108891324553
 21
-489.4570600599757
  0
LINE
  8
10
  6
CONTINUOUS
 10
102.6891108675446
 20
-486.5
 11
107.8108891324553
 21
-489.4570600599757
  0
LINE
  8
10
  6
CONTINUOUS
 10
102.6891108675446
 20
-486.5
 11
89.31088913245537
 21
-486.5
  0
CIRCLE
  8
10
  6
CONTINUOUS
 10
96.0
 20
-504.0
 40
14.0
  0
CIRCLE
  8
10
  6
CONTINUOUS
 10
96.0
 20
-504.0
 40
17.5
  0
CIRCLE
  8
10
  6
CONTINUOUS
 10
96.0
 20
-504.0
 40
10.5
  0
CIRCLE
  8
10
  6
CONTINUOUS
 10
96.0
 20
-504.0
 40
9.300000000000001
  0
CIRCLE
  8
10
  6
CONTINUOUS
 10
96.0
 20
-504.0
 40
5.0
  0
LINE
  8
10
  6
CONTINUOUS
 10
102.6891108675446
 20
-521.5
 11
107.8108891324554
 21
-518.5429399400242
  0
LINE
  8
10
  6
CONTINUOUS
 10
107.8108891324554
 20
-518.5429399400242
 11
114.5
 21
-506.9570600599758
  0
LINE
  8
10
  6
CONTINUOUS
 10
89.31088913245537
 20
-521.5
 11
102.6891108675446
 21
-521.5
  0
LINE
  8
10
  6
CONTINUOUS
 10
77.5
 20
-506.9570600599758
 11
77.5
 21
-501.0429399400242
  0
LINE
  8
10
  6
CONTINUOUS
 10
77.5
 20
-506.9570600599758
 11
84.18911086754463
 21
-518.5429399400242
  0
LINE
  8
10
  6
CONTINUOUS
 10
84.18911086754463
 20
-518.5429399400242
 11
89.31088913245537
 21
-521.5
  0
LINE
  8
10
  6
CONTINUOUS
 10
89.31088913245537
 20
-486.5
 11
84.18911086754464
 21
-489.4570600599758
  0
LINE
  8
10
  6
CONTINUOUS
 10
84.18911086754464
 20
-489.4570600599758
 11
77.5
 21
-501.0429399400242
  0
ENDBLK
  8
10
  0
BLOCK
  8
10
  2
COMP9
 70
    64
 10
0.0
 20
0.0
  0
LINE
  8
10
  6
CONTINUOUS
 10
-29.5
 20
-469.9570600599758
 11
-29.5
 21
-464.0429399400242
  0
LINE
  8
10
  6
CONTINUOUS
 10
-29.5
 20
-464.0429399400242
 11
-36.18911086754467
 21
-452.4570600599757
  0
LINE
  8
10
  6
CONTINUOUS
 10
-41.31088913245537
 20
-449.5
 11
-36.18911086754467
 21
-452.4570600599757
  0
LINE
  8
10
  6
CONTINUOUS
 10
-41.31088913245537
 20
-449.5
 11
-54.68911086754463
 21
-449.5
  0
CIRCLE
  8
10
  6
CONTINUOUS
 10
-48.0
 20
-467.0
 40
14.0
  0
CIRCLE
  8
10
  6
CONTINUOUS
 10
-48.0
 20
-467.0
 40
17.5
  0
CIRCLE
  8
10
  6
CONTINUOUS
 10
-48.0
 20
-467.0
 40
10.5
  0
CIRCLE
  8
10
  6
CONTINUOUS
 10
-48.0
 20
-467.0
 40
9.300000000000001
  0
CIRCLE
  8
10
  6
CONTINUOUS
 10
-48.0
 20
-467.0
 40
5.0
  0
LINE
  8
10
  6
CONTINUOUS
 10
-41.31088913245537
 20
-484.5
 11
-36.18911086754464
 21
-481.5429399400242
  0
LINE
  8
10
  6
CONTINUOUS
 10
-36.18911086754464
 20
-481.5429399400242
 11
-29.5
 21
-469.9570600599758
  0
LINE
  8
10
  6
CONTINUOUS
 10
-54.68911086754463
 20
-484.5
 11
-41.31088913245537
 21
-484.5
  0
LINE
  8
10
  6
CONTINUOUS
 10
-66.5
 20
-469.9570600599758
 11
-66.5
 21
-464.0429399400242
  0
LINE
  8
10
  6
CONTINUOUS
 10
-66.5
 20
-469.9570600599758
 11
-59.81088913245537
 21
-481.5429399400242
  0
LINE
  8
10
  6
CONTINUOUS
 10
-59.81088913245537
 20
-481.5429399400242
 11
-54.68911086754463
 21
-484.5
  0
LINE
  8
10
  6
CONTINUOUS
 10
-54.68911086754463
 20
-449.5
 11
-59.81088913245536
 21
-452.4570600599758
  0
LINE
  8
10
  6
CONTINUOUS
 10
-59.81088913245536
 20
-452.4570600599758
 11
-66.5
 21
-464.0429399400242
  0
ENDBLK
  8
10
  0
BLOCK
  8
10
  2
COMP10
 70
    64
 10
0.0
 20
0.0
  0
LINE
  8
10
  6
CONTINUOUS
 10
66.5
 20
-469.9570600599758
 11
66.5
 21
-464.0429399400242
  0
LINE
  8
10
  6
CONTINUOUS
 10
66.5
 20
-464.0429399400242
 11
59.81088913245533
 21
-452.4570600599757
  0
LINE
  8
10
  6
CONTINUOUS
 10
54.68911086754463
 20
-449.5
 11
59.81088913245533
 21
-452.4570600599757
  0
LINE
  8
10
  6
CONTINUOUS
 10
54.68911086754463
 20
-449.5
 11
41.31088913245537
 21
-449.5
  0
CIRCLE
  8
10
  6
CONTINUOUS
 10
48.0
 20
-467.0
 40
14.0
  0
CIRCLE
  8
10
  6
CONTINUOUS
 10
48.0
 20
-467.0
 40
17.5
  0
CIRCLE
  8
10
  6
CONTINUOUS
 10
48.0
 20
-467.0
 40
10.5
  0
CIRCLE
  8
10
  6
CONTINUOUS
 10
48.0
 20
-467.0
 40
9.300000000000001
  0
CIRCLE
  8
10
  6
CONTINUOUS
 10
48.0
 20
-467.0
 40
5.0
  0
LINE
  8
10
  6
CONTINUOUS
 10
54.68911086754463
 20
-484.5
 11
59.81088913245536
 21
-481.5429399400242
  0
LINE
  8
10
  6
CONTINUOUS
 10
59.81088913245536
 20
-481.5429399400242
 11
66.5
 21
-469.9570600599758
  0
LINE
  8
10
  6
CONTINUOUS
 10
41.31088913245537
 20
-484.5
 11
54.68911086754463
 21
-484.5
  0
LINE
  8
10
  6
CONTINUOUS
 10
29.5
 20
-469.9570600599758
 11
29.5
 21
-464.0429399400242
  0
LINE
  8
10
  6
CONTINUOUS
 10
29.5
 20
-469.9570600599758
 11
36.18911086754463
 21
-481.5429399400242
  0
LINE
  8
10
  6
CONTINUOUS
 10
36.18911086754463
 20
-481.5429399400242
 11
41.31088913245537
 21
-484.5
  0
LINE
  8
10
  6
CONTINUOUS
 10
41.31088913245537
 20
-449.5
 11
36.18911086754464
 21
-452.4570600599758
  0
LINE
  8
10
  6
CONTINUOUS
 10
36.18911086754464
 20
-452.4570600599758
 11
29.5
 21
-464.0429399400242
  0
ENDBLK
  8
10
  0
ENDSEC
  0
SECTION
  2
ENTITIES
  0
LINE
  8
1
  6
CENTER
 10
0.0
 20
-276.771484375
 11
0.0
 21
166.2882080078125
  0
LINE
  8
10
  6
CONTINUOUS
 10
-132.2573593128807
 20
152.5
 11
132.2573593128807
 21
152.5
  0
LINE
  8
10
  6
CONTINUOUS
 10
-132.2573593128807
 20
-187.5
 11
132.2573593128807
 21
-187.5
  0
LINE
  8
10
  6
CONTINUOUS
 10
157.5
 20
-162.2573593128807
 11
157.5
 21
-27.74264068711926
  0
LINE
  8
10
  6
CONTINUOUS
 10
157.5
 20
27.74264068711928
 11
157.5
 21
127.2573593128807
  0
LINE
  8
10
  6
CONTINUOUS
 10
-157.5
 20
-162.2573593128807
 11
-157.5
 21
-27.74264068711926
  0
LINE
  8
10
  6
CONTINUOUS
 10
-157.5
 20
27.74264068711913
 11
-157.5
 21
127.2573593128807
  0
LINE
  8
10
  6
CONTINUOUS
 10
-132.2573593128806
 20
2.5
 11
132.2573593128808
 21
2.500000000000016
  0
LINE
  8
10
  6
CONTINUOUS
 10
-132.2573593128807
 20
-2.500000000000011
 11
132.2573593128808
 21
-2.5
  0
LINE
  8
10
  6
CONTINUOUS
 10
156.6213203435596
 20
129.3786796564404
 11
134.3786796564404
 21
151.6213203435596
  0
LINE
  8
10
  6
CONTINUOUS
 10
134.3786796564404
 20
3.378679656440369
 11
156.6213203435596
 21
25.62132034355964
  0
LINE
  8
10
  6
CONTINUOUS
 10
134.3786796564404
 20
-3.378679656440356
 11
156.6213203435596
 21
-25.62132034355964
  0
LINE
  8
10
  6
CONTINUOUS
 10
156.6213203435596
 20
-164.3786796564404
 11
134.3786796564404
 21
-186.6213203435596
  0
LINE
  8
10
  6
CONTINUOUS
 10
-134.3786796564404
 20
-186.6213203435596
 11
-156.6213203435596
 21
-164.3786796564404
  0
LINE
  8
10
  6
CONTINUOUS
 10
-156.6213203435596
 20
-25.62132034355964
 11
-134.3786796564404
 21
-3.378679656440362
  0
LINE
  8
10
  6
CONTINUOUS
 10
-134.3786796564402
 20
3.378679656440346
 11
-156.6213203435596
 21
25.62132034355948
  0
LINE
  8
10
  6
CONTINUOUS
 10
-156.6213203435596
 20
129.3786796564404
 11
-134.3786796564404
 21
151.6213203435596
  0
LINE
  8
10
  6
CONTINUOUS
 10
-126.8431457505076
 20
127.5
 11
-90.0
 21
127.5
  0
LINE
  8
10
  6
CONTINUOUS
 10
-82.0
 20
127.5
 11
-58.0
 21
127.5
  0
LINE
  8
10
  6
CONTINUOUS
 10
-50.0
 20
127.5
 11
-4.0
 21
127.5
  0
LINE
  8
10
  6
CONTINUOUS
 10
4.0
 20
127.5
 11
50.0
 21
127.5
  0
LINE
  8
10
  6
CONTINUOUS
 10
58.0
 20
127.5
 11
82.0
 21
127.5
  0
LINE
  8
10
  6
CONTINUOUS
 10
90.0
 20
127.5
 11
126.8431457505076
 21
127.5
  0
LINE
  8
10
  6
CONTINUOUS
 10
132.5
 20
33.15685424949237
 11
132.5
 21
57.5
  0
LINE
  8
10
  6
CONTINUOUS
 10
132.5
 20
65.5
 11
132.5
 21
89.5
  0
LINE
  8
10
  6
CONTINUOUS
 10
132.5
 20
97.5
 11
132.5
 21
121.8431457505076
  0
LINE
  8
10
  6
CONTINUOUS
 10
-126.8431457505077
 20
27.5
 11
-90.0
 21
27.5
  0
LINE
  8
10
  6
CONTINUOUS
 10
-82.0
 20
27.5
 11
-58.0
 21
27.5
  0
LINE
  8
10
  6
CONTINUOUS
 10
-50.0
 20
27.5
 11
-4.0
 21
27.5
  0
LINE
  8
10
  6
CONTINUOUS
 10
4.0
 20
27.5
 11
50.0
 21
27.5
  0
LINE
  8
10
  6
CONTINUOUS
 10
58.0
 20
27.5
 11
82.0
 21
27.5
  0
LINE
  8
10
  6
CONTINUOUS
 10
90.0
 20
27.5
 11
126.8431457505076
 21
27.5
  0
LINE
  8
10
  6
CONTINUOUS
 10
-132.5
 20
33.1568542494924
 11
-132.5
 21
57.5
  0
LINE
  8
10
  6
CONTINUOUS
 10
-132.5
 20
65.5
 11
-132.5
 21
89.5
  0
LINE
  8
10
  6
CONTINUOUS
 10
-132.5
 20
97.5
 11
-132.5
 21
121.8431457505076
  0
LINE
  8
10
  6
CONTINUOUS
 10
-126.8431457505076
 20
-27.5
 11
-95.0
 21
-27.5
  0
LINE
  8
10
  6
CONTINUOUS
 10
-87.0
 20
-27.5
 11
-63.0
 21
-27.5
  0
LINE
  8
10
  6
CONTINUOUS
 10
-55.0
 20
-27.5
 11
-4.0
 21
-27.5
  0
LINE
  8
10
  6
CONTINUOUS
 10
4.0
 20
-27.5
 11
55.0
 21
-27.5
  0
LINE
  8
10
  6
CONTINUOUS
 10
63.0
 20
-27.5
 11
87.0
 21
-27.5
  0
LINE
  8
10
  6
CONTINUOUS
 10
95.0
 20
-27.5
 11
126.8431457505076
 21
-27.5
  0
LINE
  8
10
  6
CONTINUOUS
 10
-132.5
 20
-156.8431457505076
 11
-132.5
 21
-115.0
  0
LINE
  8
10
  6
CONTINUOUS
 10
-132.5
 20
-107.0
 11
-132.5
 21
-83.0
  0
LINE
  8
10
  6
CONTINUOUS
 10
-132.5
 20
-75.0
 11
-132.5
 21
-33.15685424949237
  0
LINE
  8
10
  6
CONTINUOUS
 10
-126.8431457505075
 20
-162.5
 11
-95.0
 21
-162.5
  0
LINE
  8
10
  6
CONTINUOUS
 10
-87.0
 20
-162.5
 11
-63.0
 21
-162.5
  0
LINE
  8
10
  6
CONTINUOUS
 10
-55.0
 20
-162.5
 11
-4.0
 21
-162.5
  0
LINE
  8
10
  6
CONTINUOUS
 10
4.0
 20
-162.5
 11
54.99999999999999
 21
-162.5
  0
LINE
  8
10
  6
CONTINUOUS
 10
63.0
 20
-162.5
 11
86.99999999999999
 21
-162.5
  0
LINE
  8
10
  6
CONTINUOUS
 10
95.0
 20
-162.5
 11
126.8431457505076
 21
-162.5
  0
LINE
  8
10
  6
CONTINUOUS
 10
132.5
 20
-156.8431457505076
 11
132.5
 21
-115.0
  0
LINE
  8
10
  6
CONTINUOUS
 10
132.5
 20
-107.0
 11
132.5
 21
-83.0
  0
LINE
  8
10
  6
CONTINUOUS
 10
132.5
 20
-75.0
 11
132.5
 21
-33.15685424949238
  0
CIRCLE
  8
10
  6
CONTINUOUS
 10
-70.0
 20
140.5
 40
8.0
  0
CIRCLE
  8
10
  6
CONTINUOUS
 10
-70.0
 20
140.5
 40
6.267949192431123
  0
POLYLINE
  8
10
  6
CONTINUOUS
 66
     1
 70
     0
 40
0.0
 41
0.0
  0
VERTEX
  8
10
 10
-66.0
 20
142.8094010767585
  0
VERTEX
  8
10
 10
-70.0
 20
145.118802153517
  0
VERTEX
  8
10
 10
-74.0
 20
142.8094010767585
  0
VERTEX
  8
10
 10
-74.0
 20
138.1905989232415
  0
VERTEX
  8
10
 10
-70.0
 20
135.881197846483
  0
VERTEX
  8
10
 10
-66.0
 20
138.1905989232415
  0
VERTEX
  8
10
 10
-66.0
 20
142.8094010767585
  0
SEQEND
  8
10
  0
CIRCLE
  8
10
  6
CONTINUOUS
 10
70.0
 20
140.5
 40
8.0
  0
CIRCLE
  8
10
  6
CONTINUOUS
 10
70.0
 20
140.5
 40
6.267949192431123
  0
POLYLINE
  8
10
  6
CONTINUOUS
 66
     1
 70
     0
 40
0.0
 41
0.0
  0
VERTEX
  8
10
 10
74.0
 20
142.8094010767585
  0
VERTEX
  8
10
 10
70.0
 20
145.118802153517
  0
VERTEX
  8
10
 10
66.0
 20
142.8094010767585
  0
VERTEX
  8
10
 10
66.0
 20
138.1905989232415
  0
VERTEX
  8
10
 10
70.0
 20
135.881197846483
  0
VERTEX
  8
10
 10
74.0
 20
138.1905989232415
  0
VERTEX
  8
10
 10
74.0
 20
142.8094010767585
  0
SEQEND
  8
10
  0
CIRCLE
  8
10
  6
CONTINUOUS
 10
70.0
 20
14.5
 40
8.0
  0
CIRCLE
  8
10
  6
CONTINUOUS
 10
70.0
 20
14.5
 40
6.267949192431123
  0
POLYLINE
  8
10
  6
CONTINUOUS
 66
     1
 70
     0
 40
0.0
 41
0.0
  0
VERTEX
  8
10
 10
74.0
 20
16.80940107675851
  0
VERTEX
  8
10
 10
70.0
 20
19.11880215351701
  0
VERTEX
  8
10
 10
66.0
 20
16.8094010767585
  0
VERTEX
  8
10
 10
66.0
 20
12.1905989232415
  0
VERTEX
  8
10
 10
70.0
 20
9.881197846482994
  0
VERTEX
  8
10
 10
74.0
 20
12.1905989232415
  0
VERTEX
  8
10
 10
74.0
 20
16.80940107675851
  0
SEQEND
  8
10
  0
CIRCLE
  8
10
  6
CONTINUOUS
 10
-70.0
 20
14.5
 40
8.0
  0
CIRCLE
  8
10
  6
CONTINUOUS
 10
-70.0
 20
14.5
 40
6.267949192431123
  0
POLYLINE
  8
10
  6
CONTINUOUS
 66
     1
 70
     0
 40
0.0
 41
0.0
  0
VERTEX
  8
10
 10
-66.0
 20
16.80940107675851
  0
VERTEX
  8
10
 10
-70.0
 20
19.11880215351701
  0
VERTEX
  8
10
 10
-74.0
 20
16.8094010767585
  0
VERTEX
  8
10
 10
-74.0
 20
12.1905989232415
  0
VERTEX
  8
10
 10
-70.0
 20
9.881197846482994
  0
VERTEX
  8
10
 10
-66.0
 20
12.1905989232415
  0
VERTEX
  8
10
 10
-66.0
 20
16.80940107675851
  0
SEQEND
  8
10
  0
CIRCLE
  8
10
  6
CONTINUOUS
 10
145.5
 20
77.5
 40
8.0
  0
CIRCLE
  8
10
  6
CONTINUOUS
 10
145.5
 20
77.5
 40
6.267949192431123
  0
POLYLINE
  8
10
  6
CONTINUOUS
 66
     1
 70
     0
 40
0.0
 41
0.0
  0
VERTEX
  8
10
 10
149.5
 20
79.80940107675851
  0
VERTEX
  8
10
 10
145.5
 20
82.11880215351701
  0
VERTEX
  8
10
 10
141.5
 20
79.80940107675851
  0
VERTEX
  8
10
 10
141.5
 20
75.1905989232415
  0
VERTEX
  8
10
 10
145.5
 20
72.88119784648299
  0
VERTEX
  8
10
 10
149.5
 20
75.1905989232415
  0
VERTEX
  8
10
 10
149.5
 20
79.80940107675851
  0
SEQEND
  8
10
  0
CIRCLE
  8
10
  6
CONTINUOUS
 10
-145.5
 20
77.5
 40
8.0
  0
CIRCLE
  8
10
  6
CONTINUOUS
 10
-145.5
 20
77.5
 40
6.267949192431123
  0
POLYLINE
  8
10
  6
CONTINUOUS
 66
     1
 70
     0
 40
0.0
 41
0.0
  0
VERTEX
  8
10
 10
-141.5
 20
79.80940107675851
  0
VERTEX
  8
10
 10
-145.5
 20
82.11880215351701
  0
VERTEX
  8
10
 10
-149.5
 20
79.80940107675851
  0
VERTEX
  8
10
 10
-149.5
 20
75.1905989232415
  0
VERTEX
  8
10
 10
-145.5
 20
72.88119784648299
  0
VERTEX
  8
10
 10
-141.5
 20
75.1905989232415
  0
VERTEX
  8
10
 10
-141.5
 20
79.80940107675851
  0
SEQEND
  8
10
  0
CIRCLE
  8
10
  6
CONTINUOUS
 10
-145.5
 20
-95.0
 40
8.0
  0
CIRCLE
  8
10
  6
CONTINUOUS
 10
-145.5
 20
-95.0
 40
6.267949192431123
  0
POLYLINE
  8
10
  6
CONTINUOUS
 66
     1
 70
     0
 40
0.0
 41
0.0
  0
VERTEX
  8
10
 10
-141.5
 20
-92.6905989232415
  0
VERTEX
  8
10
 10
-145.5
 20
-90.38119784648299
  0
VERTEX
  8
10
 10
-149.5
 20
-92.6905989232415
  0
VERTEX
  8
10
 10
-149.5
 20
-97.30940107675851
  0
VERTEX
  8
10
 10
-145.5
 20
-99.61880215351701
  0
VERTEX
  8
10
 10
-141.5
 20
-97.30940107675851
  0
VERTEX
  8
10
 10
-141.5
 20
-92.6905989232415
  0
SEQEND
  8
10
  0
CIRCLE
  8
10
  6
CONTINUOUS
 10
145.5
 20
-95.0
 40
8.0
  0
CIRCLE
  8
10
  6
CONTINUOUS
 10
145.5
 20
-95.0
 40
6.267949192431123
  0
POLYLINE
  8
10
  6
CONTINUOUS
 66
     1
 70
     0
 40
0.0
 41
0.0
  0
VERTEX
  8
10
 10
149.5
 20
-92.6905989232415
  0
VERTEX
  8
10
 10
145.5
 20
-90.38119784648299
  0
VERTEX
  8
10
 10
141.5
 20
-92.6905989232415
  0
VERTEX
  8
10
 10
141.5
 20
-97.30940107675851
  0
VERTEX
  8
10
 10
145.5
 20
-99.61880215351701
  0
VERTEX
  8
10
 10
149.5
 20
-97.30940107675851
  0
VERTEX
  8
10
 10
149.5
 20
-92.6905989232415
  0
SEQEND
  8
10
  0
LINE
  8
10
  6
CONTINUOUS
 10
-82.0
 20
4.5
 11
-82.0
 21
28.5
  0
LINE
  8
10
  6
CONTINUOUS
 10
-58.0
 20
4.5
 11
-58.0
 21
28.50000000000001
  0
LINE
  8
10
  6
CONTINUOUS
 10
-82.0
 20
126.5
 11
-82.0
 21
150.5
  0
LINE
  8
10
  6
CONTINUOUS
 10
-58.0
 20
126.5
 11
-58.0
 21
150.5
  0
LINE
  8
10
  6
CONTINUOUS
 10
58.0
 20
4.5
 11
58.0
 21
28.50000000000002
  0
LINE
  8
10
  6
CONTINUOUS
 10
58.0
 20
126.5
 11
58.0
 21
150.5
  0
LINE
  8
10
  6
CONTINUOUS
 10
82.0
 20
4.5
 11
82.0
 21
28.50000000000003
  0
LINE
  8
10
  6
CONTINUOUS
 10
82.0
 20
126.5
 11
82.0
 21
150.5
  0
LINE
  8
10
  6
CONTINUOUS
 10
-131.5
 20
89.5
 11
-155.5
 21
89.5
  0
LINE
  8
10
  6
CONTINUOUS
 10
155.5
 20
89.5
 11
131.5
 21
89.5
  0
LINE
  8
10
  6
CONTINUOUS
 10
-131.5
 20
65.5
 11
-155.5
 21
65.5
  0
LINE
  8
10
  6
CONTINUOUS
 10
155.5
 20
65.5
 11
131.5
 21
65.5
  0
LINE
  8
10
  6
CONTINUOUS
 10
-131.5
 20
-83.0
 11
-155.5
 21
-83.0
  0
LINE
  8
10
  6
CONTINUOUS
 10
155.5
 20
-83.0
 11
131.5
 21
-83.0
  0
LINE
  8
10
  6
CONTINUOUS
 10
-131.4999999999999
 20
-107.0
 11
-155.5
 21
-107.0
  0
LINE
  8
10
  6
CONTINUOUS
 10
155.5
 20
-107.0
 11
131.5
 21
-107.0
  0
CIRCLE
  8
10
  6
CONTINUOUS
 10
75.0
 20
-14.5
 40
8.0
  0
CIRCLE
  8
10
  6
CONTINUOUS
 10
75.0
 20
-14.5
 40
6.267949192431123
  0
POLYLINE
  8
10
  6
CONTINUOUS
 66
     1
 70
     0
 40
0.0
 41
0.0
  0
VERTEX
  8
10
 10
79.0
 20
-12.1905989232415
  0
VERTEX
  8
10
 10
75.0
 20
-9.881197846482994
  0
VERTEX
  8
10
 10
71.0
 20
-12.1905989232415
  0
VERTEX
  8
10
 10
71.0
 20
-16.8094010767585
  0
VERTEX
  8
10
 10
75.0
 20
-19.11880215351701
  0
VERTEX
  8
10
 10
79.0
 20
-16.80940107675851
  0
VERTEX
  8
10
 10
79.0
 20
-12.1905989232415
  0
SEQEND
  8
10
  0
CIRCLE
  8
10
  6
CONTINUOUS
 10
-75.0
 20
-14.5
 40
8.0
  0
CIRCLE
  8
10
  6
CONTINUOUS
 10
-75.0
 20
-14.5
 40
6.267949192431123
  0
POLYLINE
  8
10
  6
CONTINUOUS
 66
     1
 70
     0
 40
0.0
 41
0.0
  0
VERTEX
  8
10
 10
-71.0
 20
-12.1905989232415
  0
VERTEX
  8
10
 10
-75.0
 20
-9.881197846482994
  0
VERTEX
  8
10
 10
-79.0
 20
-12.1905989232415
  0
VERTEX
  8
10
 10
-79.0
 20
-16.8094010767585
  0
VERTEX
  8
10
 10
-75.0
 20
-19.11880215351701
  0
VERTEX
  8
10
 10
-71.0
 20
-16.80940107675851
  0
VERTEX
  8
10
 10
-71.0
 20
-12.1905989232415
  0
SEQEND
  8
10
  0
CIRCLE
  8
10
  6
CONTINUOUS
 10
-75.0
 20
-175.5
 40
8.0
  0
CIRCLE
  8
10
  6
CONTINUOUS
 10
-75.0
 20
-175.5
 40
6.267949192431123
  0
POLYLINE
  8
10
  6
CONTINUOUS
 66
     1
 70
     0
 40
0.0
 41
0.0
  0
VERTEX
  8
10
 10
-71.0
 20
-173.1905989232415
  0
VERTEX
  8
10
 10
-75.0
 20
-170.881197846483
  0
VERTEX
  8
10
 10
-79.0
 20
-173.1905989232415
  0
VERTEX
  8
10
 10
-79.0
 20
-177.8094010767585
  0
VERTEX
  8
10
 10
-75.0
 20
-180.118802153517
  0
VERTEX
  8
10
 10
-71.0
 20
-177.8094010767585
  0
VERTEX
  8
10
 10
-71.0
 20
-173.1905989232415
  0
SEQEND
  8
10
  0
CIRCLE
  8
10
  6
CONTINUOUS
 10
75.0
 20
-175.5
 40
8.0
  0
CIRCLE
  8
10
  6
CONTINUOUS
 10
75.0
 20
-175.5
 40
6.267949192431123
  0
POLYLINE
  8
10
  6
CONTINUOUS
 66
     1
 70
     0
 40
0.0
 41
0.0
  0
VERTEX
  8
10
 10
79.0
 20
-173.1905989232415
  0
VERTEX
  8
10
 10
75.0
 20
-170.881197846483
  0
VERTEX
  8
10
 10
71.0
 20
-173.1905989232415
  0
VERTEX
  8
10
 10
71.0
 20
-177.8094010767585
  0
VERTEX
  8
10
 10
75.0
 20
-180.118802153517
  0
VERTEX
  8
10
 10
79.0
 20
-177.8094010767585
  0
VERTEX
  8
10
 10
79.0
 20
-173.1905989232415
  0
SEQEND
  8
10
  0
LINE
  8
10
  6
CONTINUOUS
 10
-87.0
 20
-185.5
 11
-87.0
 21
-161.5
  0
LINE
  8
10
  6
CONTINUOUS
 10
-63.0
 20
-185.5
 11
-63.0
 21
-161.5
  0
LINE
  8
10
  6
CONTINUOUS
 10
-87.0
 20
-28.50000000000001
 11
-87.0
 21
-4.5
  0
LINE
  8
10
  6
CONTINUOUS
 10
-63.0
 20
-28.50000000000001
 11
-63.0
 21
-4.5
  0
LINE
  8
10
  6
CONTINUOUS
 10
63.0
 20
-185.5
 11
63.0
 21
-161.5
  0
LINE
  8
10
  6
CONTINUOUS
 10
63.0
 20
-28.50000000000001
 11
63.0
 21
-4.5
  0
LINE
  8
10
  6
CONTINUOUS
 10
87.0
 20
-185.5
 11
87.0
 21
-161.5
  0
LINE
  8
10
  6
CONTINUOUS
 10
87.0
 20
-28.50000000000001
 11
87.0
 21
-4.5
  0
LINE
  8
10
  6
CONTINUOUS
 10
-50.0
 20
126.5
 11
-50.0
 21
150.5
  0
LINE
  8
10
  6
CONTINUOUS
 10
-90.0
 20
126.5
 11
-90.0
 21
150.5
  0
LINE
  8
10
  6
CONTINUOUS
 10
50.0
 20
126.5
 11
50.0
 21
150.5
  0
LINE
  8
10
  6
CONTINUOUS
 10
90.0
 20
126.5
 11
90.0
 21
150.5
  0
LINE
  8
10
  6
CONTINUOUS
 10
155.5
 20
97.5
 11
131.5
 21
97.5
  0
LINE
  8
10
  6
CONTINUOUS
 10
155.5
 20
57.5
 11
131.5
 21
57.5
  0
LINE
  8
10
  6
CONTINUOUS
 10
90.0
 20
4.5
 11
90.0
 21
28.50000000000003
  0
LINE
  8
10
  6
CONTINUOUS
 10
50.0
 20
4.5
 11
50.0
 21
28.50000000000002
  0
LINE
  8
10
  6
CONTINUOUS
 10
-50.0
 20
4.5
 11
-50.0
 21
28.50000000000001
  0
LINE
  8
10
  6
CONTINUOUS
 10
-90.0
 20
4.5
 11
-90.0
 21
28.5
  0
LINE
  8
10
  6
CONTINUOUS
 10
-131.5
 20
57.5
 11
-155.5
 21
57.5
  0
LINE
  8
10
  6
CONTINUOUS
 10
-131.5
 20
97.5
 11
-155.5
 21
97.5
  0
LINE
  8
10
  6
CONTINUOUS
 10
-95.0
 20
-28.50000000000001
 11
-95.0
 21
-4.5
  0
LINE
  8
10
  6
CONTINUOUS
 10
-55.0
 20
-28.50000000000001
 11
-55.0
 21
-4.5
  0
LINE
  8
10
  6
CONTINUOUS
 10
55.0
 20
-28.50000000000001
 11
55.0
 21
-4.5
  0
LINE
  8
10
  6
CONTINUOUS
 10
95.0
 20
-28.50000000000001
 11
95.0
 21
-4.5
  0
LINE
  8
10
  6
CONTINUOUS
 10
155.5
 20
-75.0
 11
131.5
 21
-75.0
  0
LINE
  8
10
  6
CONTINUOUS
 10
155.5
 20
-115.0
 11
131.5
 21
-115.0
  0
LINE
  8
10
  6
CONTINUOUS
 10
95.0
 20
-185.5
 11
95.0
 21
-161.5
  0
LINE
  8
10
  6
CONTINUOUS
 10
55.0
 20
-185.5
 11
55.0
 21
-161.5
  0
LINE
  8
10
  6
CONTINUOUS
 10
-55.0
 20
-185.5
 11
-55.0
 21
-162.5
  0
LINE
  8
10
  6
CONTINUOUS
 10
-95.0
 20
-185.5
 11
-95.0
 21
-161.5
  0
LINE
  8
10
  6
CONTINUOUS
 10
-131.4999999999999
 20
-115.0
 11
-155.5
 21
-115.0
  0
LINE
  8
10
  6
CONTINUOUS
 10
-131.5
 20
-75.0
 11
-155.5
 21
-75.0
  0
ARC
  8
10
  6
CONTINUOUS
 10
88.0
 20
150.5
 40
2.0
 50
0.0
 51
90.0
  0
ARC
  8
10
  6
CONTINUOUS
 10
84.0
 20
150.5
 40
2.0
 50
90.0
 51
180.0
  0
ARC
  8
10
  6
CONTINUOUS
 10
56.0
 20
150.5
 40
2.0
 50
0.0
 51
90.0
  0
ARC
  8
10
  6
CONTINUOUS
 10
52.0
 20
150.5
 40
2.0
 50
90.0
 51
180.0
  0
ARC
  8
10
  6
CONTINUOUS
 10
-52.0
 20
150.5
 40
2.0
 50
0.0
 51
90.0
  0
ARC
  8
10
  6
CONTINUOUS
 10
-56.0
 20
150.5
 40
2.0
 50
90.0
 51
180.0
  0
ARC
  8
10
  6
CONTINUOUS
 10
-84.0
 20
150.5
 40
2.0
 50
0.0
 51
90.0
  0
ARC
  8
10
  6
CONTINUOUS
 10
-88.0
 20
150.5
 40
2.0
 50
90.0
 51
180.0
  0
ARC
  8
10
  6
CONTINUOUS
 10
155.5
 20
95.5
 40
2.0
 50
0.0
 51
90.0
  0
ARC
  8
10
  6
CONTINUOUS
 10
155.5
 20
91.5
 40
2.0
 50
270.0
 51
0.0
  0
ARC
  8
10
  6
CONTINUOUS
 10
155.5
 20
63.5
 40
2.0
 50
0.0
 51
90.0
  0
ARC
  8
10
  6
CONTINUOUS
 10
155.5
 20
59.5
 40
2.0
 50
270.0
 51
0.0
  0
ARC
  8
10
  6
CONTINUOUS
 10
88.0
 20
4.5
 40
2.0
 50
270.0
 51
0.0
  0
ARC
  8
10
  6
CONTINUOUS
 10
84.0
 20
4.5
 40
2.0
 50
180.0
 51
270.0
  0
ARC
  8
10
  6
CONTINUOUS
 10
56.0
 20
4.5
 40
2.0
 50
270.0
 51
0.0
  0
ARC
  8
10
  6
CONTINUOUS
 10
52.0
 20
4.5
 40
2.0
 50
180.0
 51
270.0
  0
ARC
  8
10
  6
CONTINUOUS
 10
-52.0
 20
4.5
 40
2.0
 50
270.0
 51
0.0
  0
ARC
  8
10
  6
CONTINUOUS
 10
-56.0
 20
4.5
 40
2.0
 50
180.0
 51
270.0
  0
ARC
  8
10
  6
CONTINUOUS
 10
-84.0
 20
4.5
 40
2.0
 50
270.0
 51
0.0
  0
ARC
  8
10
  6
CONTINUOUS
 10
-88.0
 20
4.5
 40
2.0
 50
180.0
 51
270.0
  0
ARC
  8
10
  6
CONTINUOUS
 10
-155.5
 20
63.5
 40
2.0
 50
90.0
 51
180.0
  0
ARC
  8
10
  6
CONTINUOUS
 10
-155.5
 20
59.5
 40
2.0
 50
180.0
 51
270.0
  0
ARC
  8
10
  6
CONTINUOUS
 10
-155.5
 20
91.5
 40
2.0
 50
180.0
 51
270.0
  0
ARC
  8
10
  6
CONTINUOUS
 10
-155.5
 20
95.5
 40
2.0
 50
90.0
 51
180.0
  0
ARC
  8
10
  6
CONTINUOUS
 10
-93.0
 20
-4.5
 40
2.0
 50
90.0
 51
180.0
  0
ARC
  8
10
  6
CONTINUOUS
 10
-89.0
 20
-4.5
 40
2.0
 50
0.0
 51
90.0
  0
ARC
  8
10
  6
CONTINUOUS
 10
-61.0
 20
-4.5
 40
2.0
 50
90.0
 51
180.0
  0
ARC
  8
10
  6
CONTINUOUS
 10
57.0
 20
-4.5
 40
2.0
 50
90.0
 51
180.0
  0
ARC
  8
10
  6
CONTINUOUS
 10
61.0
 20
-4.5
 40
2.0
 50
0.0
 51
90.0
  0
ARC
  8
10
  6
CONTINUOUS
 10
89.0
 20
-4.5
 40
2.0
 50
90.0
 51
180.0
  0
ARC
  8
10
  6
CONTINUOUS
 10
93.0
 20
-4.5
 40
2.0
 50
0.0
 51
90.0
  0
ARC
  8
10
  6
CONTINUOUS
 10
155.5
 20
-77.0
 40
2.0
 50
0.0
 51
90.0
  0
ARC
  8
10
  6
CONTINUOUS
 10
155.5
 20
-81.0
 40
2.0
 50
270.0
 51
0.0
  0
ARC
  8
10
  6
CONTINUOUS
 10
155.5
 20
-109.0
 40
2.0
 50
0.0
 51
90.0
  0
ARC
  8
10
  6
CONTINUOUS
 10
155.5
 20
-113.0
 40
2.0
 50
270.0
 51
0.0
  0
ARC
  8
10
  6
CONTINUOUS
 10
93.0
 20
-185.5
 40
2.0
 50
270.0
 51
0.0
  0
ARC
  8
10
  6
CONTINUOUS
 10
89.0
 20
-185.5
 40
2.0
 50
180.0
 51
270.0
  0
ARC
  8
10
  6
CONTINUOUS
 10
61.0
 20
-185.5
 40
2.0
 50
270.0
 51
0.0
  0
ARC
  8
10
  6
CONTINUOUS
 10
57.0
 20
-185.5
 40
2.0
 50
180.0
 51
270.0
  0
ARC
  8
10
  6
CONTINUOUS
 10
-57.0
 20
-185.5
 40
2.0
 50
270.0
 51
0.0
  0
ARC
  8
10
  6
CONTINUOUS
 10
-61.0
 20
-185.5
 40
2.0
 50
180.0
 51
270.0
  0
ARC
  8
10
  6
CONTINUOUS
 10
-89.0
 20
-185.5
 40
2.0
 50
270.0
 51
0.0
  0
ARC
  8
10
  6
CONTINUOUS
 10
-93.0
 20
-185.5
 40
2.0
 50
180.0
 51
270.0
  0
ARC
  8
10
  6
CONTINUOUS
 10
-155.5
 20
-113.0
 40
2.0
 50
180.0
 51
270.0
  0
ARC
  8
10
  6
CONTINUOUS
 10
-155.5
 20
-109.0
 40
2.0
 50
90.0
 51
180.0
  0
ARC
  8
10
  6
CONTINUOUS
 10
-155.5
 20
-81.0
 40
2.0
 50
180.0
 51
270.0
  0
ARC
  8
10
  6
CONTINUOUS
 10
-155.5
 20
-77.0
 40
2.0
 50
90.0
 51
180.0
  0
ARC
  8
10
  6
CONTINUOUS
 10
-57.0
 20
-4.5
 40
2.0
 50
0.0
 51
90.0
  0
LINE
  8
10
  6
CONTINUOUS
 10
141.2573593128807
 20
141.9142135623731
 11
124.4289321881345
 21
125.0857864376269
  0
LINE
  8
10
  6
CONTINUOUS
 10
146.9142135623731
 20
136.2573593128807
 11
130.0857864376269
 21
119.4289321881345
  0
LINE
  8
10
  6
CONTINUOUS
 10
130.0857864376269
 20
35.57106781186545
 11
146.9142135623731
 21
18.74264068711929
  0
LINE
  8
10
  6
CONTINUOUS
 10
124.4289321881345
 20
29.91421356237309
 11
141.2573593128807
 21
13.08578643762692
  0
LINE
  8
10
  6
CONTINUOUS
 10
141.2573593128807
 20
-13.08578643762692
 11
124.4289321881345
 21
-29.9142135623731
  0
LINE
  8
10
  6
CONTINUOUS
 10
146.9142135623731
 20
-18.74264068711929
 11
130.0857864376269
 21
-35.57106781186549
  0
LINE
  8
10
  6
CONTINUOUS
 10
146.9142135623731
 20
-171.2573593128807
 11
130.0857864376269
 21
-154.4289321881345
  0
LINE
  8
10
  6
CONTINUOUS
 10
141.2573593128807
 20
-176.9142135623731
 11
124.4289321881345
 21
-160.0857864376269
  0
LINE
  8
10
  6
CONTINUOUS
 10
-124.4289321881344
 20
-160.0857864376269
 11
-141.2573593128807
 21
-176.9142135623731
  0
LINE
  8
10
  6
CONTINUOUS
 10
-130.0857864376269
 20
-154.4289321881345
 11
-146.9142135623731
 21
-171.2573593128807
  0
LINE
  8
10
  6
CONTINUOUS
 10
-124.4289321881345
 20
-29.91421356237311
 11
-141.2573593128807
 21
-13.08578643762695
  0
LINE
  8
10
  6
CONTINUOUS
 10
-130.0857864376269
 20
-35.57106781186548
 11
-146.9142135623731
 21
-18.74264068711929
  0
LINE
  8
10
  6
CONTINUOUS
 10
-124.4289321881346
 20
29.91421356237309
 11
-141.2573593128808
 21
13.08578643762687
  0
LINE
  8
10
  6
CONTINUOUS
 10
-130.0857864376269
 20
35.5710678118655
 11
-146.9142135623732
 21
18.74264068711923
  0
LINE
  8
10
  6
CONTINUOUS
 10
-141.2573593128807
 20
141.9142135623731
 11
-124.4289321881345
 21
125.0857864376269
  0
LINE
  8
10
  6
CONTINUOUS
 10
-146.9142135623731
 20
136.2573593128807
 11
-130.0857864376269
 21
119.4289321881345
  0
ARC
  8
10
  6
CONTINUOUS
 10
-145.5
 20
137.6715728752538
 40
2.000000000000016
 50
135.0
 51
225.0
  0
ARC
  8
10
  6
CONTINUOUS
 10
-142.6715728752538
 20
140.5
 40
2.000000000000016
 50
45.0
 51
135.0
  0
ARC
  8
10
  6
CONTINUOUS
 10
142.6715728752538
 20
140.5
 40
2.000000000000016
 50
45.0
 51
135.0
  0
ARC
  8
10
  6
CONTINUOUS
 10
145.5
 20
137.6715728752538
 40
2.000000000000016
 50
315.0
 51
45.0
  0
ARC
  8
10
  6
CONTINUOUS
 10
145.5
 20
17.32842712474619
 40
2.000000000000016
 50
315.0
 51
45.0
  0
ARC
  8
10
  6
CONTINUOUS
 10
142.6715728752538
 20
14.5
 40
2.000000000000016
 50
224.9999999999988
 51
315.0000000000002
  0
ARC
  8
10
  6
CONTINUOUS
 10
142.6715728752538
 20
-14.50000000000002
 40
2.000000000000012
 50
44.99999999999989
 51
135.0000000000001
  0
ARC
  8
10
  6
CONTINUOUS
 10
145.5
 20
-17.32842712474619
 40
2.000000000000008
 50
315.0000000000002
 51
44.99999999999979
  0
ARC
  8
10
  6
CONTINUOUS
 10
145.5
 20
-172.6715728752538
 40
2.000000000000016
 50
315.0
 51
45.0
  0
ARC
  8
10
  6
CONTINUOUS
 10
142.6715728752538
 20
-175.5
 40
2.000000000000016
 50
225.0
 51
315.0
  0
ARC
  8
10
  6
CONTINUOUS
 10
-142.6715728752538
 20
-175.5
 40
2.000000000000036
 50
224.9999999999994
 51
314.9999999999994
  0
ARC
  8
10
  6
CONTINUOUS
 10
-145.5
 20
-172.6715728752538
 40
1.999999999999996
 50
135.0000000000006
 51
224.9999999999994
  0
ARC
  8
10
  6
CONTINUOUS
 10
-145.5
 20
-17.32842712474619
 40
1.999999999999996
 50
134.9999999999996
 51
225.0000000000006
  0
ARC
  8
10
  6
CONTINUOUS
 10
-142.6715728752538
 20
-14.50000000000003
 40
1.999999999999996
 50
44.99999999999942
 51
134.9999999999996
  0
ARC
  8
10
  6
CONTINUOUS
 10
-142.6715728752538
 20
14.50000000000003
 40
2.000000000000016
 50
225.0
 51
314.9999999999977
  0
ARC
  8
10
  6
CONTINUOUS
 10
-145.5
 20
17.32842712474619
 40
2.000000000000016
 50
135.0000000000023
 51
225.0000000000001
  0
ARC
  8
10
  6
CONTINUOUS
 10
123.0147186257614
 20
126.5
 40
2.000000000000016
 50
270.0
 51
315.0
  0
ARC
  8
10
  6
CONTINUOUS
 10
131.5
 20
118.0147186257614
 40
2.000000000000016
 50
135.0
 51
180.0
  0
ARC
  8
10
  6
CONTINUOUS
 10
131.5
 20
36.98528137423857
 40
2.000000000000006
 50
180.0
 51
225.0000000000009
  0
ARC
  8
10
  6
CONTINUOUS
 10
123.0147186257614
 20
28.50000000000001
 40
2.000000000000016
 50
44.99999999999885
 51
90.0
  0
ARC
  8
10
  6
CONTINUOUS
 10
-131.5
 20
36.98528137423858
 40
1.999999999999996
 50
315.0000000000006
 51
0.0
  0
ARC
  8
10
  6
CONTINUOUS
 10
-131.5
 20
118.0147186257614
 40
2.000000000000016
 50
0.0
 51
45.0
  0
ARC
  8
10
  6
CONTINUOUS
 10
-123.0147186257614
 20
126.5
 40
2.000000000000016
 50
225.0
 51
270.0
  0
ARC
  8
10
  6
CONTINUOUS
 10
123.0147186257614
 20
-28.5
 40
2.000000000000011
 50
270.0
 51
315.0000000000001
  0
ARC
  8
10
  6
CONTINUOUS
 10
131.5
 20
-36.9852813742386
 40
2.000000000000016
 50
135.0
 51
179.9999999999996
  0
ARC
  8
10
  6
CONTINUOUS
 10
131.5
 20
-153.0147186257614
 40
2.0
 50
180.0
 51
225.0
  0
ARC
  8
10
  6
CONTINUOUS
 10
123.0147186257614
 20
-161.5
 40
2.000000000000016
 50
45.0
 51
90.0
  0
ARC
  8
10
  6
CONTINUOUS
 10
-123.0147186257613
 20
-161.5
 40
2.0
 50
90.0
 51
134.9999999999994
  0
ARC
  8
10
  6
CONTINUOUS
 10
-131.5
 20
-153.0147186257614
 40
2.000000000000016
 50
315.0
 51
0.0
  0
ARC
  8
10
  6
CONTINUOUS
 10
-131.5
 20
-36.98528137423858
 40
2.000000000000016
 50
0.0
 51
45.0
  0
ARC
  8
10
  6
CONTINUOUS
 10
-123.0147186257614
 20
-28.5
 40
2.000000000000016
 50
225.0
 51
270.0
  0
ARC
  8
10
  6
CONTINUOUS
 10
-97.0
 20
-28.50000000000001
 40
2.0
 50
270.0
 51
0.0
  0
ARC
  8
10
  6
CONTINUOUS
 10
-85.0
 20
-28.50000000000001
 40
2.0
 50
180.0
 51
270.0
  0
ARC
  8
10
  6
CONTINUOUS
 10
-65.0
 20
-28.50000000000001
 40
2.0
 50
270.0
 51
0.0
  0
ARC
  8
10
  6
CONTINUOUS
 10
-53.0
 20
-28.50000000000001
 40
2.0
 50
180.0
 51
270.0
  0
ARC
  8
10
  6
CONTINUOUS
 10
53.0
 20
-28.50000000000001
 40
2.0
 50
270.0
 51
0.0
  0
ARC
  8
10
  6
CONTINUOUS
 10
65.0
 20
-28.50000000000001
 40
2.0
 50
180.0
 51
270.0
  0
ARC
  8
10
  6
CONTINUOUS
 10
85.0
 20
-28.50000000000001
 40
2.0
 50
270.0
 51
0.0
  0
ARC
  8
10
  6
CONTINUOUS
 10
97.0
 20
-28.50000000000001
 40
2.0
 50
180.0
 51
270.0
  0
ARC
  8
10
  6
CONTINUOUS
 10
131.5
 20
-73.0
 40
2.0
 50
180.0
 51
270.0
  0
ARC
  8
10
  6
CONTINUOUS
 10
131.5
 20
-85.0
 40
2.0
 50
90.0
 51
180.0
  0
ARC
  8
10
  6
CONTINUOUS
 10
131.5
 20
-105.0
 40
2.0
 50
180.0
 51
270.0
  0
ARC
  8
10
  6
CONTINUOUS
 10
131.5
 20
-117.0
 40
2.0
 50
90.0
 51
180.0
  0
ARC
  8
10
  6
CONTINUOUS
 10
97.0
 20
-161.5
 40
2.0
 50
90.0
 51
180.0
  0
ARC
  8
10
  6
CONTINUOUS
 10
65.0
 20
-161.5
 40
2.0
 50
90.0
 51
180.0
  0
ARC
  8
10
  6
CONTINUOUS
 10
85.0
 20
-161.5
 40
2.0
 50
0.0
 51
90.0
  0
ARC
  8
10
  6
CONTINUOUS
 10
53.0
 20
-161.5
 40
2.0
 50
0.0
 51
90.0
  0
ARC
  8
10
  6
CONTINUOUS
 10
-53.0
 20
-161.5
 40
2.0
 50
90.0
 51
180.0
  0
ARC
  8
10
  6
CONTINUOUS
 10
-65.0
 20
-161.5
 40
2.0
 50
0.0
 51
90.0
  0
ARC
  8
10
  6
CONTINUOUS
 10
-85.0
 20
-161.5
 40
2.0
 50
90.0
 51
180.0
  0
ARC
  8
10
  6
CONTINUOUS
 10
-97.0
 20
-161.5
 40
2.0
 50
0.0
 51
90.0
  0
ARC
  8
10
  6
CONTINUOUS
 10
-131.4999999999999
 20
-117.0
 40
2.0
 50
0.0
 51
90.0
  0
ARC
  8
10
  6
CONTINUOUS
 10
-131.4999999999999
 20
-105.0
 40
2.0
 50
270.0
 51
0.0
  0
ARC
  8
10
  6
CONTINUOUS
 10
-131.5
 20
-85.0
 40
2.0
 50
0.0
 51
90.0
  0
ARC
  8
10
  6
CONTINUOUS
 10
-131.5
 20
-73.0
 40
2.0
 50
270.0
 51
0.0
  0
ARC
  8
10
  6
CONTINUOUS
 10
-123.0147186257615
 20
28.49999999999999
 40
2.000000000000016
 50
90.0
 51
135.0
  0
ARC
  8
10
  6
CONTINUOUS
 10
-92.0
 20
28.5
 40
2.0
 50
0.0
 51
90.0
  0
ARC
  8
10
  6
CONTINUOUS
 10
-80.0
 20
28.5
 40
2.0
 50
90.0
 51
180.0
  0
ARC
  8
10
  6
CONTINUOUS
 10
-60.0
 20
28.50000000000001
 40
2.0
 50
0.0
 51
90.0
  0
ARC
  8
10
  6
CONTINUOUS
 10
-48.0
 20
28.50000000000001
 40
2.0
 50
90.0
 51
180.0
  0
ARC
  8
10
  6
CONTINUOUS
 10
48.0
 20
28.50000000000002
 40
2.0
 50
0.0
 51
90.0
  0
ARC
  8
10
  6
CONTINUOUS
 10
60.0
 20
28.50000000000002
 40
2.0
 50
90.0
 51
180.0
  0
ARC
  8
10
  6
CONTINUOUS
 10
80.0
 20
28.50000000000003
 40
2.0
 50
0.0
 51
90.0
  0
ARC
  8
10
  6
CONTINUOUS
 10
92.0
 20
28.50000000000003
 40
2.0
 50
90.0
 51
180.0
  0
ARC
  8
10
  6
CONTINUOUS
 10
131.5
 20
55.5
 40
2.0
 50
90.0
 51
180.0
  0
ARC
  8
10
  6
CONTINUOUS
 10
131.5
 20
67.5
 40
2.0
 50
180.0
 51
270.0
  0
ARC
  8
10
  6
CONTINUOUS
 10
131.5
 20
87.5
 40
2.0
 50
90.0
 51
180.0
  0
ARC
  8
10
  6
CONTINUOUS
 10
131.5
 20
99.5
 40
2.0
 50
180.0
 51
270.0
  0
ARC
  8
10
  6
CONTINUOUS
 10
92.0
 20
126.5
 40
2.0
 50
180.0
 51
270.0
  0
ARC
  8
10
  6
CONTINUOUS
 10
80.0
 20
126.5
 40
2.0
 50
270.0
 51
0.0
  0
ARC
  8
10
  6
CONTINUOUS
 10
60.0
 20
126.5
 40
2.0
 50
180.0
 51
270.0
  0
ARC
  8
10
  6
CONTINUOUS
 10
48.0
 20
126.5
 40
2.0
 50
270.0
 51
0.0
  0
ARC
  8
10
  6
CONTINUOUS
 10
-48.0
 20
126.5
 40
2.0
 50
180.0
 51
270.0
  0
ARC
  8
10
  6
CONTINUOUS
 10
-60.0
 20
126.5
 40
2.0
 50
270.0
 51
0.0
  0
ARC
  8
10
  6
CONTINUOUS
 10
-80.0
 20
126.5
 40
2.0
 50
180.0
 51
270.0
  0
ARC
  8
10
  6
CONTINUOUS
 10
-92.0
 20
126.5
 40
2.0
 50
270.0
 51
0.0
  0
ARC
  8
10
  6
CONTINUOUS
 10
-131.5
 20
99.5
 40
2.0
 50
270.0
 51
0.0
  0
ARC
  8
10
  6
CONTINUOUS
 10
-131.5
 20
87.5
 40
2.0
 50
0.0
 51
90.0
  0
ARC
  8
10
  6
CONTINUOUS
 10
-131.5
 20
67.5
 40
2.0
 50
270.0
 51
0.0
  0
ARC
  8
10
  6
CONTINUOUS
 10
-131.5
 20
55.5
 40
2.0
 50
0.0
 51
90.0
  0
LINE
  8
10
  6
CONTINUOUS
 10
4.0
 20
126.5
 11
4.0
 21
150.5
  0
ARC
  8
10
  6
CONTINUOUS
 10
6.0
 20
126.5
 40
2.0
 50
180.0
 51
270.0
  0
LINE
  8
10
  6
CONTINUOUS
 10
-4.0
 20
126.5
 11
-4.0
 21
150.5
  0
ARC
  8
10
  6
CONTINUOUS
 10
-6.0
 20
126.5
 40
2.0
 50
270.0
 51
0.0
  0
ARC
  8
10
  6
CONTINUOUS
 10
-2.0
 20
150.5
 40
2.0
 50
90.0
 51
180.0
  0
ARC
  8
10
  6
CONTINUOUS
 10
2.0
 20
150.5
 40
2.0
 50
0.0
 51
90.0
  0
LINE
  8
10
  6
CONTINUOUS
 10
-4.0
 20
4.5
 11
-4.0
 21
28.50000000000002
  0
ARC
  8
10
  6
CONTINUOUS
 10
-6.0
 20
28.50000000000002
 40
2.0
 50
0.0
 51
90.0
  0
LINE
  8
10
  6
CONTINUOUS
 10
4.0
 20
4.5
 11
4.0
 21
28.50000000000002
  0
ARC
  8
10
  6
CONTINUOUS
 10
6.0
 20
28.50000000000002
 40
2.0
 50
90.0
 51
180.0
  0
ARC
  8
10
  6
CONTINUOUS
 10
-2.0
 20
4.5
 40
2.0
 50
180.0
 51
270.0
  0
ARC
  8
10
  6
CONTINUOUS
 10
2.0
 20
4.5
 40
2.0
 50
270.0
 51
0.0
  0
LINE
  8
10
  6
CONTINUOUS
 10
-4.0
 20
-28.50000000000001
 11
-4.0
 21
-4.5
  0
ARC
  8
10
  6
CONTINUOUS
 10
-6.0
 20
-28.50000000000001
 40
2.0
 50
270.0
 51
0.0
  0
LINE
  8
10
  6
CONTINUOUS
 10
4.0
 20
-28.50000000000001
 11
4.0
 21
-4.5
  0
ARC
  8
10
  6
CONTINUOUS
 10
6.0
 20
-28.50000000000001
 40
2.0
 50
180.0
 51
270.0
  0
ARC
  8
10
  6
CONTINUOUS
 10
-2.0
 20
-4.5
 40
2.0
 50
90.0
 51
180.0
  0
ARC
  8
10
  6
CONTINUOUS
 10
2.0
 20
-4.5
 40
2.0
 50
0.0
 51
90.0
  0
ARC
  8
10
  6
CONTINUOUS
 10
6.0
 20
-161.5
 40
2.0
 50
90.0
 51
180.0
  0
ARC
  8
10
  6
CONTINUOUS
 10
-6.0
 20
-161.5
 40
2.0
 50
0.0
 51
90.0
  0
ARC
  8
10
  6
CONTINUOUS
 10
2.0
 20
-185.5
 40
2.0
 50
270.0
 51
0.0
  0
ARC
  8
10
  6
CONTINUOUS
 10
-2.0
 20
-185.5
 40
2.0
 50
180.0
 51
270.0
  0
LINE
  8
10
  6
CONTINUOUS
 10
4.0
 20
-185.5
 11
4.0
 21
-161.5
  0
LINE
  8
10
  6
CONTINUOUS
 10
-4.0
 20
-185.5
 11
-4.0
 21
-161.5
  0
ARC
  8
10
  6
CONTINUOUS
 10
-154.5
 20
27.74264068711913
 40
3.0
 50
180.0
 51
225.0000000000003
  0
ARC
  8
10
  6
CONTINUOUS
 10
-132.2573593128806
 20
5.5
 40
3.0
 50
225.0000000000003
 51
270.0
  0
ARC
  8
10
  6
CONTINUOUS
 10
132.2573593128807
 20
5.500000000000001
 40
2.999999999999985
 50
270.0
 51
315.0
  0
ARC
  8
10
  6
CONTINUOUS
 10
154.5
 20
27.74264068711928
 40
2.999999999999989
 50
314.9999999999999
 51
0.0
  0
ARC
  8
10
  6
CONTINUOUS
 10
154.5
 20
127.2573593128807
 40
3.0
 50
0.0
 51
45.00000000000038
  0
ARC
  8
10
  6
CONTINUOUS
 10
132.2573593128807
 20
149.5
 40
2.999999999999984
 50
45.0
 51
90.0
  0
ARC
  8
10
  6
CONTINUOUS
 10
-132.2573593128807
 20
149.5
 40
3.0
 50
90.0
 51
135.0
  0
ARC
  8
10
  6
CONTINUOUS
 10
-154.5
 20
127.2573593128807
 40
2.999999999999994
 50
134.9999999999998
 51
180.0
  0
ARC
  8
10
  6
CONTINUOUS
 10
-154.5
 20
-27.74264068711927
 40
2.999999999999989
 50
134.9999999999999
 51
179.9999999999998
  0
ARC
  8
10
  6
CONTINUOUS
 10
-132.2573593128807
 20
-5.5
 40
2.999999999999989
 50
90.0
 51
134.9999999999999
  0
ARC
  8
10
  6
CONTINUOUS
 10
132.2573593128808
 20
-5.5
 40
3.0
 50
45.00000000000016
 51
90.0
  0
ARC
  8
10
  6
CONTINUOUS
 10
132.2573593128808
 20
-5.5
 40
3.0
 50
45.00000000000018
 51
90.0
  0
ARC
  8
10
  6
CONTINUOUS
 10
154.5
 20
-27.74264068711927
 40
2.999999999999986
 50
1.357036664091101E-013
 51
45.00000000000005
  0
ARC
  8
10
  6
CONTINUOUS
 10
154.5
 20
-162.2573593128807
 40
3.0
 50
315.0
 51
0.0
  0
ARC
  8
10
  6
CONTINUOUS
 10
132.2573593128807
 20
-184.5
 40
2.999999999999984
 50
270.0
 51
315.0
  0
ARC
  8
10
  6
CONTINUOUS
 10
-132.2573593128807
 20
-184.5
 40
3.0
 50
225.0
 51
270.0
  0
ARC
  8
10
  6
CONTINUOUS
 10
-154.5
 20
-162.2573593128807
 40
2.999999999999984
 50
180.0
 51
225.0
  0
LINE
  8
10
  6
CONTINUOUS
 10
-154.5
 20
12.0
 11
-143.0
 21
12.0
  0
LINE
  8
10
  6
CONTINUOUS
 10
143.0000000000001
 20
12.0
 11
154.5
 21
12.0
  0
LINE
  8
10
  6
CONTINUOUS
 10
-154.5
 20
-12.0
 11
-143.0
 21
-12.0
  0
LINE
  8
10
  6
CONTINUOUS
 10
143.0000000000001
 20
-12.0
 11
154.5
 21
-12.0
  0
LINE
  8
10
  6
CONTINUOUS
 10
157.5
 20
-26.50000000000001
 11
157.5
 21
9.0
  0
LINE
  8
10
  6
CONTINUOUS
 10
-157.5
 20
-26.5
 11
-157.5
 21
9.0
  0
ARC
  8
10
  6
CONTINUOUS
 10
154.5
 20
9.0
 40
3.0
 50
0.0
 51
90.0
  0
ARC
  8
10
  6
CONTINUOUS
 10
154.5
 20
-9.0
 40
3.0
 50
270.0
 51
0.0
  0
ARC
  8
10
  6
CONTINUOUS
 10
-154.5
 20
-9.0
 40
3.0
 50
180.0
 51
270.0
  0
ARC
  8
10
  6
CONTINUOUS
 10
-154.5
 20
9.0
 40
3.0
 50
90.0
 51
180.0
  0
ARC
  8
10
  6
CONTINUOUS
 10
155.0
 20
77.5
 40
7.500000000000001
 50
289.4712206344907
 51
70.52877936550931
  0
ARC
  8
10
  6
CONTINUOUS
 10
-155.0
 20
77.5
 40
7.500000000000001
 50
109.4712206344907
 51
250.5287793655093
  0
ARC
  8
10
  6
CONTINUOUS
 10
-155.0
 20
-95.0
 40
7.500000000000001
 50
109.4712206344907
 51
250.5287793655095
  0
ARC
  8
10
  6
CONTINUOUS
 10
155.0
 20
-95.0
 40
7.500000000000001
 50
289.4712206344907
 51
70.52877936550931
  0
LINE
  8
10
  6
CONTINUOUS
 10
-170.0
 20
96.5
 11
-157.5
 21
96.5
  0
LINE
  8
10
  6
CONTINUOUS
 10
157.5
 20
96.5
 11
170.0
 21
96.5
  0
LINE
  8
10
  6
CONTINUOUS
 10
-170.0
 20
58.5
 11
-157.5
 21
58.5
  0
LINE
  8
10
  6
CONTINUOUS
 10
157.5
 20
58.5
 11
170.0
 21
58.5
  0
LINE
  8
10
  6
CONTINUOUS
 10
-170.0
 20
-76.0
 11
-157.5
 21
-76.0
  0
LINE
  8
10
  6
CONTINUOUS
 10
157.5
 20
-76.0
 11
170.0
 21
-76.0
  0
LINE
  8
10
  6
CONTINUOUS
 10
-170.0
 20
-114.0
 11
-157.5
 21
-114.0
  0
LINE
  8
10
  6
CONTINUOUS
 10
157.5
 20
-114.0
 11
170.0
 21
-114.0
  0
LINE
  8
10
  6
CONTINUOUS
 10
-170.0
 20
-114.0
 11
-170.0
 21
-76.0
  0
LINE
  8
10
  6
CONTINUOUS
 10
-170.0
 20
58.5
 11
-170.0
 21
96.5
  0
LINE
  8
10
  6
CONTINUOUS
 10
170.0
 20
-114.0
 11
170.0
 21
-76.0
  0
LINE
  8
10
  6
CONTINUOUS
 10
170.0
 20
58.5
 11
170.0
 21
96.5
  0
LINE
  8
10
  6
CONTINUOUS
 10
-132.5
 20
-190.5
 11
132.5
 21
-190.5
  0
LINE
  8
10
  6
CONTINUOUS
 10
132.5
 20
-190.5
 11
132.5
 21
-187.5
  0
LINE
  8
10
  6
CONTINUOUS
 10
-132.5
 20
-190.5
 11
-132.5
 21
-187.5
  0
LINE
  8
1
  6
CENTER
 10
132.5
 20
-95.0
 11
177.5
 21
-95.0
  0
LINE
  8
1
  6
CENTER
 10
155.0
 20
-117.5
 11
155.0
 21
-72.5
  0
LINE
  8
1
  6
CENTER
 10
132.5
 20
77.5
 11
177.5
 21
77.5
  0
LINE
  8
1
  6
CENTER
 10
155.0
 20
55.0
 11
155.0
 21
100.0
  0
LINE
  8
1
  6
CENTER
 10
-177.5
 20
77.5
 11
-132.5
 21
77.5
  0
LINE
  8
1
  6
CENTER
 10
-155.0
 20
55.0
 11
-155.0
 21
100.0
  0
LINE
  8
1
  6
CENTER
 10
-177.5
 20
-95.0
 11
-132.5
 21
-95.0
  0
LINE
  8
1
  6
CENTER
 10
-155.0
 20
-117.5
 11
-155.0
 21
-72.5
  0
LINE
  8
10
  6
CONTINUOUS
 10
-170.0
 20
-540.0
 11
170.0
 21
-540.0
  0
LINE
  8
10
  6
CONTINUOUS
 10
-170.0
 20
-534.0
 11
170.0
 21
-534.0
  0
LINE
  8
10
  6
CONTINUOUS
 10
-142.2573593128807
 20
-531.5
 11
142.2573593128807
 21
-531.5
  0
LINE
  8
10
  6
CONTINUOUS
 10
-157.5
 20
-434.0
 11
157.5
 21
-434.0
  0
LINE
  8
10
  6
CONTINUOUS
 10
-154.5
 20
-409.0
 11
154.5
 21
-409.0
  0
LINE
  8
10
  6
CONTINUOUS
 10
157.5
 20
-434.0
 11
157.5
 21
-412.0
  0
LINE
  8
10
  6
CONTINUOUS
 10
170.0
 20
-540.0
 11
170.0
 21
-534.0
  0
LINE
  8
10
  6
CONTINUOUS
 10
-170.0
 20
-540.0
 11
-170.0
 21
-534.0
  0
LINE
  8
10
  6
CONTINUOUS
 10
-157.5
 20
-434.0
 11
-157.5
 21
-412.0
  0
LINE
  8
10
  6
CONTINUOUS
 10
-157.5
 20
-422.0
 11
157.5
 21
-422.0
  0
LINE
  8
10
  6
CONTINUOUS
 10
-153.5
 20
-449.0
 11
-135.5
 21
-449.0
  0
LINE
  8
10
  6
CONTINUOUS
 10
135.5
 20
-449.0
 11
153.5
 21
-449.0
  0
LINE
  8
10
  6
CONTINUOUS
 10
146.9142135623731
 20
-422.0
 11
146.9142135623731
 21
-409.0
  0
LINE
  8
10
  6
CONTINUOUS
 10
141.2573593128807
 20
-422.0
 11
141.2573593128807
 21
-409.0
  0
LINE
  8
10
  6
CONTINUOUS
 10
95.0
 20
-422.0
 11
95.0
 21
-409.0
  0
LINE
  8
10
  6
CONTINUOUS
 10
87.0
 20
-422.0
 11
87.0
 21
-409.0
  0
LINE
  8
10
  6
CONTINUOUS
 10
63.0
 20
-422.0
 11
63.0
 21
-409.0
  0
LINE
  8
10
  6
CONTINUOUS
 10
55.0
 20
-422.0
 11
55.0
 21
-409.0
  0
LINE
  8
10
  6
CONTINUOUS
 10
4.0
 20
-422.0
 11
4.0
 21
-409.0
  0
LINE
  8
10
  6
CONTINUOUS
 10
-4.0
 20
-422.0
 11
-4.0
 21
-409.0
  0
LINE
  8
10
  6
CONTINUOUS
 10
-55.0
 20
-422.0
 11
-55.0
 21
-409.0
  0
LINE
  8
10
  6
CONTINUOUS
 10
-63.0
 20
-422.0
 11
-63.0
 21
-409.0
  0
LINE
  8
10
  6
CONTINUOUS
 10
-87.0
 20
-422.0
 11
-87.0
 21
-409.0
  0
LINE
  8
10
  6
CONTINUOUS
 10
-95.0
 20
-422.0
 11
-95.0
 21
-409.0
  0
LINE
  8
10
  6
CONTINUOUS
 10
-126.8431457505075
 20
-422.0
 11
-126.8431457505075
 21
-409.0
  0
LINE
  8
10
  6
CONTINUOUS
 10
126.8431457505076
 20
-422.0
 11
126.8431457505076
 21
-409.0
  0
LINE
  8
10
  6
CONTINUOUS
 10
-146.9142135623731
 20
-422.0
 11
-146.9142135623731
 21
-409.0
  0
LINE
  8
10
  6
CONTINUOUS
 10
-141.2573593128807
 20
-422.0
 11
-141.2573593128807
 21
-409.0
  0
ARC
  8
10
  6
CONTINUOUS
 10
154.5
 20
-412.0
 40
3.0
 50
0.0
 51
90.0
  0
ARC
  8
10
  6
CONTINUOUS
 10
-154.5
 20
-412.0
 40
3.0
 50
90.0
 51
180.0
  0
LINE
  8
10
  6
CONTINUOUS
 10
156.5
 20
-517.2573593128807
 11
156.5
 21
-434.0
  0
LINE
  8
10
  6
CONTINUOUS
 10
-156.5
 20
-517.2573593128807
 11
-156.5
 21
-434.0
  0
LINE
  8
10
  6
CONTINUOUS
 10
-132.5
 20
-523.5
 11
-132.5
 21
-447.0
  0
LINE
  8
10
  6
CONTINUOUS
 10
132.5
 20
-523.5
 11
132.5
 21
-447.0
  0
LINE
  8
10
  6
CONTINUOUS
 10
-155.6213203435596
 20
-519.3786796564403
 11
-144.3786796564403
 21
-530.6213203435597
  0
LINE
  8
10
  6
CONTINUOUS
 10
144.3786796564404
 20
-530.6213203435597
 11
155.6213203435597
 21
-519.3786796564403
  0
ARC
  8
10
  6
CONTINUOUS
 10
124.5
 20
-523.5
 40
8.0
 50
270.0
 51
0.0
  0
ARC
  8
10
  6
CONTINUOUS
 10
-124.5
 20
-523.5
 40
8.0
 50
180.0
 51
270.0
  0
LINE
  8
10
  6
CONTINUOUS
 10
-124.5
 20
-439.0
 11
124.5
 21
-439.0
  0
ARC
  8
10
  6
CONTINUOUS
 10
124.5
 20
-447.0
 40
8.0
 50
0.0
 51
90.0
  0
ARC
  8
10
  6
CONTINUOUS
 10
-124.5
 20
-447.0
 40
8.0
 50
90.0
 51
180.0
  0
ARC
  8
10
  6
CONTINUOUS
 10
135.5
 20
-452.0
 40
3.0
 50
90.0
 51
180.0
  0
ARC
  8
10
  6
CONTINUOUS
 10
-135.5
 20
-452.0
 40
3.0
 50
0.0
 51
90.0
  0
ARC
  8
10
  6
CONTINUOUS
 10
-153.5
 20
-446.0
 40
3.0
 50
180.0
 51
270.0
  0
ARC
  8
10
  6
CONTINUOUS
 10
153.5
 20
-446.0
 40
3.0
 50
270.0
 51
0.0
  0
LINE
  8
10
  6
CONTINUOUS
 10
-154.5
 20
-474.0
 11
-134.5
 21
-474.0
  0
LINE
  8
10
  6
CONTINUOUS
 10
-154.5
 20
-494.0
 11
-134.5
 21
-494.0
  0
LINE
  8
10
  6
CONTINUOUS
 10
134.5
 20
-474.0
 11
154.5
 21
-474.0
  0
LINE
  8
10
  6
CONTINUOUS
 10
134.5
 20
-494.0
 11
154.5
 21
-494.0
  0
LINE
  8
10
  6
CONTINUOUS
 10
-154.5
 20
-466.0
 11
-134.5
 21
-466.0
  0
LINE
  8
10
  6
CONTINUOUS
 10
134.5
 20
-466.0
 11
154.5
 21
-466.0
  0
LINE
  8
10
  6
CONTINUOUS
 10
-154.5
 20
-502.0
 11
-134.5
 21
-502.0
  0
LINE
  8
10
  6
CONTINUOUS
 10
134.5
 20
-502.0
 11
154.5
 21
-502.0
  0
ARC
  8
10
  6
CONTINUOUS
 10
154.5
 20
-468.0
 40
2.0
 50
0.0
 51
90.0
  0
ARC
  8
10
  6
CONTINUOUS
 10
154.5
 20
-472.0
 40
2.0
 50
270.0
 51
0.0
  0
ARC
  8
10
  6
CONTINUOUS
 10
134.5
 20
-464.0
 40
2.0
 50
180.0
 51
270.0
  0
ARC
  8
10
  6
CONTINUOUS
 10
134.5
 20
-476.0
 40
2.0
 50
90.0
 51
180.0
  0
ARC
  8
10
  6
CONTINUOUS
 10
154.5
 20
-496.0
 40
2.0
 50
0.0
 51
90.0
  0
ARC
  8
10
  6
CONTINUOUS
 10
154.5
 20
-500.0
 40
2.0
 50
270.0
 51
0.0
  0
ARC
  8
10
  6
CONTINUOUS
 10
134.5
 20
-492.0
 40
2.0
 50
180.0
 51
270.0
  0
ARC
  8
10
  6
CONTINUOUS
 10
134.5
 20
-504.0
 40
2.0
 50
90.0
 51
180.0
  0
ARC
  8
10
  6
CONTINUOUS
 10
-154.5
 20
-468.0
 40
2.0
 50
90.0
 51
180.0
  0
ARC
  8
10
  6
CONTINUOUS
 10
-154.5
 20
-472.0
 40
2.0
 50
180.0
 51
270.0
  0
ARC
  8
10
  6
CONTINUOUS
 10
-154.5
 20
-496.0
 40
2.0
 50
90.0
 51
180.0
  0
ARC
  8
10
  6
CONTINUOUS
 10
-154.5
 20
-500.0
 40
2.0
 50
180.0
 51
270.0
  0
ARC
  8
10
  6
CONTINUOUS
 10
-134.5
 20
-504.0
 40
2.0
 50
0.0
 51
90.0
  0
ARC
  8
10
  6
CONTINUOUS
 10
-134.5
 20
-492.0
 40
2.0
 50
270.0
 51
0.0
  0
ARC
  8
10
  6
CONTINUOUS
 10
-134.5
 20
-476.0
 40
2.0
 50
0.0
 51
90.0
  0
ARC
  8
10
  6
CONTINUOUS
 10
-134.5
 20
-464.0
 40
2.0
 50
270.0
 51
0.0
  0
ARC
  8
10
  6
CONTINUOUS
 10
153.5
 20
-517.2573593128807
 40
3.0
 50
314.9999999999996
 51
0.0
  0
ARC
  8
10
  6
CONTINUOUS
 10
142.2573593128807
 20
-528.5
 40
3.000000000000024
 50
270.0
 51
315.0
  0
ARC
  8
10
  6
CONTINUOUS
 10
-142.2573593128807
 20
-528.5
 40
3.0
 50
225.0000000000004
 51
270.0
  0
ARC
  8
10
  6
CONTINUOUS
 10
-153.5
 20
-517.2573593128807
 40
3.000000000000024
 50
180.0
 51
225.0
  0
CIRCLE
  8
10
  6
CONTINUOUS
 10
146.5
 20
-484.0
 40
6.5
  0
CIRCLE
  8
10
  6
CONTINUOUS
 10
146.5
 20
-484.0
 40
5.114359353944899
  0
POLYLINE
  8
10
  6
CONTINUOUS
 66
     1
 70
     0
 40
0.0
 41
0.0
  0
VERTEX
  8
10
 10
149.5
 20
-482.1790690639994
  0
VERTEX
  8
10
 10
146.5
 20
-480.6182711188559
  0
VERTEX
  8
10
 10
143.5
 20
-482.1790690639994
  0
VERTEX
  8
10
 10
143.5
 20
-485.8209309360007
  0
VERTEX
  8
10
 10
146.5
 20
-487.3817288811441
  0
VERTEX
  8
10
 10
149.5
 20
-485.8209309360007
  0
VERTEX
  8
10
 10
149.5
 20
-482.1790690639994
  0
SEQEND
  8
10
  0
CIRCLE
  8
10
  6
CONTINUOUS
 10
-146.5
 20
-484.0
 40
6.5
  0
CIRCLE
  8
10
  6
CONTINUOUS
 10
-146.5
 20
-484.0
 40
5.114359353944899
  0
POLYLINE
  8
10
  6
CONTINUOUS
 66
     1
 70
     0
 40
0.0
 41
0.0
  0
VERTEX
  8
10
 10
-143.5
 20
-482.1790690639994
  0
VERTEX
  8
10
 10
-146.5
 20
-480.6182711188559
  0
VERTEX
  8
10
 10
-149.5
 20
-482.1790690639994
  0
VERTEX
  8
10
 10
-149.5
 20
-485.8209309360007
  0
VERTEX
  8
10
 10
-146.5
 20
-487.3817288811441
  0
VERTEX
  8
10
 10
-143.5
 20
-485.8209309360007
  0
VERTEX
  8
10
 10
-143.5
 20
-482.1790690639994
  0
SEQEND
  8
10
  0
LINE
  8
10
  6
CONTINUOUS
 10
-157.5
 20
0.0
 11
157.5
 21
0.0
  0
LINE
  8
10
  6
CONTINUOUS
 10
132.5
 20
-534.0
 11
132.5
 21
-531.5
  0
LINE
  8
10
  6
CONTINUOUS
 10
-132.5
 20
-534.0
 11
-132.5
 21
-531.5
  0
LINE
  8
1
  6
CENTER
 10
0.0
 20
-549.8800964355469
 11
0.0
 21
-398.3319702148438
  0
LINE
  8
1
  6
CENTER
 10
155.0
 20
-548.59423828125
 11
155.0
 21
-524.5302429199219
  0
LINE
  8
1
  6
CENTER
 10
-155.0
 20
-548.59423828125
 11
-155.0
 21
-524.5302429199219
  0
LINE
  8
10
  6
CONTINUOUS
 10
67.0
 20
-422.0
 11
83.0
 21
-422.0
  0
LINE
  8
10
  6
CONTINUOUS
 10
68.73205080756888
 20
-412.0
 11
81.26794919243112
 21
-412.0
  0
LINE
  8
10
  6
CONTINUOUS
 10
67.0
 20
-413.0
 11
83.0
 21
-413.0
  0
LINE
  8
10
  6
CONTINUOUS
 10
83.0
 20
-413.0
 11
83.0
 21
-422.0
  0
LINE
  8
10
  6
CONTINUOUS
 10
67.0
 20
-413.0
 11
67.0
 21
-422.0
  0
LINE
  8
10
  6
CONTINUOUS
 10
81.26794919243112
 20
-412.0
 11
83.0
 21
-413.0
  0
LINE
  8
10
  6
CONTINUOUS
 10
68.73205080756888
 20
-412.0
 11
67.0
 21
-413.0
  0
LINE
  8
10
  6
CONTINUOUS
 10
-83.0
 20
-422.0
 11
-67.0
 21
-422.0
  0
LINE
  8
10
  6
CONTINUOUS
 10
-81.26794919243112
 20
-412.0
 11
-68.73205080756888
 21
-412.0
  0
LINE
  8
10
  6
CONTINUOUS
 10
-83.0
 20
-413.0
 11
-67.0
 21
-413.0
  0
LINE
  8
10
  6
CONTINUOUS
 10
-67.0
 20
-413.0
 11
-67.0
 21
-422.0
  0
LINE
  8
10
  6
CONTINUOUS
 10
-83.0
 20
-413.0
 11
-83.0
 21
-422.0
  0
LINE
  8
10
  6
CONTINUOUS
 10
-68.73205080756888
 20
-412.0
 11
-67.0
 21
-413.0
  0
LINE
  8
10
  6
CONTINUOUS
 10
-81.26794919243112
 20
-412.0
 11
-83.0
 21
-413.0
  0
CIRCLE
  8
10
  6
CONTINUOUS
 10
116.4160461425781
 20
-451.3740844726563
 40
5.0
  0
POLYLINE
  8
10
  6
CONTINUOUS
 66
     1
 70
     0
 40
0.0
 41
0.0
  0
VERTEX
  8
10
 10
121.4160461425781
 20
-448.4873331267081
  0
VERTEX
  8
10
 10
116.4160461425781
 20
-445.60058178076
  0
VERTEX
  8
10
 10
111.4160461425781
 20
-448.4873331267081
  0
VERTEX
  8
10
 10
111.4160461425781
 20
-454.2608358186044
  0
VERTEX
  8
10
 10
116.4160461425781
 20
-457.1475871645525
  0
VERTEX
  8
10
 10
121.4160461425781
 20
-454.2608358186044
  0
VERTEX
  8
10
 10
121.4160461425781
 20
-448.4873331267081
  0
SEQEND
  8
10
  0
POLYLINE
  8
10
  6
CONTINUOUS
 66
     1
 70
     0
 40
0.0
 41
0.0
  0
VERTEX
  8
10
 10
-108.0
 20
-474.0
  0
VERTEX
  8
10
 10
-84.0
 20
-474.0
  0
VERTEX
  8
10
 10
-84.0
 20
-480.0
  0
VERTEX
  8
10
 10
-108.0
 20
-480.0
  0
VERTEX
  8
10
 10
-108.0
 20
-474.0
  0
SEQEND
  8
10
  0
POLYLINE
  8
10
  6
CONTINUOUS
 66
     1
 70
     0
 40
0.0
 41
0.0
  0
VERTEX
  8
10
 10
-67.0
 20
-451.0
  0
VERTEX
  8
10
 10
-91.0
 20
-451.0
  0
VERTEX
  8
10
 10
-91.0
 20
-445.0
  0
VERTEX
  8
10
 10
-67.0
 20
-445.0
  0
VERTEX
  8
10
 10
-67.0
 20
-451.0
  0
SEQEND
  8
10
  0
POLYLINE
  8
10
  6
CONTINUOUS
 66
     1
 70
     0
 40
0.0
 41
0.0
  0
VERTEX
  8
10
 10
-12.0
 20
-474.0
  0
VERTEX
  8
10
 10
12.0
 20
-474.0
  0
VERTEX
  8
10
 10
12.0
 20
-480.0
  0
VERTEX
  8
10
 10
-12.0
 20
-480.0
  0
VERTEX
  8
10
 10
-12.0
 20
-474.0
  0
SEQEND
  8
10
  0
POLYLINE
  8
10
  6
CONTINUOUS
 66
     1
 70
     0
 40
0.0
 41
0.0
  0
VERTEX
  8
10
 10
67.0
 20
-451.0
  0
VERTEX
  8
10
 10
91.0
 20
-451.0
  0
VERTEX
  8
10
 10
91.0
 20
-445.0
  0
VERTEX
  8
10
 10
67.0
 20
-445.0
  0
VERTEX
  8
10
 10
67.0
 20
-451.0
  0
SEQEND
  8
10
  0
POLYLINE
  8
10
  6
CONTINUOUS
 66
     1
 70
     0
 40
0.0
 41
0.0
  0
VERTEX
  8
10
 10
84.0
 20
-480.0
  0
VERTEX
  8
10
 10
108.0
 20
-480.0
  0
VERTEX
  8
10
 10
108.0
 20
-474.0
  0
VERTEX
  8
10
 10
84.0
 20
-474.0
  0
VERTEX
  8
10
 10
84.0
 20
-480.0
  0
SEQEND
  8
10
  0
POLYLINE
  8
10
  6
CONTINUOUS
 66
     1
 70
     0
 40
0.0
 41
0.0
  0
VERTEX
  8
10
 10
-40.0
 20
-70.0
  0
VERTEX
  8
10
 10
40.0
 20
-70.0
  0
VERTEX
  8
10
 10
40.0
 20
-120.0
  0
VERTEX
  8
10
 10
-40.0
 20
-120.0
  0
VERTEX
  8
10
 10
-40.0
 20
-70.0
  0
SEQEND
  8
10
  0
POLYLINE
  8
10
  6
CONTINUOUS
 66
     1
 70
     0
 40
0.0
 41
0.0
  0
VERTEX
  8
10
 10
70.0
 20
-90.0
  0
VERTEX
  8
10
 10
90.0
 20
-90.0
  0
VERTEX
  8
10
 10
90.0
 20
-110.0
  0
VERTEX
  8
10
 10
70.0
 20
-110.0
  0
VERTEX
  8
10
 10
70.0
 20
-90.0
  0
SEQEND
  8
10
  0
CIRCLE
  8
10
  6
DASHED
 10
0.0
 20
-150.0
 40
8.0
  0
INSERT
  8
10
  6
CONTINUOUS
  2
COMP1
 10
0.0
 20
0.0
 41
1.0
 42
1.0
 50
0.0
  0
INSERT
  8
10
  6
CONTINUOUS
  2
COMP2
 10
0.0
 20
0.0
 41
1.0
 42
1.0
 50
0.0
  0
INSERT
  8
10
  6
CONTINUOUS
  2
COMP3
 10
0.0
 20
0.0
 41
1.0
 42
1.0
 50
0.0
  0
INSERT
  8
10
  6
CONTINUOUS
  2
COMP4
 10
0.0
 20
0.0
 41
1.0
 42
1.0
 50
0.0
  0
INSERT
  8
10
  6
CONTINUOUS
  2
COMP5
 10
0.0
 20
0.0
 41
1.0
 42
1.0
 50
0.0
  0
INSERT
  8
10
  6
CONTINUOUS
  2
COMP6
 10
0.0
 20
0.0
 41
1.0
 42
1.0
 50
0.0
  0
INSERT
  8
10
  6
CONTINUOUS
  2
COMP7
 10
0.0
 20
0.0
 41
1.0
 42
1.0
 50
0.0
  0
INSERT
  8
10
  6
CONTINUOUS
  2
COMP8
 10
0.0
 20
0.0
 41
1.0
 42
1.0
 50
0.0
  0
INSERT
  8
10
  6
CONTINUOUS
  2
COMP9
 10
0.0
 20
0.0
 41
1.0
 42
1.0
 50
0.0
  0
INSERT
  8
10
  6
CONTINUOUS
  2
COMP10
 10
0.0
 20
0.0
 41
1.0
 42
1.0
 50
0.0
  0
ENDSEC
  0
EOF
