  0
SECTION
  2
HEADER
  9
$ACADVER
  1
AC1006
  9
$INSBASE
 10
0.0
 20
0.0
 30
0.0
  9
$EXTMIN
 10
-394.0
 20
-270.0
  9
$EXTMAX
 10
-13.53360628438553
 20
122.5
  9
$LIMMIN
 10
-394.0
 20
-270.0
  9
$LIMMAX
 10
-13.53360628438553
 20
122.5
  9
$ORTHOMODE
 70
     0
  9
$REGENMODE
 70
     1
  9
$FILLMODE
 70
     1
  9
$QTEXTMODE
 70
     0
  9
$MIRRTEXT
 70
     1
  9
$DRAGMODE
 70
     2
  9
$LTSCALE
 40
1.0
  9
$OSMODE
 70
     0
  9
$ATTMODE
 70
     1
  9
$TEXTSIZE
 40
3.0
  9
$TRACEWID
 40
0.5
  9
$TEXTSTYLE
  7
STANDARD
  9
$CLAYER
  8
0
  9
$CELTYPE
  6
BYLAYER
  9
$CECOLOR
 62
   256
  9
$DIMSCALE
 40
1.0
  9
$DIMASZ
 40
3.0
  9
$DIMEXO
 40
1.0
  9
$DIMDLI
 40
5.0
  9
$DIMRND
 40
0.0
  9
$DIMDLE
 40
5.0
  9
$DIMEXE
 40
2.0
  9
$DIMTP
 40
0.0
  9
$DIMTM
 40
0.0
  9
$DIMTXT
 40
3.0
  9
$DIMCEN
 40
2.0
  9
$DIMTSZ
 40
0.0
  9
$DIMTOL
 70
     0
  9
$DIMLIM
 70
     0
  9
$DIMTIH
 70
     0
  9
$DIMTOH
 70
     0
  9
$DIMSE1
 70
     0
  9
$DIMSE2
 70
     0
  9
$DIMTAD
 70
     1
  9
$DIMZIN
 70
     8
  9
$DIMBLK
  1

  9
$DIMASO
 70
     1
  9
$DIMSHO
 70
     0
  9
$DIMPOST
  1

  9
$DIMAPOST
  1

  9
$DIMALT
 70
     0
  9
$DIMALTD
 70
     4
  9
$DIMALTF
 40
25.4
  9
$DIMLFAC
 40
1.0
  9
$DIMTOFL
 70
     1
  9
$DIMTVP
 40
1.0
  9
$DIMTIX
 70
     0
  9
$DIMSOXD
 70
     0
  9
$DIMSAH
 70
     0
  9
$DIMBLK1
  1

  9
$DIMBLK2
  1

  9
$LUNITS
 70
     2
  9
$LUPREC
 70
     4
  9
$AXISMODE
 70
     0
  9
$AXISUNIT
 10
0.0
 20
0.0
  9
$SKETCHINC
 40
1.0
  9
$FILLETRAD
 40
0.0
  9
$AUNITS
 70
     0
  9
$AUPREC
 70
     0
  9
$MENU
  1
acad
  9
$ELEVATION
 40
0.0
  9
$THICKNESS
 40
0.0
  9
$LIMCHECK
 70
     0
  9
$BLIPMODE
 70
     1
  9
$CHAMFERA
 40
0.0
  9
$CHAMFERB
 40
0.0
  9
$SKPOLY
 70
     0
  9
$TDCREATE
 40
2455210.766435185
  9
$TDUPDATE
 40
2455210.766435185
  9
$TDINDWG
 40
0.0
  9
$TDUSRTIMER
 40
0.0
  9
$USRTIMER
 70
     1
  9
$ANGBASE
 50
0.0
  9
$ANGDIR
 70
     0
  9
$PDMODE
 70
     0
  9
$PDSIZE
 40
0.0
  9
$PLINEWID
 40
0.0
  9
$COORDS
 70
     0
  9
$SPLFRAME
 70
     0
  9
$SPLINETYPE
 70
     6
  9
$SPLINESEGS
 70
     8
  9
$ATTDIA
 70
     0
  9
$ATTREQ
 70
     1
  9
$HANDLING
 70
     0
  9
$HANDSEED
  5
0
  9
$SURFTAB1
 70
     6
  9
$SURFTAB2
 70
     6
  9
$SURFTYPE
 70
     6
  9
$SURFU
 70
     6
  9
$SURFV
 70
     6
  9
$FLATLAND
 70
     0
  9
$UCSNAME
  2

  9
$UCSORG
 10
0.0
 20
0.0
 30
0.0
  9
$UCSXDIR
 10
1.0
 20
0.0
 30
0.0
  9
$UCSYDIR
 10
0.0
 20
1.0
 30
0.0
  9
$USERI1
 70
     0
  9
$USERI2
 70
     0
  9
$USERI3
 70
     0
  9
$USERI4
 70
     0
  9
$USERI5
 70
     0
  9
$USERR1
 40
0.0
  9
$USERR2
 40
0.0
  9
$USERR3
 40
0.0
  9
$USERR4
 40
0.0
  9
$USERR5
 40
0.0
  9
$WORLDVIEW
 70
     1
  0
ENDSEC
  0
SECTION
  2
TABLES
  0
TABLE
  2
VPORT
 70
     1
  0
VPORT
  2
*ACTIVE
 70
     0
 10
0.0
 20
0.0
 11
1.0
 21
1.0
 12
-203.7668031421928
 22
-73.75
 13
0.0
 23
0.0
 14
0.0
 24
0.0
 15
0.0
 25
0.0
 16
0.0
 26
0.0
 36
1.0
 17
0.0
 27
0.0
 37
0.0
 40
392.5
 41
1.5
 42
50.0
 43
0.0
 44
0.0
 50
0.0
 51
0.0
 71
     0
 72
   100
 73
     1
 74
     1
 75
     0
 76
     0
 77
     0
 78
     0
  0
ENDTAB
  0
TABLE
  2
LTYPE
 70
    20
  0
LTYPE
  2
CONTINUOUS
 70
    64
  3
solid line
 72
    65
 73
     0
 40
0.0
  0
ENDTAB
  0
TABLE
  2
LAYER
 70
    20
  0
LAYER
  2
0
 70
    64
 62
     7
  6
CONTINUOUS
  0
LAYER
  2
2
 70
    64
 62
     7
  6
CONTINUOUS
  0
LAYER
  2
3
 70
    64
 62
     7
  6
CONTINUOUS
  0
LAYER
  2
5
 70
    64
 62
     7
  6
CONTINUOUS
  0
LAYER
  2
4
 70
    64
 62
     7
  6
CONTINUOUS
  0
ENDTAB
  0
TABLE
  2
STYLE
 70
     4
  0
ENDTAB
  0
TABLE
  2
VIEW
 70
     0
  0
ENDTAB
  0
TABLE
  2
UCS
 70
     0
  0
ENDTAB
  0
TABLE
  2
DWGMGR
 70
     0
  0
ENDTAB
  0
ENDSEC
  0
SECTION
  2
BLOCKS
  0
BLOCK
  8
2
  2
COMP1
 70
    64
 10
0.0
 20
0.0
  0
LINE
  8
2
  6
CONTINUOUS
 10
-265.5
 20
-75.0
 11
-265.5
 21
-73.40000152587891
  0
LINE
  8
2
  6
CONTINUOUS
 10
-259.1000061035156
 20
-73.40000152587891
 11
-258.1000061035156
 21
-73.40000152587891
  0
LINE
  8
2
  6
CONTINUOUS
 10
-269.2999877929688
 20
-73.40000152587891
 11
-269.2999877929688
 21
-66.59999847412109
  0
LINE
  8
2
  6
CONTINUOUS
 10
-255.2999877929688
 20
-73.40000152587891
 11
-255.2999877929688
 21
-66.59999847412109
  0
LINE
  8
2
  6
CONTINUOUS
 10
-266.5
 20
-73.40000152587891
 11
-266.5
 21
-66.59837341308594
  0
LINE
  8
2
  6
CONTINUOUS
 10
-258.1000061035156
 20
-71.33960723876953
 11
-258.1000061035156
 21
-66.59999847412109
  0
LINE
  8
2
  6
CONTINUOUS
 10
-259.1000061035156
 20
-65.0
 11
-254.2999877929688
 21
-65.0
  0
LINE
  8
2
  6
CONTINUOUS
 10
-270.2999877929688
 20
-66.59999847412109
 11
-269.2999877929688
 21
-66.59999847412109
  0
LINE
  8
2
  6
CONTINUOUS
 10
-259.1000061035156
 20
-75.0
 11
-254.2999877929688
 21
-75.0
  0
LINE
  8
2
  6
CONTINUOUS
 10
-270.2999877929688
 20
-75.0
 11
-265.5
 21
-75.0
  0
LINE
  8
2
  6
CONTINUOUS
 10
-270.2999877929688
 20
-65.0
 11
-265.9315490722656
 21
-65.0
  0
LINE
  8
2
  6
CONTINUOUS
 10
-265.9315490722656
 20
-65.0
 11
-258.1000061035156
 21
-71.33960723876953
  0
LINE
  8
2
  6
CONTINUOUS
 10
-266.5
 20
-66.59837341308594
 11
-258.0976867675781
 21
-73.40000152587891
  0
LINE
  8
2
  6
CONTINUOUS
 10
-259.1000061035156
 20
-75.0
 11
-259.1000061035156
 21
-73.40000152587891
  0
LINE
  8
2
  6
CONTINUOUS
 10
-259.1000061035156
 20
-66.59999847412109
 11
-259.1000061035156
 21
-65.0
  0
LINE
  8
2
  6
CONTINUOUS
 10
-254.2999877929688
 20
-75.0
 11
-254.2999877929688
 21
-73.40000152587891
  0
LINE
  8
2
  6
CONTINUOUS
 10
-254.2999877929688
 20
-66.59999847412109
 11
-254.2999877929688
 21
-65.0
  0
LINE
  8
2
  6
CONTINUOUS
 10
-270.2999877929688
 20
-75.0
 11
-270.2999877929688
 21
-73.40000152587891
  0
LINE
  8
2
  6
CONTINUOUS
 10
-270.2999877929688
 20
-66.59999847412109
 11
-270.2999877929688
 21
-65.0
  0
LINE
  8
2
  6
CONTINUOUS
 10
-254.2999877929688
 20
-73.40000152587891
 11
-255.2999877929688
 21
-73.40000152587891
  0
LINE
  8
2
  6
CONTINUOUS
 10
-253.5
 20
-75.0
 11
-253.5
 21
-73.40000152587891
  0
LINE
  8
2
  6
CONTINUOUS
 10
-253.5
 20
-66.59999847412109
 11
-253.5
 21
-65.0
  0
LINE
  8
2
  6
CONTINUOUS
 10
-248.7000122070313
 20
-75.0
 11
-248.7000122070313
 21
-73.40000152587891
  0
LINE
  8
2
  6
CONTINUOUS
 10
-236.7000122070313
 20
-75.0
 11
-236.7000122070313
 21
-73.40000152587891
  0
LINE
  8
2
  6
CONTINUOUS
 10
-236.7000122070313
 20
-66.59999847412109
 11
-236.7000122070313
 21
-65.0
  0
LINE
  8
2
  6
CONTINUOUS
 10
-252.5
 20
-73.40000152587891
 11
-252.5
 21
-66.59999847412109
  0
LINE
  8
2
  6
CONTINUOUS
 10
-249.7000122070313
 20
-73.40000152587891
 11
-249.7000122070313
 21
-66.59988403320313
  0
LINE
  8
2
  6
CONTINUOUS
 10
-237.7000122070313
 20
-73.40000152587891
 11
-237.7000122070313
 21
-66.59999847412109
  0
LINE
  8
2
  6
CONTINUOUS
 10
-241.5
 20
-75.0
 11
-241.5
 21
-73.40000152587891
  0
LINE
  8
2
  6
CONTINUOUS
 10
-240.5
 20
-73.40000152587891
 11
-240.5
 21
-66.59988403320313
  0
LINE
  8
2
  6
CONTINUOUS
 10
-253.5
 20
-73.40000152587891
 11
-252.5
 21
-73.40000152587891
  0
LINE
  8
2
  6
CONTINUOUS
 10
-249.7000122070313
 20
-73.40000152587891
 11
-248.7000122070313
 21
-73.40000152587891
  0
LINE
  8
2
  6
CONTINUOUS
 10
-241.5
 20
-73.40000152587891
 11
-240.5
 21
-73.40000152587891
  0
LINE
  8
2
  6
CONTINUOUS
 10
-237.7000122070313
 20
-73.40000152587891
 11
-236.7000122070313
 21
-73.40000152587891
  0
LINE
  8
2
  6
CONTINUOUS
 10
-236.7000122070313
 20
-66.59999847412109
 11
-237.7000122070313
 21
-66.59999847412109
  0
LINE
  8
2
  6
CONTINUOUS
 10
-252.5
 20
-66.59999847412109
 11
-253.5
 21
-66.59999847412109
  0
LINE
  8
2
  6
CONTINUOUS
 10
-248.7520141601563
 20
-65.0
 11
-245.1000061035156
 21
-71.66775512695313
  0
LINE
  8
2
  6
CONTINUOUS
 10
-245.1000061035156
 20
-71.66775512695313
 11
-241.447998046875
 21
-65.0
  0
LINE
  8
2
  6
CONTINUOUS
 10
-245.1000061035156
 20
-74.99847412109375
 11
-240.5
 21
-66.59988403320313
  0
LINE
  8
2
  6
CONTINUOUS
 10
-249.7000122070313
 20
-66.59988403320313
 11
-245.1000061035156
 21
-74.99847412109375
  0
LINE
  8
2
  6
CONTINUOUS
 10
-253.5
 20
-65.0
 11
-248.7520141601563
 21
-65.0
  0
LINE
  8
2
  6
CONTINUOUS
 10
-241.447998046875
 20
-65.0
 11
-236.7000122070313
 21
-65.0
  0
LINE
  8
2
  6
CONTINUOUS
 10
-253.5
 20
-75.0
 11
-248.7000122070313
 21
-75.0
  0
LINE
  8
2
  6
CONTINUOUS
 10
-241.5
 20
-75.0
 11
-236.7000122070313
 21
-75.0
  0
LINE
  8
2
  6
CONTINUOUS
 10
-235.8999938964844
 20
-75.0
 11
-235.8999938964844
 21
-73.40000152587891
  0
LINE
  8
2
  6
CONTINUOUS
 10
-235.8999938964844
 20
-66.59999847412109
 11
-235.8999938964844
 21
-65.0
  0
LINE
  8
2
  6
CONTINUOUS
 10
-235.8999938964844
 20
-65.0
 11
-223.6000061035156
 21
-65.0
  0
LINE
  8
2
  6
CONTINUOUS
 10
-235.8999938964844
 20
-75.0
 11
-223.6000061035156
 21
-75.0
  0
LINE
  8
2
  6
CONTINUOUS
 10
-234.8999938964844
 20
-73.40000152587891
 11
-234.8999938964844
 21
-66.59999847412109
  0
LINE
  8
2
  6
CONTINUOUS
 10
-235.8999938964844
 20
-66.59999847412109
 11
-234.8999938964844
 21
-66.59999847412109
  0
LINE
  8
2
  6
CONTINUOUS
 10
-235.8999938964844
 20
-73.40000152587891
 11
-234.8999938964844
 21
-73.40000152587891
  0
LINE
  8
2
  6
CONTINUOUS
 10
-232.1000061035156
 20
-66.59999847412109
 11
-224.7999877929688
 21
-66.59999847412109
  0
LINE
  8
2
  6
CONTINUOUS
 10
-232.1000061035156
 20
-69.19999694824219
 11
-224.7999877929688
 21
-69.19999694824219
  0
LINE
  8
2
  6
CONTINUOUS
 10
-232.1000061035156
 20
-70.80000305175781
 11
-224.80078125
 21
-70.80000305175781
  0
LINE
  8
2
  6
CONTINUOUS
 10
-232.1000061035156
 20
-73.40000152587891
 11
-224.7999877929688
 21
-73.40000152587891
  0
LINE
  8
2
  6
CONTINUOUS
 10
-232.1000061035156
 20
-73.40000152587891
 11
-232.1000061035156
 21
-70.80000305175781
  0
LINE
  8
2
  6
CONTINUOUS
 10
-232.1000061035156
 20
-69.19999694824219
 11
-232.1000061035156
 21
-66.59999847412109
  0
ARC
  8
2
  6
CONTINUOUS
 10
-223.6000061035156
 20
-67.90000152587889
 40
2.900000095367435
 50
313.6028397637747
 51
90.0
  0
ARC
  8
2
  6
CONTINUOUS
 10
-223.6000061035156
 20
-72.09999847412111
 40
2.900000095367417
 50
270.0
 51
46.39716023622516
  0
ARC
  8
2
  6
CONTINUOUS
 10
-224.7999877929688
 20
-67.90000152587891
 40
1.299999952316284
 50
270.0
 51
90.0
  0
ARC
  8
2
  6
CONTINUOUS
 10
-224.7999877929687
 20
-72.09999847412109
 40
1.300000071525574
 50
270.0
 51
90.03497068734966
  0
LINE
  8
2
  6
CONTINUOUS
 10
-259.1000061035156
 20
-66.59999847412109
 11
-258.1000061035156
 21
-66.59999847412109
  0
LINE
  8
2
  6
CONTINUOUS
 10
-255.2999877929688
 20
-66.59999847412109
 11
-254.2999877929688
 21
-66.59999847412109
  0
LINE
  8
2
  6
CONTINUOUS
 10
-270.2999877929688
 20
-73.40000152587891
 11
-269.2999877929688
 21
-73.40000152587891
  0
LINE
  8
2
  6
CONTINUOUS
 10
-266.5
 20
-73.40000152587891
 11
-265.5
 21
-73.40000152587891
  0
POLYLINE
  8
2
  6
CONTINUOUS
 66
     1
 70
     0
 40
0.0
 41
0.0
  0
VERTEX
  8
2
 10
-255.2999877929688
 20
-73.40000152587891
  0
VERTEX
  8
2
 10
-255.2999877929688
 20
-66.59999847412109
  0
VERTEX
  8
2
 10
-254.2999877929688
 20
-66.59999847412109
  0
VERTEX
  8
2
 10
-254.2999877929688
 20
-65.0
  0
VERTEX
  8
2
 10
-259.1000061035156
 20
-65.0
  0
VERTEX
  8
2
 10
-259.1000061035156
 20
-66.59999847412109
  0
VERTEX
  8
2
 10
-258.1000061035156
 20
-66.59999847412109
  0
VERTEX
  8
2
 10
-258.1000061035156
 20
-71.33960723876953
  0
VERTEX
  8
2
 10
-265.9315490722656
 20
-65.0
  0
VERTEX
  8
2
 10
-270.2999877929688
 20
-65.0
  0
VERTEX
  8
2
 10
-270.2999877929688
 20
-66.59999847412109
  0
VERTEX
  8
2
 10
-269.2999877929688
 20
-66.59999847412109
  0
VERTEX
  8
2
 10
-269.2999877929688
 20
-73.40000152587891
  0
VERTEX
  8
2
 10
-270.2999877929688
 20
-73.40000152587891
  0
VERTEX
  8
2
 10
-270.2999877929688
 20
-75.0
  0
VERTEX
  8
2
 10
-265.5
 20
-75.0
  0
VERTEX
  8
2
 10
-265.5
 20
-73.40000152587891
  0
VERTEX
  8
2
 10
-266.5
 20
-73.40000152587891
  0
VERTEX
  8
2
 10
-266.5
 20
-66.59837341308594
  0
VERTEX
  8
2
 10
-258.0976867675781
 20
-73.40000152587891
  0
VERTEX
  8
2
 10
-259.1000061035156
 20
-73.40000152587891
  0
VERTEX
  8
2
 10
-259.1000061035156
 20
-75.0
  0
VERTEX
  8
2
 10
-254.2999877929688
 20
-75.0
  0
VERTEX
  8
2
 10
-254.2999877929688
 20
-73.40000152587891
  0
VERTEX
  8
2
 10
-255.2999877929688
 20
-73.40000152587891
  0
SEQEND
  8
2
  0
POLYLINE
  8
2
  6
CONTINUOUS
 66
     1
 70
     0
 40
0.0
 41
0.0
  0
VERTEX
  8
2
 10
-241.5
 20
-75.0
  0
VERTEX
  8
2
 10
-236.7000122070313
 20
-75.0
  0
VERTEX
  8
2
 10
-236.7000122070313
 20
-73.40000152587891
  0
VERTEX
  8
2
 10
-237.7000122070313
 20
-73.40000152587891
  0
VERTEX
  8
2
 10
-237.7000122070313
 20
-66.59999847412109
  0
VERTEX
  8
2
 10
-236.7000122070313
 20
-66.59999847412109
  0
VERTEX
  8
2
 10
-236.7000122070313
 20
-65.0
  0
VERTEX
  8
2
 10
-241.447998046875
 20
-65.0
  0
VERTEX
  8
2
 10
-245.1000061035156
 20
-71.66775512695313
  0
VERTEX
  8
2
 10
-248.7520141601563
 20
-65.0
  0
VERTEX
  8
2
 10
-253.5
 20
-65.0
  0
VERTEX
  8
2
 10
-253.5
 20
-66.59999847412109
  0
VERTEX
  8
2
 10
-252.5
 20
-66.59999847412109
  0
VERTEX
  8
2
 10
-252.5
 20
-73.40000152587891
  0
VERTEX
  8
2
 10
-253.5
 20
-73.40000152587891
  0
VERTEX
  8
2
 10
-253.5
 20
-75.0
  0
VERTEX
  8
2
 10
-248.7000122070313
 20
-75.0
  0
VERTEX
  8
2
 10
-248.7000122070313
 20
-73.40000152587891
  0
VERTEX
  8
2
 10
-249.7000122070313
 20
-73.40000152587891
  0
VERTEX
  8
2
 10
-249.7000122070313
 20
-66.59988403320313
  0
VERTEX
  8
2
 10
-245.1000061035156
 20
-74.99847412109375
  0
VERTEX
  8
2
 10
-240.5
 20
-66.59988403320313
  0
VERTEX
  8
2
 10
-240.5
 20
-73.40000152587891
  0
VERTEX
  8
2
 10
-241.5
 20
-73.40000152587891
  0
VERTEX
  8
2
 10
-241.5
 20
-75.0
  0
SEQEND
  8
2
  0
POLYLINE
  8
2
  6
CONTINUOUS
 66
     1
 70
     0
 40
0.0
 41
0.0
  0
VERTEX
  8
2
 10
-223.6000061035156
 20
-75.0
  0
VERTEX
  8
2
 10
-235.8999938964844
 20
-75.0
  0
VERTEX
  8
2
 10
-235.8999938964844
 20
-73.40000152587891
  0
VERTEX
  8
2
 10
-234.8999938964844
 20
-73.40000152587891
  0
VERTEX
  8
2
 10
-234.8999938964844
 20
-66.59999847412109
  0
VERTEX
  8
2
 10
-235.8999938964844
 20
-66.59999847412109
  0
VERTEX
  8
2
 10
-235.8999938964844
 20
-65.0
  0
VERTEX
  8
2
 10
-223.6000061035156
 20
-65.0
 42
-0.6770391572921426
  0
VERTEX
  8
2
 10
-221.6000061035156
 20
-70.0
  0
SEQEND
  8
2
  0
POLYLINE
  8
2
  6
CONTINUOUS
 66
     1
 70
     0
 40
0.0
 41
0.0
  0
VERTEX
  8
2
 10
-224.7999877929688
 20
-73.40000152587891
  0
VERTEX
  8
2
 10
-232.1000061035156
 20
-73.40000152587891
  0
VERTEX
  8
2
 10
-232.1000061035156
 20
-70.80000305175781
  0
SEQEND
  8
2
  0
POLYLINE
  8
2
  6
CONTINUOUS
 66
     1
 70
     0
 40
0.0
 41
0.0
  0
VERTEX
  8
2
 10
-232.1000061035156
 20
-69.19999694824219
  0
VERTEX
  8
2
 10
-224.7991943359375
 20
-69.19999694824219
 42
0.4142118444862721
  0
VERTEX
  8
2
 10
-223.499992365974
 20
-67.89921569362751
 42
0.4142118392808445
  0
VERTEX
  8
2
 10
-224.800781240684
 20
-66.60001373753873
  0
VERTEX
  8
2
 10
-232.1000061035156
 20
-66.59999847412109
  0
VERTEX
  8
2
 10
-232.1000061035156
 20
-69.19999694824219
  0
SEQEND
  8
2
  0
POLYLINE
  8
2
  6
CONTINUOUS
 66
     1
 70
     0
 40
0.0
 41
0.0
  0
VERTEX
  8
2
 10
-232.1000061035156
 20
-73.40000152587891
  0
VERTEX
  8
2
 10
-224.7999877929688
 20
-73.40000152587891
 42
0.414321859584869
  0
VERTEX
  8
2
 10
-223.499984830069
 20
-72.09951781665676
 42
0.4143184628180701
  0
VERTEX
  8
2
 10
-224.8009643495287
 20
-70.80001095909209
  0
VERTEX
  8
2
 10
-232.1000061035156
 20
-70.80000305175781
  0
VERTEX
  8
2
 10
-232.1000061035156
 20
-73.40000152587891
  0
SEQEND
  8
2
  0
POLYLINE
  8
2
  6
CONTINUOUS
 66
     1
 70
     0
 40
0.0
 41
0.0
  0
VERTEX
  8
2
 10
-258.0976867675781
 20
-73.40000152587891
  0
VERTEX
  8
2
 10
-259.1000061035156
 20
-73.40000152587891
  0
VERTEX
  8
2
 10
-259.1000061035156
 20
-75.0
  0
VERTEX
  8
2
 10
-254.2999877929688
 20
-75.0
  0
VERTEX
  8
2
 10
-254.2999877929688
 20
-73.40000152587891
  0
VERTEX
  8
2
 10
-255.2999877929688
 20
-73.40000152587891
  0
VERTEX
  8
2
 10
-255.2999877929688
 20
-66.59999847412109
  0
VERTEX
  8
2
 10
-254.2999877929688
 20
-66.59999847412109
  0
VERTEX
  8
2
 10
-254.2999877929688
 20
-65.0
  0
VERTEX
  8
2
 10
-259.1000061035156
 20
-65.0
  0
VERTEX
  8
2
 10
-259.1000061035156
 20
-66.59999847412109
  0
VERTEX
  8
2
 10
-258.1000061035156
 20
-66.59999847412109
  0
VERTEX
  8
2
 10
-258.1000061035156
 20
-71.33960723876953
  0
VERTEX
  8
2
 10
-265.9315490722656
 20
-65.0
  0
VERTEX
  8
2
 10
-270.2999877929688
 20
-65.0
  0
VERTEX
  8
2
 10
-270.2999877929688
 20
-66.59999847412109
  0
VERTEX
  8
2
 10
-269.2999877929688
 20
-66.59999847412109
  0
VERTEX
  8
2
 10
-269.2999877929688
 20
-73.40000152587891
  0
VERTEX
  8
2
 10
-270.2999877929688
 20
-73.40000152587891
  0
VERTEX
  8
2
 10
-270.2999877929688
 20
-75.0
  0
VERTEX
  8
2
 10
-265.5
 20
-75.0
  0
VERTEX
  8
2
 10
-265.5
 20
-73.40000152587891
  0
VERTEX
  8
2
 10
-266.5
 20
-73.40000152587891
  0
VERTEX
  8
2
 10
-266.5
 20
-66.59837341308594
  0
VERTEX
  8
2
 10
-258.0976867675781
 20
-73.40000152587891
  0
SEQEND
  8
2
  0
POLYLINE
  8
2
  6
CONTINUOUS
 66
     1
 70
     0
 40
0.0
 41
0.0
  0
VERTEX
  8
2
 10
-240.5
 20
-73.40000152587891
  0
VERTEX
  8
2
 10
-240.5
 20
-66.59988403320313
  0
VERTEX
  8
2
 10
-245.1000061035156
 20
-74.99847412109375
  0
VERTEX
  8
2
 10
-249.7000122070313
 20
-66.59988403320313
  0
VERTEX
  8
2
 10
-249.7000122070313
 20
-73.40000152587891
  0
VERTEX
  8
2
 10
-248.7000122070313
 20
-73.40000152587891
  0
VERTEX
  8
2
 10
-248.7000122070313
 20
-75.0
  0
VERTEX
  8
2
 10
-253.5
 20
-75.0
  0
VERTEX
  8
2
 10
-253.5
 20
-73.40000152587891
  0
VERTEX
  8
2
 10
-252.5
 20
-73.40000152587891
  0
VERTEX
  8
2
 10
-252.5
 20
-66.59999847412109
  0
VERTEX
  8
2
 10
-253.5
 20
-66.59999847412109
  0
VERTEX
  8
2
 10
-253.5
 20
-65.0
  0
VERTEX
  8
2
 10
-248.7520141601563
 20
-65.0
  0
VERTEX
  8
2
 10
-245.1000061035156
 20
-71.66775512695313
  0
VERTEX
  8
2
 10
-241.447998046875
 20
-65.0
  0
VERTEX
  8
2
 10
-236.7000122070313
 20
-65.0
  0
VERTEX
  8
2
 10
-236.7000122070313
 20
-66.59999847412109
  0
VERTEX
  8
2
 10
-237.7000122070313
 20
-66.59999847412109
  0
VERTEX
  8
2
 10
-237.7000122070313
 20
-73.40000152587891
  0
VERTEX
  8
2
 10
-236.7000122070313
 20
-73.40000152587891
  0
VERTEX
  8
2
 10
-236.7000122070313
 20
-75.0
  0
VERTEX
  8
2
 10
-241.5
 20
-75.0
  0
VERTEX
  8
2
 10
-241.5
 20
-73.40000152587891
  0
VERTEX
  8
2
 10
-240.5
 20
-73.40000152587891
  0
SEQEND
  8
2
  0
POLYLINE
  8
2
  6
CONTINUOUS
 66
     1
 70
     0
 40
0.0
 41
0.0
  0
VERTEX
  8
2
 10
-232.1000061035156
 20
-66.59999847412109
  0
VERTEX
  8
2
 10
-232.1000061035156
 20
-69.19999694824219
  0
VERTEX
  8
2
 10
-224.7991943359375
 20
-69.19999694824219
  0
VERTEX
  8
2
 10
-224.7999877929688
 20
-69.19999694824219
  0
VERTEX
  8
2
 10
-232.1000061035156
 20
-69.19999694824219
  0
VERTEX
  8
2
 10
-232.1000061035156
 20
-66.59999847412109
  0
SEQEND
  8
2
  0
POLYLINE
  8
2
  6
CONTINUOUS
 66
     1
 70
     0
 40
0.0
 41
0.0
  0
VERTEX
  8
2
 10
-224.7999877929688
 20
-69.19999694824219
  0
VERTEX
  8
2
 10
-232.1000061035156
 20
-69.19999694824219
  0
VERTEX
  8
2
 10
-232.1000061035156
 20
-66.59999847412109
  0
VERTEX
  8
2
 10
-224.7999877929688
 20
-66.59999847412109
  0
VERTEX
  8
2
 10
-224.80078125
 20
-66.59999847412109
  0
VERTEX
  8
2
 10
-232.1000061035156
 20
-66.59999847412109
  0
VERTEX
  8
2
 10
-232.1000061035156
 20
-69.19999694824219
  0
VERTEX
  8
2
 10
-224.7999877929688
 20
-69.19999694824219
  0
SEQEND
  8
2
  0
POLYLINE
  8
2
  6
CONTINUOUS
 66
     1
 70
     0
 40
0.0
 41
0.0
  0
VERTEX
  8
2
 10
-232.1000061035156
 20
-70.80000305175781
  0
VERTEX
  8
2
 10
-224.80078125
 20
-70.80000305175781
  0
VERTEX
  8
2
 10
-232.1000061035156
 20
-70.80000305175781
  0
SEQEND
  8
2
  0
POLYLINE
  8
2
  6
CONTINUOUS
 66
     1
 70
     0
 40
0.0
 41
0.0
  0
VERTEX
  8
2
 10
-270.2999877929688
 20
-73.40000152587891
  0
VERTEX
  8
2
 10
-270.2999877929688
 20
-75.0
  0
VERTEX
  8
2
 10
-265.5
 20
-75.0
  0
VERTEX
  8
2
 10
-265.5
 20
-73.40000152587891
  0
VERTEX
  8
2
 10
-266.5
 20
-73.40000152587891
  0
VERTEX
  8
2
 10
-266.5
 20
-66.59837341308594
  0
VERTEX
  8
2
 10
-258.0976867675781
 20
-73.40000152587891
  0
VERTEX
  8
2
 10
-259.1000061035156
 20
-73.40000152587891
  0
VERTEX
  8
2
 10
-259.1000061035156
 20
-75.0
  0
VERTEX
  8
2
 10
-254.2999877929688
 20
-75.0
  0
VERTEX
  8
2
 10
-254.2999877929688
 20
-73.40000152587891
  0
VERTEX
  8
2
 10
-255.2999877929688
 20
-73.40000152587891
  0
VERTEX
  8
2
 10
-255.2999877929688
 20
-66.59999847412109
  0
VERTEX
  8
2
 10
-254.2999877929688
 20
-66.59999847412109
  0
VERTEX
  8
2
 10
-254.2999877929688
 20
-65.0
  0
VERTEX
  8
2
 10
-259.1000061035156
 20
-65.0
  0
VERTEX
  8
2
 10
-259.1000061035156
 20
-66.59999847412109
  0
VERTEX
  8
2
 10
-258.1000061035156
 20
-66.59999847412109
  0
VERTEX
  8
2
 10
-258.1000061035156
 20
-71.33960723876953
  0
VERTEX
  8
2
 10
-265.9315490722656
 20
-65.0
  0
VERTEX
  8
2
 10
-270.2999877929688
 20
-65.0
  0
VERTEX
  8
2
 10
-270.2999877929688
 20
-66.59999847412109
  0
VERTEX
  8
2
 10
-269.2999877929688
 20
-66.59999847412109
  0
VERTEX
  8
2
 10
-269.2999877929688
 20
-73.40000152587891
  0
VERTEX
  8
2
 10
-270.2999877929688
 20
-73.40000152587891
  0
SEQEND
  8
2
  0
ENDBLK
  8
2
  0
ENDSEC
  0
SECTION
  2
ENTITIES
  0
LINE
  8
2
  6
CONTINUOUS
 10
-373.0
 20
-90.0
 11
-203.0
 21
-90.0
  0
LINE
  8
2
  6
CONTINUOUS
 10
-373.0
 20
90.0
 11
-203.0
 21
90.0
  0
LINE
  8
2
  6
CONTINUOUS
 10
-378.0
 20
-85.0
 11
-378.0
 21
85.0
  0
LINE
  8
2
  6
CONTINUOUS
 10
-198.0
 20
-85.0
 11
-198.0
 21
85.0
  0
ARC
  8
2
  6
CONTINUOUS
 10
-203.0
 20
-85.0
 40
5.0
 50
270.0
 51
0.0
  0
ARC
  8
2
  6
CONTINUOUS
 10
-203.0
 20
85.0
 40
4.999999999999972
 50
0.0
 51
90.0
  0
ARC
  8
2
  6
CONTINUOUS
 10
-372.9999999999999
 20
84.99999999999996
 40
5.000000000000043
 50
90.0
 51
179.9999999999995
  0
ARC
  8
2
  6
CONTINUOUS
 10
-373.0000000000001
 20
-85.00000000000004
 40
4.999999999999943
 50
179.9999999999995
 51
270.0
  0
CIRCLE
  8
2
  6
CONTINUOUS
 10
-384.0
 20
0.0
 40
4.0
  0
CIRCLE
  8
2
  6
CONTINUOUS
 10
-192.0
 20
0.0
 40
4.0
  0
ARC
  8
2
  6
CONTINUOUS
 10
-192.0
 20
0.0
 40
10.0
 50
270.0
 51
90.0
  0
ARC
  8
2
  6
CONTINUOUS
 10
-384.0
 20
0.0
 40
10.0
 50
90.0
 51
270.0
  0
LINE
  8
2
  6
CONTINUOUS
 10
-384.0
 20
-10.0
 11
-378.0
 21
-10.0
  0
LINE
  8
2
  6
CONTINUOUS
 10
-198.0
 20
-10.0
 11
-192.0
 21
-10.0
  0
LINE
  8
2
  6
CONTINUOUS
 10
-384.0
 20
10.0
 11
-378.0
 21
10.0
  0
LINE
  8
2
  6
CONTINUOUS
 10
-198.0
 20
10.0
 11
-192.0
 21
10.0
  0
LINE
  8
3
  6
CONTINUOUS
 10
-238.0
 20
-84.0
 11
-238.0
 21
-122.5
  0
LINE
  8
2
  6
CONTINUOUS
 10
-350.0
 20
-116.5
 11
-326.0
 21
-116.5
  0
LINE
  8
2
  6
CONTINUOUS
 10
-344.1846584384265
 20
-218.0
 11
-331.8153415615735
 21
-218.0
  0
LINE
  8
2
  6
CONTINUOUS
 10
-351.4846340646265
 20
-229.3560713214072
 11
-345.2999756262
 21
-218.6439286785928
  0
LINE
  8
2
  6
CONTINUOUS
 10
-345.2999756262
 20
-241.3560713214072
 11
-351.4846340646265
 21
-230.6439286785928
  0
LINE
  8
2
  6
CONTINUOUS
 10
-331.8153415615735
 20
-242.0
 11
-344.1846584384265
 21
-242.0
  0
LINE
  8
2
  6
CONTINUOUS
 10
-324.5153659353734
 20
-230.6439286785928
 11
-330.7000243738
 21
-241.3560713214072
  0
LINE
  8
2
  6
CONTINUOUS
 10
-330.7000243738
 20
-218.6439286785928
 11
-324.5153659353734
 21
-229.3560713214072
  0
ARC
  8
2
  6
CONTINUOUS
 10
-337.9999999999911
 20
-229.9999999999999
 40
13.49999999999113
 50
359.9999999999994
 51
2.733955549268472
  0
ARC
  8
2
  6
CONTINUOUS
 10
-338.0000000000002
 20
-230.0000000000006
 40
13.50000000000061
 50
57.26604445073331
 51
62.73395554926746
  0
ARC
  8
2
  6
CONTINUOUS
 10
-337.9999999999989
 20
-230.0000000000021
 40
13.50000000000236
 50
117.2660444507331
 51
122.7339555492662
  0
ARC
  8
2
  6
CONTINUOUS
 10
-338.0000000000052
 20
-230.0
 40
13.49999999999477
 50
177.2660444507319
 51
182.7339555492681
  0
ARC
  8
2
  6
CONTINUOUS
 10
-338.0000000000012
 20
-230.000000000002
 40
13.49999999999768
 50
237.2660444507328
 51
242.7339555492676
  0
ARC
  8
2
  6
CONTINUOUS
 10
-337.9999999999989
 20
-230.0000000000018
 40
13.49999999999796
 50
297.2660444507324
 51
302.733955549267
  0
ARC
  8
2
  6
CONTINUOUS
 10
-337.9999999999948
 20
-230.0
 40
13.49999999999477
 50
357.2660444507319
 51
2.733955549268097
  0
CIRCLE
  8
2
  6
CONTINUOUS
 10
-338.0
 20
-230.0
 40
12.0
  0
LINE
  8
2
  6
CONTINUOUS
 10
-324.5
 20
-115.6339745962156
 11
-324.5
 21
-103.3660254037845
  0
LINE
  8
2
  6
CONTINUOUS
 10
-351.5
 20
-115.6339745962156
 11
-351.5
 21
-103.3660254037845
  0
LINE
  8
2
  6
CONTINUOUS
 10
-330.7000243738
 20
-115.6339745962156
 11
-330.7000243738
 21
-103.3660254037845
  0
LINE
  8
2
  6
CONTINUOUS
 10
-331.8153415615735
 20
-115.6339745962156
 11
-331.8153415615735
 21
-103.3660254037845
  0
LINE
  8
2
  6
CONTINUOUS
 10
-344.1846584384265
 20
-115.6339745962156
 11
-344.1846584384265
 21
-103.3660254037845
  0
LINE
  8
2
  6
CONTINUOUS
 10
-345.2999756262
 20
-115.6339745962156
 11
-345.2999756262
 21
-103.3660254037845
  0
LINE
  8
2
  6
CONTINUOUS
 10
-350.0
 20
-102.5
 11
-326.0
 21
-102.5
  0
LINE
  8
2
  6
CONTINUOUS
 10
-350.0
 20
-100.5
 11
-326.0
 21
-100.5
  0
LINE
  8
2
  6
CONTINUOUS
 10
-326.0
 20
-116.5
 11
-324.5
 21
-115.6339745962156
  0
LINE
  8
2
  6
CONTINUOUS
 10
-351.5
 20
-103.3660254037845
 11
-350.0
 21
-102.5
  0
LINE
  8
2
  6
CONTINUOUS
 10
-326.0
 20
-102.5
 11
-324.5
 21
-103.3660254037845
  0
LINE
  8
2
  6
CONTINUOUS
 10
-351.5
 20
-115.6339745962156
 11
-350.0
 21
-116.5
  0
LINE
  8
2
  6
CONTINUOUS
 10
-344.1846584384265
 20
-103.3660254037845
 11
-345.2999756262
 21
-103.3660254037845
  0
LINE
  8
2
  6
CONTINUOUS
 10
-345.2999756262
 20
-115.6339745962156
 11
-344.1846584384265
 21
-115.6339745962156
  0
LINE
  8
2
  6
CONTINUOUS
 10
-331.8153415615735
 20
-103.3660254037845
 11
-330.7000243738
 21
-103.3660254037845
  0
LINE
  8
2
  6
CONTINUOUS
 10
-331.8153415615735
 20
-115.6339745962156
 11
-330.7000243738
 21
-115.6339745962156
  0
ARC
  8
2
  6
CONTINUOUS
 10
-327.6000121869
 20
-108.4813583329449
 40
5.981363267272929
 50
58.78315034019052
 51
121.2168496598101
  0
ARC
  8
2
  6
CONTINUOUS
 10
-338.0
 20
-125.0166604983951
 40
22.5166604983951
 50
74.05763139437117
 51
105.9423686056288
  0
ARC
  8
2
  6
CONTINUOUS
 10
-348.3999878131
 20
-108.4813583329449
 40
5.98136326727291
 50
58.78315034018977
 51
121.2168496598102
  0
ARC
  8
2
  6
CONTINUOUS
 10
-348.3999878131
 20
-110.5186416670551
 40
5.981363267272982
 50
238.7831503401902
 51
301.2168496598098
  0
ARC
  8
2
  6
CONTINUOUS
 10
-338.0
 20
-93.98333950160458
 40
22.51666049839545
 50
254.0576313943714
 51
285.9423686056286
  0
ARC
  8
2
  6
CONTINUOUS
 10
-327.6000121869
 20
-110.5186416670551
 40
5.981363267272934
 50
238.7831503401899
 51
301.2168496598095
  0
POLYLINE
  8
2
  6
CONTINUOUS
 66
     1
 70
     0
 40
0.0
 41
0.0
  0
VERTEX
  8
2
 10
-322.9888930010698
 20
-230.0
  0
VERTEX
  8
2
 10
-330.4944465005349
 20
-217.0
  0
VERTEX
  8
2
 10
-345.5055534994651
 20
-217.0
  0
VERTEX
  8
2
 10
-353.0111069989303
 20
-230.0
  0
VERTEX
  8
2
 10
-345.5055534994651
 20
-243.0
  0
VERTEX
  8
2
 10
-330.4944465005349
 20
-243.0
  0
VERTEX
  8
2
 10
-322.9888930010698
 20
-230.0
  0
SEQEND
  8
2
  0
ARC
  8
2
  6
CONTINUOUS
 10
-338.0
 20
-230.0
 40
13.0
 50
67.38013505195957
 51
112.6198649480404
  0
ARC
  8
2
  6
CONTINUOUS
 10
-337.9999999999998
 20
-230.0000000000001
 40
13.00000000000016
 50
127.38013505196
 51
172.6198649480402
  0
ARC
  8
2
  6
CONTINUOUS
 10
-337.9999999999997
 20
-229.9999999999999
 40
13.0000000000003
 50
187.3801350519599
 51
232.6198649480399
  0
ARC
  8
2
  6
CONTINUOUS
 10
-338.0
 20
-230.0
 40
13.0
 50
247.3801350519596
 51
292.6198649480405
  0
ARC
  8
2
  6
CONTINUOUS
 10
-337.9999999999997
 20
-230.0000000000002
 40
12.99999999999965
 50
307.3801350519589
 51
352.6198649480412
  0
ARC
  8
2
  6
CONTINUOUS
 10
-338.0000000000003
 20
-230.0000000000001
 40
13.0000000000003
 50
7.380135051959951
 51
52.61986494803986
  0
LINE
  8
2
  6
CONTINUOUS
 10
-322.9888930010698
 20
-95.33888683279848
 11
-322.9888930010698
 21
-90.0
  0
LINE
  8
2
  6
CONTINUOUS
 10
-330.4944465005349
 20
-95.33888683279848
 11
-330.4944465005349
 21
-91.5
  0
LINE
  8
2
  6
CONTINUOUS
 10
-345.5055534994651
 20
-95.33888683279848
 11
-345.5055534994651
 21
-91.5
  0
LINE
  8
2
  6
CONTINUOUS
 10
-353.0111069989303
 20
-95.33888683279848
 11
-353.0111069989303
 21
-90.0
  0
LINE
  8
2
  6
CONTINUOUS
 10
-353.0111069989303
 20
-91.5
 11
-322.9888930010698
 21
-91.5
  0
LINE
  8
2
  6
CONTINUOUS
 10
-351.0
 20
-96.5
 11
-325.0
 21
-96.5
  0
LINE
  8
2
  6
CONTINUOUS
 10
-325.0
 20
-96.5
 11
-322.9888930010698
 21
-95.33888683279848
  0
LINE
  8
2
  6
CONTINUOUS
 10
-353.0111069989303
 20
-95.33888683279848
 11
-351.0
 21
-96.5
  0
ARC
  8
2
  6
CONTINUOUS
 10
-326.7416697508023
 20
-89.85486085409966
 40
6.645139145900324
 50
235.6157525319589
 51
295.6157525319578
  0
ARC
  8
2
  6
CONTINUOUS
 10
-338.0
 20
-71.66111316720139
 40
24.83888683279861
 50
252.4120462260063
 51
287.5879537739936
  0
ARC
  8
2
  6
CONTINUOUS
 10
-349.2583302491977
 20
-89.85486085409977
 40
6.645139145900235
 50
244.3842474680418
 51
304.3842474680417
  0
LINE
  8
2
  6
CONTINUOUS
 10
-349.0
 20
-99.312
 11
-349.0
 21
-100.5
  0
LINE
  8
2
  6
CONTINUOUS
 10
-327.0
 20
-99.31199999999998
 11
-327.0
 21
-100.5
  0
LINE
  8
2
  6
CONTINUOUS
 10
-350.0
 20
-100.5
 11
-350.0
 21
-102.5
  0
LINE
  8
2
  6
CONTINUOUS
 10
-326.0
 20
-100.5
 11
-326.0
 21
-102.5
  0
LINE
  8
2
  6
CONTINUOUS
 10
-348.188
 20
-98.5
 11
-327.812
 21
-98.5
  0
LINE
  8
2
  6
CONTINUOUS
 10
-349.0
 20
-99.312
 11
-348.188
 21
-98.5
  0
LINE
  8
2
  6
CONTINUOUS
 10
-327.812
 20
-98.5
 11
-327.0
 21
-99.312
  0
LINE
  8
2
  6
CONTINUOUS
 10
-327.0
 20
-99.312
 11
-349.0
 21
-99.312
  0
LINE
  8
2
  6
CONTINUOUS
 10
-327.812
 20
-96.5
 11
-327.812
 21
-98.5
  0
LINE
  8
2
  6
CONTINUOUS
 10
-327.812
 20
-98.5
 11
-327.812
 21
-100.5
  0
LINE
  8
2
  6
CONTINUOUS
 10
-348.188
 20
-96.5
 11
-348.188
 21
-98.5
  0
LINE
  8
2
  6
CONTINUOUS
 10
-348.188
 20
-98.5
 11
-348.188
 21
-100.5
  0
LINE
  8
2
  6
CONTINUOUS
 10
-251.0
 20
-96.5
 11
-253.0111069989303
 21
-95.33888683279848
  0
LINE
  8
2
  6
CONTINUOUS
 10
-225.0
 20
-96.5
 11
-251.0
 21
-96.5
  0
ARC
  8
2
  6
CONTINUOUS
 10
-238.0
 20
-71.66111316720139
 40
24.83888683279861
 50
252.4120462260063
 51
287.5879537739936
  0
LINE
  8
2
  6
CONTINUOUS
 10
-245.5055534994651
 20
-95.33888683279848
 11
-245.5055534994651
 21
-91.5
  0
ARC
  8
2
  6
CONTINUOUS
 10
-249.2583302491977
 20
-89.85486085409976
 40
6.645139145900248
 50
244.3842474680419
 51
304.3842474680416
  0
LINE
  8
2
  6
CONTINUOUS
 10
-222.9888930010698
 20
-91.5
 11
-253.0111069989303
 21
-91.5
  0
LINE
  8
2
  6
CONTINUOUS
 10
-253.0111069989303
 20
-95.33888683279848
 11
-253.0111069989303
 21
-90.0
  0
LINE
  8
2
  6
CONTINUOUS
 10
-251.5
 20
-115.6339745962156
 11
-251.5
 21
-103.3660254037845
  0
LINE
  8
2
  6
CONTINUOUS
 10
-250.0
 20
-116.5
 11
-251.5
 21
-115.6339745962156
  0
LINE
  8
2
  6
CONTINUOUS
 10
-226.0
 20
-116.5
 11
-250.0
 21
-116.5
  0
LINE
  8
2
  6
CONTINUOUS
 10
-226.0
 20
-102.5
 11
-250.0
 21
-102.5
  0
LINE
  8
2
  6
CONTINUOUS
 10
-250.0
 20
-102.5
 11
-251.5
 21
-103.3660254037845
  0
LINE
  8
2
  6
CONTINUOUS
 10
-245.2999756262
 20
-115.6339745962156
 11
-245.2999756262
 21
-103.3660254037845
  0
LINE
  8
2
  6
CONTINUOUS
 10
-244.1846584384265
 20
-115.6339745962156
 11
-245.2999756262
 21
-115.6339745962156
  0
LINE
  8
2
  6
CONTINUOUS
 10
-244.1846584384265
 20
-115.6339745962156
 11
-244.1846584384265
 21
-103.3660254037845
  0
LINE
  8
2
  6
CONTINUOUS
 10
-244.1846584384265
 20
-103.3660254037845
 11
-245.2999756262
 21
-103.3660254037845
  0
ARC
  8
2
  6
CONTINUOUS
 10
-248.3999878131
 20
-108.4813583329448
 40
5.981363267272824
 50
58.78315034018927
 51
121.2168496598104
  0
ARC
  8
2
  6
CONTINUOUS
 10
-238.0
 20
-125.0166604983951
 40
22.5166604983951
 50
74.05763139437117
 51
105.9423686056288
  0
ARC
  8
2
  6
CONTINUOUS
 10
-238.0
 20
-93.98333950160452
 40
22.51666049839549
 50
254.0576313943716
 51
285.9423686056286
  0
ARC
  8
2
  6
CONTINUOUS
 10
-248.3999878131
 20
-110.518641667055
 40
5.981363267273002
 50
238.7831503401909
 51
301.2168496598097
  0
LINE
  8
2
  6
CONTINUOUS
 10
-250.0
 20
-100.5
 11
-250.0
 21
-102.5
  0
LINE
  8
2
  6
CONTINUOUS
 10
-226.0
 20
-100.5
 11
-250.0
 21
-100.5
  0
LINE
  8
2
  6
CONTINUOUS
 10
-249.0
 20
-99.31199999999998
 11
-249.0
 21
-100.5
  0
LINE
  8
2
  6
CONTINUOUS
 10
-248.188
 20
-98.5
 11
-249.0
 21
-99.312
  0
LINE
  8
2
  6
CONTINUOUS
 10
-227.812
 20
-98.5
 11
-248.188
 21
-98.5
  0
LINE
  8
2
  6
CONTINUOUS
 10
-249.0
 20
-99.312
 11
-227.0
 21
-99.312
  0
LINE
  8
2
  6
CONTINUOUS
 10
-248.188
 20
-96.5
 11
-248.188
 21
-98.5
  0
LINE
  8
2
  6
CONTINUOUS
 10
-248.188
 20
-98.5
 11
-248.188
 21
-100.5
  0
LINE
  8
2
  6
CONTINUOUS
 10
-222.9888930010698
 20
-95.33888683279848
 11
-225.0
 21
-96.5
  0
LINE
  8
2
  6
CONTINUOUS
 10
-230.4944465005349
 20
-95.33888683279848
 11
-230.4944465005349
 21
-91.5
  0
ARC
  8
2
  6
CONTINUOUS
 10
-226.7416697508023
 20
-89.85486085409976
 40
6.645139145900242
 50
235.6157525319584
 51
295.6157525319582
  0
LINE
  8
2
  6
CONTINUOUS
 10
-222.9888930010698
 20
-95.33888683279848
 11
-222.9888930010698
 21
-90.0
  0
LINE
  8
2
  6
CONTINUOUS
 10
-224.5
 20
-115.6339745962156
 11
-226.0
 21
-116.5
  0
LINE
  8
2
  6
CONTINUOUS
 10
-224.5
 20
-115.6339745962156
 11
-224.5
 21
-103.3660254037845
  0
LINE
  8
2
  6
CONTINUOUS
 10
-224.5
 20
-103.3660254037845
 11
-226.0
 21
-102.5
  0
LINE
  8
2
  6
CONTINUOUS
 10
-231.8153415615735
 20
-115.6339745962156
 11
-231.8153415615735
 21
-103.3660254037845
  0
LINE
  8
2
  6
CONTINUOUS
 10
-231.8153415615735
 20
-103.3660254037845
 11
-230.7000243738
 21
-103.3660254037845
  0
LINE
  8
2
  6
CONTINUOUS
 10
-230.7000243738
 20
-115.6339745962156
 11
-230.7000243738
 21
-103.3660254037845
  0
LINE
  8
2
  6
CONTINUOUS
 10
-230.7000243738
 20
-115.6339745962156
 11
-231.8153415615735
 21
-115.6339745962156
  0
ARC
  8
2
  6
CONTINUOUS
 10
-227.6000121869
 20
-108.4813583329449
 40
5.98136326727291
 50
58.78315034018977
 51
121.2168496598102
  0
ARC
  8
2
  6
CONTINUOUS
 10
-227.6000121869
 20
-110.5186416670551
 40
5.981363267272982
 50
238.7831503401902
 51
301.2168496598098
  0
LINE
  8
2
  6
CONTINUOUS
 10
-226.0
 20
-100.5
 11
-226.0
 21
-102.5
  0
LINE
  8
2
  6
CONTINUOUS
 10
-227.0
 20
-99.312
 11
-227.812
 21
-98.5
  0
LINE
  8
2
  6
CONTINUOUS
 10
-227.0
 20
-99.312
 11
-227.0
 21
-100.5
  0
LINE
  8
2
  6
CONTINUOUS
 10
-227.812
 20
-96.5
 11
-227.812
 21
-98.5
  0
LINE
  8
2
  6
CONTINUOUS
 10
-227.812
 20
-98.5
 11
-227.812
 21
-100.5
  0
LINE
  8
3
  6
CONTINUOUS
 10
-238.0
 20
84.0
 11
-238.0
 21
122.5
  0
LINE
  8
2
  6
CONTINUOUS
 10
-251.0
 20
96.5
 11
-253.0111069989303
 21
95.33888683279848
  0
LINE
  8
2
  6
CONTINUOUS
 10
-225.0
 20
96.5
 11
-251.0
 21
96.5
  0
ARC
  8
2
  6
CONTINUOUS
 10
-238.0
 20
71.66111316720139
 40
24.83888683279861
 50
72.41204622600637
 51
107.5879537739937
  0
LINE
  8
2
  6
CONTINUOUS
 10
-245.5055534994651
 20
95.33888683279848
 11
-245.5055534994651
 21
91.5
  0
ARC
  8
2
  6
CONTINUOUS
 10
-249.2583302491977
 20
89.85486085409976
 40
6.645139145900242
 50
55.61575253195841
 51
115.6157525319581
  0
LINE
  8
2
  6
CONTINUOUS
 10
-253.0111069989303
 20
95.33888683279848
 11
-253.0111069989303
 21
90.0
  0
LINE
  8
2
  6
CONTINUOUS
 10
-251.5
 20
115.6339745962156
 11
-251.5
 21
103.3660254037845
  0
LINE
  8
2
  6
CONTINUOUS
 10
-250.0
 20
116.5
 11
-251.5
 21
115.6339745962156
  0
LINE
  8
2
  6
CONTINUOUS
 10
-226.0
 20
116.5
 11
-250.0
 21
116.5
  0
LINE
  8
2
  6
CONTINUOUS
 10
-226.0
 20
102.5
 11
-250.0
 21
102.5
  0
LINE
  8
2
  6
CONTINUOUS
 10
-250.0
 20
102.5
 11
-251.5
 21
103.3660254037845
  0
LINE
  8
2
  6
CONTINUOUS
 10
-245.2999756262
 20
115.6339745962156
 11
-245.2999756262
 21
103.3660254037845
  0
LINE
  8
2
  6
CONTINUOUS
 10
-244.1846584384265
 20
115.6339745962156
 11
-245.2999756262
 21
115.6339745962156
  0
LINE
  8
2
  6
CONTINUOUS
 10
-244.1846584384265
 20
115.6339745962156
 11
-244.1846584384265
 21
103.3660254037845
  0
LINE
  8
2
  6
CONTINUOUS
 10
-244.1846584384265
 20
103.3660254037845
 11
-245.2999756262
 21
103.3660254037845
  0
ARC
  8
2
  6
CONTINUOUS
 10
-248.3999878131
 20
108.4813583329448
 40
5.981363267272824
 50
238.7831503401893
 51
301.2168496598104
  0
ARC
  8
2
  6
CONTINUOUS
 10
-238.0
 20
125.0166604983951
 40
22.5166604983951
 50
254.0576313943712
 51
285.9423686056288
  0
ARC
  8
2
  6
CONTINUOUS
 10
-238.0
 20
93.98333950160414
 40
22.51666049839586
 50
74.05763139437173
 51
105.9423686056284
  0
ARC
  8
2
  6
CONTINUOUS
 10
-248.3999878131
 20
110.518641667055
 40
5.981363267273002
 50
58.78315034019094
 51
121.2168496598097
  0
LINE
  8
2
  6
CONTINUOUS
 10
-250.0
 20
100.5
 11
-250.0
 21
102.5
  0
LINE
  8
2
  6
CONTINUOUS
 10
-226.0
 20
100.5
 11
-250.0
 21
100.5
  0
LINE
  8
2
  6
CONTINUOUS
 10
-249.0
 20
99.31199999999998
 11
-249.0
 21
100.5
  0
LINE
  8
2
  6
CONTINUOUS
 10
-248.188
 20
98.5
 11
-249.0
 21
99.312
  0
LINE
  8
2
  6
CONTINUOUS
 10
-227.812
 20
98.5
 11
-248.188
 21
98.5
  0
LINE
  8
2
  6
CONTINUOUS
 10
-249.0
 20
99.312
 11
-227.0
 21
99.312
  0
LINE
  8
2
  6
CONTINUOUS
 10
-248.188
 20
96.5
 11
-248.188
 21
98.5
  0
LINE
  8
2
  6
CONTINUOUS
 10
-248.188
 20
98.5
 11
-248.188
 21
100.5
  0
LINE
  8
2
  6
CONTINUOUS
 10
-222.9888930010698
 20
95.33888683279848
 11
-225.0
 21
96.5
  0
LINE
  8
2
  6
CONTINUOUS
 10
-230.4944465005349
 20
95.33888683279848
 11
-230.4944465005349
 21
91.5
  0
ARC
  8
2
  6
CONTINUOUS
 10
-226.7416697508023
 20
89.85486085409987
 40
6.645139145900146
 50
64.38424746804145
 51
124.3842474680422
  0
LINE
  8
2
  6
CONTINUOUS
 10
-222.9888930010698
 20
95.33888683279848
 11
-222.9888930010698
 21
90.0
  0
LINE
  8
2
  6
CONTINUOUS
 10
-224.5
 20
115.6339745962156
 11
-226.0
 21
116.5
  0
LINE
  8
2
  6
CONTINUOUS
 10
-224.5
 20
115.6339745962156
 11
-224.5
 21
103.3660254037845
  0
LINE
  8
2
  6
CONTINUOUS
 10
-224.5
 20
103.3660254037845
 11
-226.0
 21
102.5
  0
LINE
  8
2
  6
CONTINUOUS
 10
-231.8153415615735
 20
115.6339745962156
 11
-231.8153415615735
 21
103.3660254037845
  0
LINE
  8
2
  6
CONTINUOUS
 10
-231.8153415615735
 20
103.3660254037845
 11
-230.7000243738
 21
103.3660254037845
  0
LINE
  8
2
  6
CONTINUOUS
 10
-230.7000243738
 20
115.6339745962156
 11
-230.7000243738
 21
103.3660254037845
  0
LINE
  8
2
  6
CONTINUOUS
 10
-230.7000243738
 20
115.6339745962156
 11
-231.8153415615735
 21
115.6339745962156
  0
ARC
  8
2
  6
CONTINUOUS
 10
-227.6000121869
 20
108.4813583329449
 40
5.98136326727291
 50
238.7831503401898
 51
301.2168496598102
  0
ARC
  8
2
  6
CONTINUOUS
 10
-227.6000121869
 20
110.5186416670551
 40
5.981363267272982
 50
58.78315034019019
 51
121.2168496598098
  0
LINE
  8
2
  6
CONTINUOUS
 10
-226.0
 20
100.5
 11
-226.0
 21
102.5
  0
LINE
  8
2
  6
CONTINUOUS
 10
-227.0
 20
99.312
 11
-227.812
 21
98.5
  0
LINE
  8
2
  6
CONTINUOUS
 10
-227.0
 20
99.312
 11
-227.0
 21
100.5
  0
LINE
  8
2
  6
CONTINUOUS
 10
-227.812
 20
96.5
 11
-227.812
 21
98.5
  0
LINE
  8
2
  6
CONTINUOUS
 10
-227.812
 20
98.5
 11
-227.812
 21
100.5
  0
LINE
  8
2
  6
CONTINUOUS
 10
-222.9888930010698
 20
91.5
 11
-253.0111069989303
 21
91.5
  0
LINE
  8
3
  6
CONTINUOUS
 10
-338.0
 20
84.0
 11
-338.0
 21
122.5
  0
LINE
  8
2
  6
CONTINUOUS
 10
-325.0
 20
96.5
 11
-322.9888930010698
 21
95.33888683279848
  0
LINE
  8
2
  6
CONTINUOUS
 10
-351.0
 20
96.5
 11
-325.0
 21
96.5
  0
LINE
  8
2
  6
CONTINUOUS
 10
-353.0111069989303
 20
95.33888683279848
 11
-351.0
 21
96.5
  0
ARC
  8
2
  6
CONTINUOUS
 10
-338.0
 20
71.66111316720139
 40
24.83888683279861
 50
72.41204622600637
 51
107.5879537739937
  0
LINE
  8
2
  6
CONTINUOUS
 10
-330.4944465005349
 20
95.33888683279848
 11
-330.4944465005349
 21
91.5
  0
LINE
  8
2
  6
CONTINUOUS
 10
-345.5055534994651
 20
95.33888683279848
 11
-345.5055534994651
 21
91.5
  0
ARC
  8
2
  6
CONTINUOUS
 10
-326.7416697508023
 20
89.85486085409966
 40
6.645139145900338
 50
64.38424746804225
 51
124.3842474680411
  0
ARC
  8
2
  6
CONTINUOUS
 10
-349.2583302491977
 20
89.85486085409966
 40
6.645139145900324
 50
55.61575253195889
 51
115.6157525319578
  0
LINE
  8
2
  6
CONTINUOUS
 10
-353.0111069989303
 20
91.5
 11
-322.9888930010698
 21
91.5
  0
LINE
  8
2
  6
CONTINUOUS
 10
-322.9888930010698
 20
95.33888683279848
 11
-322.9888930010698
 21
90.0
  0
LINE
  8
2
  6
CONTINUOUS
 10
-353.0111069989303
 20
95.33888683279848
 11
-353.0111069989303
 21
90.0
  0
LINE
  8
2
  6
CONTINUOUS
 10
-324.5
 20
115.6339745962156
 11
-324.5
 21
103.3660254037845
  0
LINE
  8
2
  6
CONTINUOUS
 10
-326.0
 20
116.5
 11
-324.5
 21
115.6339745962156
  0
LINE
  8
2
  6
CONTINUOUS
 10
-350.0
 20
116.5
 11
-326.0
 21
116.5
  0
LINE
  8
2
  6
CONTINUOUS
 10
-350.0
 20
102.5
 11
-326.0
 21
102.5
  0
LINE
  8
2
  6
CONTINUOUS
 10
-326.0
 20
102.5
 11
-324.5
 21
103.3660254037845
  0
LINE
  8
2
  6
CONTINUOUS
 10
-330.7000243738
 20
115.6339745962156
 11
-330.7000243738
 21
103.3660254037845
  0
LINE
  8
2
  6
CONTINUOUS
 10
-331.8153415615735
 20
115.6339745962156
 11
-330.7000243738
 21
115.6339745962156
  0
LINE
  8
2
  6
CONTINUOUS
 10
-331.8153415615735
 20
115.6339745962156
 11
-331.8153415615735
 21
103.3660254037845
  0
LINE
  8
2
  6
CONTINUOUS
 10
-331.8153415615735
 20
103.3660254037845
 11
-330.7000243738
 21
103.3660254037845
  0
ARC
  8
2
  6
CONTINUOUS
 10
-327.6000121869
 20
108.4813583329449
 40
5.981363267272929
 50
238.7831503401905
 51
301.2168496598101
  0
ARC
  8
2
  6
CONTINUOUS
 10
-338.0
 20
125.0166604983951
 40
22.5166604983951
 50
254.0576313943712
 51
285.9423686056288
  0
ARC
  8
2
  6
CONTINUOUS
 10
-338.0
 20
93.98333950160419
 40
22.51666049839581
 50
74.05763139437168
 51
105.9423686056283
  0
ARC
  8
2
  6
CONTINUOUS
 10
-327.6000121869
 20
110.5186416670551
 40
5.981363267272934
 50
58.78315034018991
 51
121.2168496598095
  0
LINE
  8
2
  6
CONTINUOUS
 10
-351.5
 20
115.6339745962156
 11
-350.0
 21
116.5
  0
LINE
  8
2
  6
CONTINUOUS
 10
-351.5
 20
115.6339745962156
 11
-351.5
 21
103.3660254037845
  0
LINE
  8
2
  6
CONTINUOUS
 10
-351.5
 20
103.3660254037845
 11
-350.0
 21
102.5
  0
LINE
  8
2
  6
CONTINUOUS
 10
-344.1846584384265
 20
115.6339745962156
 11
-344.1846584384265
 21
103.3660254037845
  0
LINE
  8
2
  6
CONTINUOUS
 10
-344.1846584384265
 20
103.3660254037845
 11
-345.2999756262
 21
103.3660254037845
  0
LINE
  8
2
  6
CONTINUOUS
 10
-345.2999756262
 20
115.6339745962156
 11
-345.2999756262
 21
103.3660254037845
  0
LINE
  8
2
  6
CONTINUOUS
 10
-345.2999756262
 20
115.6339745962156
 11
-344.1846584384265
 21
115.6339745962156
  0
ARC
  8
2
  6
CONTINUOUS
 10
-348.3999878131
 20
108.4813583329449
 40
5.98136326727291
 50
238.7831503401898
 51
301.2168496598102
  0
ARC
  8
2
  6
CONTINUOUS
 10
-348.3999878131
 20
110.5186416670551
 40
5.981363267272982
 50
58.78315034019019
 51
121.2168496598098
  0
LINE
  8
2
  6
CONTINUOUS
 10
-326.0
 20
100.5
 11
-326.0
 21
102.5
  0
LINE
  8
2
  6
CONTINUOUS
 10
-350.0
 20
100.5
 11
-326.0
 21
100.5
  0
LINE
  8
2
  6
CONTINUOUS
 10
-350.0
 20
100.5
 11
-350.0
 21
102.5
  0
LINE
  8
2
  6
CONTINUOUS
 10
-327.0
 20
99.31199999999998
 11
-327.0
 21
100.5
  0
LINE
  8
2
  6
CONTINUOUS
 10
-327.812
 20
98.5
 11
-327.0
 21
99.312
  0
LINE
  8
2
  6
CONTINUOUS
 10
-348.188
 20
98.5
 11
-327.812
 21
98.5
  0
LINE
  8
2
  6
CONTINUOUS
 10
-349.0
 20
99.312
 11
-348.188
 21
98.5
  0
LINE
  8
2
  6
CONTINUOUS
 10
-349.0
 20
99.312
 11
-349.0
 21
100.5
  0
LINE
  8
2
  6
CONTINUOUS
 10
-327.0
 20
99.312
 11
-349.0
 21
99.312
  0
LINE
  8
2
  6
CONTINUOUS
 10
-327.812
 20
96.5
 11
-327.812
 21
98.5
  0
LINE
  8
2
  6
CONTINUOUS
 10
-348.188
 20
96.5
 11
-348.188
 21
98.5
  0
LINE
  8
2
  6
CONTINUOUS
 10
-327.812
 20
98.5
 11
-327.812
 21
100.5
  0
LINE
  8
2
  6
CONTINUOUS
 10
-348.188
 20
98.5
 11
-348.188
 21
100.5
  0
LINE
  8
2
  6
CONTINUOUS
 10
-275.0
 20
96.5
 11
-272.9888930010698
 21
95.33888683279848
  0
LINE
  8
2
  6
CONTINUOUS
 10
-301.0
 20
96.5
 11
-275.0
 21
96.5
  0
ARC
  8
2
  6
CONTINUOUS
 10
-288.0
 20
71.66111316720139
 40
24.83888683279861
 50
72.41204622600637
 51
107.5879537739937
  0
LINE
  8
2
  6
CONTINUOUS
 10
-280.4944465005349
 20
95.33888683279848
 11
-280.4944465005349
 21
91.5
  0
ARC
  8
2
  6
CONTINUOUS
 10
-276.7416697508023
 20
89.85486085409966
 40
6.645139145900338
 50
64.38424746804225
 51
124.3842474680411
  0
LINE
  8
2
  6
CONTINUOUS
 10
-303.0111069989303
 20
91.5
 11
-272.9888930010698
 21
91.5
  0
LINE
  8
2
  6
CONTINUOUS
 10
-272.9888930010698
 20
95.33888683279848
 11
-272.9888930010698
 21
90.0
  0
LINE
  8
2
  6
CONTINUOUS
 10
-274.5
 20
115.6339745962156
 11
-274.5
 21
103.3660254037845
  0
LINE
  8
2
  6
CONTINUOUS
 10
-276.0
 20
116.5
 11
-274.5
 21
115.6339745962156
  0
LINE
  8
2
  6
CONTINUOUS
 10
-300.0
 20
116.5
 11
-276.0
 21
116.5
  0
LINE
  8
2
  6
CONTINUOUS
 10
-300.0
 20
102.5
 11
-276.0
 21
102.5
  0
LINE
  8
2
  6
CONTINUOUS
 10
-276.0
 20
102.5
 11
-274.5
 21
103.3660254037845
  0
LINE
  8
2
  6
CONTINUOUS
 10
-280.7000243738
 20
115.6339745962156
 11
-280.7000243738
 21
103.3660254037845
  0
LINE
  8
2
  6
CONTINUOUS
 10
-281.8153415615735
 20
115.6339745962156
 11
-280.7000243738
 21
115.6339745962156
  0
LINE
  8
2
  6
CONTINUOUS
 10
-281.8153415615735
 20
115.6339745962156
 11
-281.8153415615735
 21
103.3660254037845
  0
LINE
  8
2
  6
CONTINUOUS
 10
-281.8153415615735
 20
103.3660254037845
 11
-280.7000243738
 21
103.3660254037845
  0
ARC
  8
2
  6
CONTINUOUS
 10
-277.6000121869
 20
108.4813583329449
 40
5.981363267272929
 50
238.7831503401905
 51
301.2168496598101
  0
ARC
  8
2
  6
CONTINUOUS
 10
-288.0
 20
125.0166604983951
 40
22.5166604983951
 50
254.0576313943712
 51
285.9423686056288
  0
ARC
  8
2
  6
CONTINUOUS
 10
-288.0
 20
93.98333950160419
 40
22.51666049839581
 50
74.05763139437168
 51
105.9423686056283
  0
ARC
  8
2
  6
CONTINUOUS
 10
-277.6000121869
 20
110.5186416670551
 40
5.981363267272934
 50
58.78315034018991
 51
121.2168496598095
  0
LINE
  8
2
  6
CONTINUOUS
 10
-276.0
 20
100.5
 11
-276.0
 21
102.5
  0
LINE
  8
2
  6
CONTINUOUS
 10
-300.0
 20
100.5
 11
-276.0
 21
100.5
  0
LINE
  8
2
  6
CONTINUOUS
 10
-277.0
 20
99.31199999999998
 11
-277.0
 21
100.5
  0
LINE
  8
2
  6
CONTINUOUS
 10
-277.812
 20
98.5
 11
-277.0
 21
99.312
  0
LINE
  8
2
  6
CONTINUOUS
 10
-298.188
 20
98.5
 11
-277.812
 21
98.5
  0
LINE
  8
2
  6
CONTINUOUS
 10
-277.0
 20
99.312
 11
-299.0
 21
99.312
  0
LINE
  8
2
  6
CONTINUOUS
 10
-277.812
 20
96.5
 11
-277.812
 21
98.5
  0
LINE
  8
2
  6
CONTINUOUS
 10
-277.812
 20
98.5
 11
-277.812
 21
100.5
  0
LINE
  8
2
  6
CONTINUOUS
 10
-303.0111069989303
 20
95.33888683279848
 11
-301.0
 21
96.5
  0
LINE
  8
2
  6
CONTINUOUS
 10
-295.5055534994651
 20
95.33888683279848
 11
-295.5055534994651
 21
91.5
  0
ARC
  8
2
  6
CONTINUOUS
 10
-299.2583302491977
 20
89.85486085409966
 40
6.645139145900324
 50
55.61575253195889
 51
115.6157525319578
  0
LINE
  8
2
  6
CONTINUOUS
 10
-303.0111069989303
 20
95.33888683279848
 11
-303.0111069989303
 21
90.0
  0
LINE
  8
2
  6
CONTINUOUS
 10
-301.5
 20
115.6339745962156
 11
-300.0
 21
116.5
  0
LINE
  8
2
  6
CONTINUOUS
 10
-301.5
 20
115.6339745962156
 11
-301.5
 21
103.3660254037845
  0
LINE
  8
2
  6
CONTINUOUS
 10
-301.5
 20
103.3660254037845
 11
-300.0
 21
102.5
  0
LINE
  8
2
  6
CONTINUOUS
 10
-294.1846584384265
 20
115.6339745962156
 11
-294.1846584384265
 21
103.3660254037845
  0
LINE
  8
2
  6
CONTINUOUS
 10
-294.1846584384265
 20
103.3660254037845
 11
-295.2999756262
 21
103.3660254037845
  0
LINE
  8
2
  6
CONTINUOUS
 10
-295.2999756262
 20
115.6339745962156
 11
-295.2999756262
 21
103.3660254037845
  0
LINE
  8
2
  6
CONTINUOUS
 10
-295.2999756262
 20
115.6339745962156
 11
-294.1846584384265
 21
115.6339745962156
  0
ARC
  8
2
  6
CONTINUOUS
 10
-298.3999878131
 20
108.4813583329449
 40
5.98136326727291
 50
238.7831503401898
 51
301.2168496598102
  0
ARC
  8
2
  6
CONTINUOUS
 10
-298.3999878131
 20
110.5186416670551
 40
5.981363267272982
 50
58.78315034019019
 51
121.2168496598098
  0
LINE
  8
2
  6
CONTINUOUS
 10
-300.0
 20
100.5
 11
-300.0
 21
102.5
  0
LINE
  8
2
  6
CONTINUOUS
 10
-299.0
 20
99.312
 11
-298.188
 21
98.5
  0
LINE
  8
2
  6
CONTINUOUS
 10
-299.0
 20
99.312
 11
-299.0
 21
100.5
  0
LINE
  8
2
  6
CONTINUOUS
 10
-298.188
 20
96.5
 11
-298.188
 21
98.5
  0
LINE
  8
2
  6
CONTINUOUS
 10
-298.188
 20
98.5
 11
-298.188
 21
100.5
  0
LINE
  8
3
  6
CONTINUOUS
 10
-338.0
 20
-84.0
 11
-338.0
 21
-122.5
  0
LINE
  8
2
  6
CONTINUOUS
 10
-378.0
 20
-200.0
 11
-198.0
 21
-200.0
  0
LINE
  8
2
  6
CONTINUOUS
 10
-378.0
 20
-205.0
 11
-198.0
 21
-205.0
  0
LINE
  8
2
  6
CONTINUOUS
 10
-198.0
 20
-213.0
 11
-198.0
 21
-200.0
  0
LINE
  8
2
  6
CONTINUOUS
 10
-378.0
 20
-213.0
 11
-378.0
 21
-200.0
  0
CIRCLE
  8
2
  6
CONTINUOUS
 10
-338.0
 20
-230.0
 40
15.01110699893025
  0
LINE
  8
2
  6
CONTINUOUS
 10
-322.0
 20
-213.0
 11
-322.0
 21
-230.0
  0
LINE
  8
2
  6
CONTINUOUS
 10
-354.0
 20
-213.0
 11
-354.0
 21
-230.0
  0
ARC
  8
2
  6
CONTINUOUS
 10
-338.0
 20
-230.0
 40
16.0
 50
180.0
 51
0.0
  0
LINE
  8
2
  6
CONTINUOUS
 10
-378.0
 20
-213.0
 11
-354.0
 21
-213.0
  0
LINE
  8
2
  6
CONTINUOUS
 10
-322.0
 20
-213.0
 11
-254.0
 21
-213.0
  0
ARC
  8
2
  6
CONTINUOUS
 10
-238.0000000000089
 20
-229.9999999999999
 40
13.49999999999108
 50
177.2660444507315
 51
180.0000000000006
  0
ARC
  8
2
  6
CONTINUOUS
 10
-238.0000000000008
 20
-230.0000000000013
 40
13.4999999999985
 50
237.266044450733
 51
242.7339555492675
  0
LINE
  8
2
  6
CONTINUOUS
 10
-251.4846340646266
 20
-230.6439286785928
 11
-245.2999756262
 21
-241.3560713214072
  0
ARC
  8
2
  6
CONTINUOUS
 10
-238.0000000000053
 20
-230.0
 40
13.49999999999477
 50
177.2660444507319
 51
182.7339555492681
  0
LINE
  8
2
  6
CONTINUOUS
 10
-245.2999756262
 20
-218.6439286785928
 11
-251.4846340646266
 21
-229.3560713214072
  0
ARC
  8
2
  6
CONTINUOUS
 10
-237.9999999999967
 20
-230.0000000000057
 40
13.50000000000657
 50
117.2660444507343
 51
122.7339555492659
  0
LINE
  8
2
  6
CONTINUOUS
 10
-231.8153415615735
 20
-218.0
 11
-244.1846584384265
 21
-218.0
  0
ARC
  8
2
  6
CONTINUOUS
 10
-237.9999999999944
 20
-229.9999999999903
 40
13.49999999998883
 50
57.266044450731
 51
62.73395554926966
  0
LINE
  8
2
  6
CONTINUOUS
 10
-224.5153659353735
 20
-229.3560713214072
 11
-230.7000243738
 21
-218.6439286785928
  0
ARC
  8
2
  6
CONTINUOUS
 10
-237.9999999999947
 20
-230.0
 40
13.49999999999477
 50
357.2660444507319
 51
2.733955549268097
  0
LINE
  8
2
  6
CONTINUOUS
 10
-230.7000243738
 20
-241.3560713214072
 11
-224.5153659353735
 21
-230.6439286785928
  0
ARC
  8
2
  6
CONTINUOUS
 10
-237.9999999999992
 20
-230.0000000000013
 40
13.4999999999985
 50
297.2660444507325
 51
302.733955549267
  0
LINE
  8
2
  6
CONTINUOUS
 10
-244.1846584384265
 20
-242.0
 11
-231.8153415615735
 21
-242.0
  0
CIRCLE
  8
2
  6
CONTINUOUS
 10
-238.0
 20
-230.0
 40
12.0
  0
POLYLINE
  8
2
  6
CONTINUOUS
 66
     1
 70
     0
 40
0.0
 41
0.0
  0
VERTEX
  8
2
 10
-253.0111069989303
 20
-230.0
  0
VERTEX
  8
2
 10
-245.5055534994651
 20
-217.0
  0
VERTEX
  8
2
 10
-230.4944465005349
 20
-217.0
  0
VERTEX
  8
2
 10
-222.9888930010698
 20
-230.0
  0
VERTEX
  8
2
 10
-230.4944465005349
 20
-243.0
  0
VERTEX
  8
2
 10
-245.5055534994651
 20
-243.0
  0
VERTEX
  8
2
 10
-253.0111069989303
 20
-230.0
  0
SEQEND
  8
2
  0
ARC
  8
2
  6
CONTINUOUS
 10
-238.0
 20
-230.0
 40
13.0
 50
67.38013505195957
 51
112.6198649480404
  0
ARC
  8
2
  6
CONTINUOUS
 10
-238.0
 20
-230.0
 40
12.99999999999999
 50
7.380135051959367
 51
52.6198649480404
  0
ARC
  8
2
  6
CONTINUOUS
 10
-238.0000000000001
 20
-229.9999999999999
 40
13.00000000000015
 50
307.3801350519597
 51
352.6198649480402
  0
ARC
  8
2
  6
CONTINUOUS
 10
-238.0
 20
-230.0
 40
13.00000000000003
 50
247.3801350519596
 51
292.6198649480405
  0
ARC
  8
2
  6
CONTINUOUS
 10
-238.0000000000001
 20
-230.0000000000001
 40
12.99999999999988
 50
187.3801350519593
 51
232.6198649480408
  0
ARC
  8
2
  6
CONTINUOUS
 10
-237.9999999999999
 20
-230.0000000000001
 40
13.00000000000015
 50
127.3801350519597
 51
172.6198649480402
  0
CIRCLE
  8
2
  6
CONTINUOUS
 10
-238.0
 20
-230.0
 40
15.01110699893027
  0
ARC
  8
2
  6
CONTINUOUS
 10
-238.0
 20
-230.0
 40
16.0
 50
180.0
 51
0.0
  0
LINE
  8
2
  6
CONTINUOUS
 10
-254.0
 20
-213.0
 11
-254.0
 21
-230.0
  0
LINE
  8
2
  6
CONTINUOUS
 10
-222.0
 20
-213.0
 11
-222.0
 21
-230.0
  0
LINE
  8
2
  6
CONTINUOUS
 10
-198.0
 20
-213.0
 11
-222.0
 21
-213.0
  0
LINE
  8
2
  6
CONTINUOUS
 10
-368.0
 20
-261.0
 11
-368.0
 21
-216.0
  0
LINE
  8
2
  6
CONTINUOUS
 10
-208.0
 20
-261.0
 11
-208.0
 21
-216.0
  0
ARC
  8
2
  6
CONTINUOUS
 10
-205.0
 20
-216.0
 40
3.000000000000028
 50
90.0
 51
179.9999999999995
  0
ARC
  8
2
  6
CONTINUOUS
 10
-371.0
 20
-216.0
 40
3.0
 50
359.9999999999994
 51
90.0
  0
LINE
  8
2
  6
CONTINUOUS
 10
-365.0
 20
-264.0
 11
-211.0
 21
-264.0
  0
ARC
  8
2
  6
CONTINUOUS
 10
-211.0
 20
-261.0
 40
3.0
 50
270.0
 51
0.0
  0
ARC
  8
2
  6
CONTINUOUS
 10
-365.0000000000001
 20
-261.0000000000001
 40
2.999999999999943
 50
179.9999999999989
 51
270.0
  0
CIRCLE
  8
2
  6
CONTINUOUS
 10
-238.0
 20
-230.0
 40
7.25
  0
CIRCLE
  8
2
  6
CONTINUOUS
 10
-338.0
 20
-230.0
 40
7.25
  0
CIRCLE
  8
2
  6
CONTINUOUS
 10
-338.0
 20
-230.0
 40
5.5
  0
CIRCLE
  8
2
  6
CONTINUOUS
 10
-238.0
 20
-230.0
 40
5.5
  0
LINE
  8
2
  6
CONTINUOUS
 10
-236.0
 20
-265.0
 11
-183.0
 21
-265.0
  0
LINE
  8
2
  6
CONTINUOUS
 10
-182.0
 20
-264.0
 11
-182.0
 21
-257.0
  0
LINE
  8
2
  6
CONTINUOUS
 10
-203.0
 20
-257.0
 11
-182.0
 21
-257.0
  0
ARC
  8
2
  6
CONTINUOUS
 10
-183.0
 20
-264.0
 40
1.0
 50
270.0
 51
0.0
  0
ARC
  8
2
  6
CONTINUOUS
 10
-236.0
 20
-264.0
 40
0.9999999999999716
 50
180.0
 51
270.0
  0
ARC
  8
2
  6
CONTINUOUS
 10
-203.0
 20
-252.0
 40
4.999999999999972
 50
179.9999999999997
 51
270.0
  0
ARC
  8
2
  6
CONTINUOUS
 10
-393.0
 20
-264.0
 40
1.0
 50
180.0
 51
270.0
  0
LINE
  8
2
  6
CONTINUOUS
 10
-340.0
 20
-265.0
 11
-393.0
 21
-265.0
  0
ARC
  8
2
  6
CONTINUOUS
 10
-373.0000000000001
 20
-252.0
 40
5.000000000000028
 50
270.0
 51
359.9999999999997
  0
LINE
  8
2
  6
CONTINUOUS
 10
-394.0
 20
-264.0
 11
-394.0
 21
-257.0
  0
LINE
  8
2
  6
CONTINUOUS
 10
-373.0
 20
-257.0
 11
-394.0
 21
-257.0
  0
ARC
  8
2
  6
CONTINUOUS
 10
-340.0
 20
-264.0
 40
1.0
 50
270.0
 51
0.0
  0
LINE
  8
3
  6
CONTINUOUS
 10
-288.0
 20
84.0
 11
-288.0
 21
122.5
  0
LINE
  8
3
  6
CONTINUOUS
 10
-259.0111069989303
 20
-230.0
 11
-216.9888930010698
 21
-230.0
  0
LINE
  8
3
  6
CONTINUOUS
 10
-238.0
 20
-251.0111069989303
 11
-238.0
 21
-208.9888930010697
  0
LINE
  8
3
  6
CONTINUOUS
 10
-359.0111069989303
 20
-230.0
 11
-316.9888930010698
 21
-230.0
  0
LINE
  8
3
  6
CONTINUOUS
 10
-338.0
 20
-251.0111069989303
 11
-338.0
 21
-208.9888930010697
  0
LINE
  8
3
  6
CONTINUOUS
 10
-393.0
 20
0.0
 11
-375.0
 21
0.0
  0
LINE
  8
3
  6
CONTINUOUS
 10
-384.0
 20
-9.0
 11
-384.0
 21
9.0
  0
LINE
  8
3
  6
CONTINUOUS
 10
-201.0
 20
0.0
 11
-183.0
 21
0.0
  0
LINE
  8
3
  6
CONTINUOUS
 10
-192.0
 20
-9.0
 11
-192.0
 21
9.0
  0
INSERT
  8
2
  6
CONTINUOUS
  2
COMP1
 10
0.0
 20
0.0
 41
1.0
 42
1.0
 50
0.0
  0
LINE
  8
3
  6
CONTINUOUS
 10
-288.0
 20
-270.0
 11
-288.0
 21
-194.0
  0
CIRCLE
  8
2
  6
CONTINUOUS
 10
-371.0
 20
-83.0
 40
4.25
  0
CIRCLE
  8
2
  6
CONTINUOUS
 10
-371.0
 20
-83.0
 40
3.75
  0
LINE
  8
2
  6
CONTINUOUS
 10
-366.75
 20
-200.0
 11
-366.75
 21
-195.5
  0
LINE
  8
2
  6
CONTINUOUS
 10
-375.25
 20
-200.0
 11
-375.25
 21
-195.5
  0
CIRCLE
  8
2
  6
CONTINUOUS
 10
-205.0
 20
-83.0
 40
4.25
  0
CIRCLE
  8
2
  6
CONTINUOUS
 10
-205.0
 20
-83.0
 40
3.75
  0
CIRCLE
  8
2
  6
CONTINUOUS
 10
-205.0
 20
83.0
 40
4.25
  0
CIRCLE
  8
2
  6
CONTINUOUS
 10
-205.0
 20
83.0
 40
3.75
  0
CIRCLE
  8
2
  6
CONTINUOUS
 10
-371.0
 20
83.0
 40
4.25
  0
CIRCLE
  8
2
  6
CONTINUOUS
 10
-371.0
 20
83.0
 40
3.75
  0
POLYLINE
  8
2
  6
CONTINUOUS
 66
     1
 70
     0
 40
0.0
 41
0.0
  0
VERTEX
  8
2
 10
-368.6905989232415
 20
-83.0
  0
VERTEX
  8
2
 10
-369.8452994616208
 20
-81.0
  0
VERTEX
  8
2
 10
-372.1547005383793
 20
-81.0
  0
VERTEX
  8
2
 10
-373.3094010767585
 20
-83.0
  0
VERTEX
  8
2
 10
-372.1547005383793
 20
-85.0
  0
VERTEX
  8
2
 10
-369.8452994616208
 20
-85.0
  0
VERTEX
  8
2
 10
-368.6905989232415
 20
-83.0
  0
SEQEND
  8
2
  0
POLYLINE
  8
2
  6
CONTINUOUS
 66
     1
 70
     0
 40
0.0
 41
0.0
  0
VERTEX
  8
2
 10
-202.6905989232415
 20
-83.0
  0
VERTEX
  8
2
 10
-203.8452994616208
 20
-81.0
  0
VERTEX
  8
2
 10
-206.1547005383793
 20
-81.0
  0
VERTEX
  8
2
 10
-207.3094010767585
 20
-83.0
  0
VERTEX
  8
2
 10
-206.1547005383793
 20
-85.0
  0
VERTEX
  8
2
 10
-203.8452994616208
 20
-85.0
  0
VERTEX
  8
2
 10
-202.6905989232415
 20
-83.0
  0
SEQEND
  8
2
  0
POLYLINE
  8
2
  6
CONTINUOUS
 66
     1
 70
     0
 40
0.0
 41
0.0
  0
VERTEX
  8
2
 10
-202.6905989232415
 20
83.0
  0
VERTEX
  8
2
 10
-203.8452994616208
 20
85.0
  0
VERTEX
  8
2
 10
-206.1547005383793
 20
85.0
  0
VERTEX
  8
2
 10
-207.3094010767585
 20
83.0
  0
VERTEX
  8
2
 10
-206.1547005383793
 20
81.0
  0
VERTEX
  8
2
 10
-203.8452994616208
 20
81.0
  0
VERTEX
  8
2
 10
-202.6905989232415
 20
83.0
  0
SEQEND
  8
2
  0
POLYLINE
  8
2
  6
CONTINUOUS
 66
     1
 70
     0
 40
0.0
 41
0.0
  0
VERTEX
  8
2
 10
-368.6905989232415
 20
83.0
  0
VERTEX
  8
2
 10
-369.8452994616208
 20
85.0
  0
VERTEX
  8
2
 10
-372.1547005383793
 20
85.0
  0
VERTEX
  8
2
 10
-373.3094010767585
 20
83.0
  0
VERTEX
  8
2
 10
-372.1547005383793
 20
81.0
  0
VERTEX
  8
2
 10
-369.8452994616208
 20
81.0
  0
VERTEX
  8
2
 10
-368.6905989232415
 20
83.0
  0
SEQEND
  8
2
  0
LINE
  8
2
  6
CONTINUOUS
 10
-374.75
 20
-195.0
 11
-367.25
 21
-195.0
  0
LINE
  8
2
  6
CONTINUOUS
 10
-366.75
 20
-195.5
 11
-367.25
 21
-195.0
  0
LINE
  8
2
  6
CONTINUOUS
 10
-375.25
 20
-195.5
 11
-374.75
 21
-195.0
  0
LINE
  8
2
  6
CONTINUOUS
 10
-366.75
 20
-195.5
 11
-375.25
 21
-195.5
  0
LINE
  8
2
  6
CONTINUOUS
 10
-209.25
 20
-200.0
 11
-209.25
 21
-195.5
  0
LINE
  8
2
  6
CONTINUOUS
 10
-209.25
 20
-195.5
 11
-208.75
 21
-195.0
  0
LINE
  8
2
  6
CONTINUOUS
 10
-200.75
 20
-200.0
 11
-200.75
 21
-195.5
  0
LINE
  8
2
  6
CONTINUOUS
 10
-201.25
 20
-195.0
 11
-208.75
 21
-195.0
  0
LINE
  8
2
  6
CONTINUOUS
 10
-200.75
 20
-195.5
 11
-201.25
 21
-195.0
  0
LINE
  8
2
  6
CONTINUOUS
 10
-209.25
 20
-195.5
 11
-200.75
 21
-195.5
  0
LINE
  8
2
  6
CONTINUOUS
 10
-48.55652713594454
 20
-115.0661847704079
 11
-44.71764030314604
 21
-115.0661847704079
  0
LINE
  8
2
  6
CONTINUOUS
 10
-48.55652713594454
 20
-115.0661847704079
 11
-49.71764030314604
 21
-117.0772917693382
  0
LINE
  8
3
  6
CONTINUOUS
 10
-28.71764030314604
 20
-130.0772917693382
 11
-51.71764030314604
 21
-130.0772917693382
  0
LINE
  8
2
  6
CONTINUOUS
 10
-49.71764030314604
 20
-117.0772917693382
 11
-49.71764030314604
 21
-143.0772917693382
  0
LINE
  8
2
  6
CONTINUOUS
 10
-44.71764030314604
 20
-115.0661847704079
 11
-44.71764030314604
 21
-145.0883987682685
  0
LINE
  8
2
  6
CONTINUOUS
 10
-31.87964030314604
 20
-119.5997917693382
 11
-42.71764030314604
 21
-119.5997917693382
  0
LINE
  8
2
  6
CONTINUOUS
 10
-31.87964030314604
 20
-119.5997917693382
 11
-30.71764030314604
 21
-120.7617917693382
  0
LINE
  8
2
  6
CONTINUOUS
 10
-30.71764030314604
 20
-120.7617917693382
 11
-42.71764030314604
 21
-120.7617917693382
  0
LINE
  8
2
  6
CONTINUOUS
 10
-42.71764030314604
 20
-120.7617917693382
 11
-44.71764030314604
 21
-120.7617917693382
  0
LINE
  8
2
  6
CONTINUOUS
 10
-42.71764030314604
 20
-119.5997917693382
 11
-42.71764030314604
 21
-140.5547917693382
  0
LINE
  8
2
  6
CONTINUOUS
 10
-30.71764030314604
 20
-120.7617917693382
 11
-30.71764030314604
 21
-139.3927917693382
  0
LINE
  8
2
  6
CONTINUOUS
 10
-48.55652713594454
 20
-145.0883987682685
 11
-49.71764030314604
 21
-143.0772917693382
  0
LINE
  8
2
  6
CONTINUOUS
 10
-31.87964030314604
 20
-140.5547917693382
 11
-30.71764030314604
 21
-139.3927917693382
  0
LINE
  8
2
  6
CONTINUOUS
 10
-31.87964030314604
 20
-140.5547917693382
 11
-42.71764030314604
 21
-140.5547917693382
  0
LINE
  8
2
  6
CONTINUOUS
 10
-48.55652713594454
 20
-145.0883987682685
 11
-44.71764030314604
 21
-145.0883987682685
  0
LINE
  8
2
  6
CONTINUOUS
 10
-30.71764030314604
 20
-139.3927917693382
 11
-42.71764030314604
 21
-139.3927917693382
  0
LINE
  8
2
  6
CONTINUOUS
 10
-42.71764030314604
 20
-139.3927917693382
 11
-44.71764030314604
 21
-139.3927917693382
  0
LINE
  8
2
  6
CONTINUOUS
 10
-92.21764030314604
 20
-115.0661847704079
 11
-105.217640303146
 21
-122.5717382698731
  0
LINE
  8
2
  6
CONTINUOUS
 10
-105.217640303146
 20
-122.5717382698731
 11
-105.217640303146
 21
-137.5828452688033
  0
LINE
  8
2
  6
CONTINUOUS
 10
-105.217640303146
 20
-137.5828452688033
 11
-92.21764030314604
 21
-145.0883987682685
  0
LINE
  8
2
  6
CONTINUOUS
 10
-92.21764030314604
 20
-145.0883987682685
 11
-79.21764030314604
 21
-137.5828452688034
  0
LINE
  8
2
  6
CONTINUOUS
 10
-79.21764030314604
 20
-137.5828452688034
 11
-79.21764030314604
 21
-122.5717382698731
  0
LINE
  8
2
  6
CONTINUOUS
 10
-79.21764030314604
 20
-122.5717382698731
 11
-92.21764030314604
 21
-115.0661847704079
  0
CIRCLE
  8
2
  6
CONTINUOUS
 10
-92.21764030314604
 20
-130.0772917693382
 40
13.0
  0
LINE
  8
2
  6
CONTINUOUS
 10
-48.55652713594454
 20
-122.5717382698731
 11
-44.71764030314604
 21
-122.5717382698731
  0
LINE
  8
2
  6
CONTINUOUS
 10
-48.55652713594454
 20
-137.5828452688034
 11
-44.71764030314604
 21
-137.5828452688034
  0
ARC
  8
2
  6
CONTINUOUS
 10
-43.07250115724585
 20
-118.8189615201405
 40
6.645139145900164
 50
154.3842474680415
 51
214.3842474680417
  0
ARC
  8
2
  6
CONTINUOUS
 10
-24.8787534703477
 20
-130.0772917693382
 40
24.83888683279836
 50
162.4120462260061
 51
197.5879537739938
  0
ARC
  8
2
  6
CONTINUOUS
 10
-43.07250115724586
 20
-141.3356220185359
 40
6.645139145900219
 50
145.6157525319583
 51
205.6157525319583
  0
LINE
  8
2
  6
CONTINUOUS
 10
-31.87964030314604
 20
-119.5997917693382
 11
-31.87964030314604
 21
-140.5547917693382
  0
LINE
  8
3
  6
CONTINUOUS
 10
-107.217640303146
 20
-130.0772917693382
 11
-77.21764030314604
 21
-130.0772917693382
  0
LINE
  8
3
  6
CONTINUOUS
 10
-92.21764030314604
 20
-147.0883987682685
 11
-92.21764030314604
 21
-113.0661847704079
  0
POLYLINE
  8
5
  6
CONTINUOUS
 66
     1
 70
     0
 40
0.0
 41
0.0
  0
VERTEX
  8
5
 10
-124.0960592303609
 20
-99.21088614140001
  0
VERTEX
  8
5
 10
-13.53360628438553
 20
-99.21088614140001
  0
VERTEX
  8
5
 10
-13.53360628438553
 20
-173.8468669630539
  0
VERTEX
  8
5
 10
-124.0960592303609
 20
-173.8468669630539
  0
VERTEX
  8
5
 10
-124.0960592303609
 20
-99.21088614140001
  0
SEQEND
  8
5
  0
POLYLINE
  8
4
  6
CONTINUOUS
 66
     1
 70
     0
 40
0.0
 41
0.0
  0
VERTEX
  8
4
 10
-85.56983184814453
 20
-157.2459716796875
  0
VERTEX
  8
4
 10
-84.25733184814453
 20
-157.7147216796875
  0
SEQEND
  8
4
  0
POLYLINE
  8
4
  6
CONTINUOUS
 66
     1
 70
     0
 40
0.0
 41
0.0
  0
VERTEX
  8
4
 10
-85.75733184814453
 20
-158.8397216796875
  0
VERTEX
  8
4
 10
-84.44483184814453
 20
-159.2147216796875
  0
SEQEND
  8
4
  0
POLYLINE
  8
4
  6
CONTINUOUS
 66
     1
 70
     0
 40
0.0
 41
0.0
  0
VERTEX
  8
4
 10
-85.66358184814453
 20
-161.4647216796875
 42
0.2042364610766488
  0
VERTEX
  8
4
 10
-81.63233184814453
 20
-158.9334716796875
  0
SEQEND
  8
4
  0
POLYLINE
  8
4
  6
CONTINUOUS
 66
     1
 70
     0
 40
0.0
 41
0.0
  0
VERTEX
  8
4
 10
-79.56983184814453
 20
-159.2147216796875
  0
VERTEX
  8
4
 10
-79.10108184814453
 20
-159.3084716796875
  0
VERTEX
  8
4
 10
-74.41358184814453
 20
-159.3084716796875
  0
SEQEND
  8
4
  0
POLYLINE
  8
4
  6
CONTINUOUS
 66
     1
 70
     0
 40
0.0
 41
0.0
  0
VERTEX
  8
4
 10
-71.03858184814453
 20
-157.5272216796875
  0
VERTEX
  8
4
 10
-71.03858184814453
 20
-158.1834716796875
  0
SEQEND
  8
4
  0
POLYLINE
  8
4
  6
CONTINUOUS
 66
     1
 70
     0
 40
0.0
 41
0.0
  0
VERTEX
  8
4
 10
-69.53858184814453
 20
-157.2459716796875
  0
VERTEX
  8
4
 10
-69.53858184814453
 20
-161.2772216796875
  0
SEQEND
  8
4
  0
POLYLINE
  8
4
  6
CONTINUOUS
 66
     1
 70
     0
 40
0.0
 41
0.0
  0
VERTEX
  8
4
 10
-67.28858184814453
 20
-159.3084716796875
 42
-0.2864583333333332
  0
VERTEX
  8
4
 10
-69.53858184814453
 20
-161.2772216796875
  0
SEQEND
  8
4
  0
POLYLINE
  8
4
  6
CONTINUOUS
 66
     1
 70
     0
 40
0.0
 41
0.0
  0
VERTEX
  8
4
 10
-72.35108184814453
 20
-161.1834716796875
 42
0.2431846149412835
  0
VERTEX
  8
4
 10
-71.03858184814453
 20
-158.1834716796875
  0
SEQEND
  8
4
  0
POLYLINE
  8
4
  6
CONTINUOUS
 66
     1
 70
     0
 40
0.0
 41
0.0
  0
VERTEX
  8
4
 10
-61.38233184814453
 20
-157.4334716796875
  0
VERTEX
  8
4
 10
-65.50733184814453
 20
-157.4334716796875
  0
SEQEND
  8
4
  0
POLYLINE
  8
4
  6
CONTINUOUS
 66
     1
 70
     0
 40
0.0
 41
0.0
  0
VERTEX
  8
4
 10
-59.78858184814453
 20
-156.8709716796875
 42
0.9999999999999999
  0
VERTEX
  8
4
 10
-60.91358184814453
 20
-156.8709716796875
 42
0.9999999999999999
  0
VERTEX
  8
4
 10
-59.78858184814453
 20
-156.8709716796875
  0
SEQEND
  8
4
  0
POLYLINE
  8
4
  6
CONTINUOUS
 66
     1
 70
     0
 40
0.0
 41
0.0
  0
VERTEX
  8
4
 10
-64.47608184814453
 20
-161.3709716796875
 42
0.4118697494452291
  0
VERTEX
  8
4
 10
-61.38233184814453
 20
-157.4334716796875
  0
SEQEND
  8
4
  0
POLYLINE
  8
4
  6
CONTINUOUS
 66
     1
 70
     0
 40
0.0
 41
0.0
  0
VERTEX
  8
4
 10
-57.35108184814453
 20
-157.1522216796875
  0
VERTEX
  8
4
 10
-53.97608184814453
 20
-157.1522216796875
  0
SEQEND
  8
4
  0
POLYLINE
  8
4
  6
CONTINUOUS
 66
     1
 70
     0
 40
0.0
 41
0.0
  0
VERTEX
  8
4
 10
-57.63233184814453
 20
-158.5584716796875
  0
VERTEX
  8
4
 10
-53.50733184814453
 20
-158.5584716796875
  0
SEQEND
  8
4
  0
POLYLINE
  8
4
  6
CONTINUOUS
 66
     1
 70
     0
 40
0.0
 41
0.0
  0
VERTEX
  8
4
 10
-56.78858184814453
 20
-161.5584716796875
 42
0.4139408232705142
  0
VERTEX
  8
4
 10
-53.50733184814453
 20
-158.5584716796875
  0
SEQEND
  8
4
  0
POLYLINE
  8
4
  6
CONTINUOUS
 66
     1
 70
     0
 40
0.0
 41
0.0
  0
VERTEX
  8
4
 10
-49.56983184814453
 20
-157.0584716796875
  0
VERTEX
  8
4
 10
-46.94483184814453
 20
-157.0584716796875
  0
SEQEND
  8
4
  0
POLYLINE
  8
4
  6
CONTINUOUS
 66
     1
 70
     0
 40
0.0
 41
0.0
  0
VERTEX
  8
4
 10
-45.53858184814453
 20
-156.9647216796875
  0
VERTEX
  8
4
 10
-46.10108184814453
 20
-156.2147216796875
  0
SEQEND
  8
4
  0
POLYLINE
  8
4
  6
CONTINUOUS
 66
     1
 70
     0
 40
0.0
 41
0.0
  0
VERTEX
  8
4
 10
-46.28858184814453
 20
-156.9647216796875
  0
VERTEX
  8
4
 10
-46.75733184814453
 20
-156.2147216796875
  0
SEQEND
  8
4
  0
POLYLINE
  8
4
  6
CONTINUOUS
 66
     1
 70
     0
 40
0.0
 41
0.0
  0
VERTEX
  8
4
 10
-49.56983184814453
 20
-157.0584716796875
 42
-0.1058315368958192
  0
VERTEX
  8
4
 10
-51.06983184814453
 20
-158.8397216796875
  0
SEQEND
  8
4
  0
POLYLINE
  8
4
  6
CONTINUOUS
 66
     1
 70
     0
 40
0.0
 41
0.0
  0
VERTEX
  8
4
 10
-46.94483184814453
 20
-157.0584716796875
 42
-0.3202154326552264
  0
VERTEX
  8
4
 10
-50.69483184814453
 20
-161.6522216796875
  0
SEQEND
  8
4
  0
ENDSEC
  0
EOF
