  0
SECTION
  2
HEADER
  9
$ACADVER
  1
AC1015
  9
$ACADMAINTVER
 70
     0
  9
$DWGCODEPAGE
  3
ANSI_932
  9
$INSBASE
 10
0.0
 20
0.0
 30
0.0
  9
$EXTMIN
 10
-570.0
 20
-255.0
 30
0.0
  9
$EXTMAX
 10
105.0
 20
285.0
 30
0.0
  9
$LIMMIN
 10
-570.0
 20
-255.0
  9
$LIMMAX
 10
105.0
 20
285.0
  9
$ORTHOMODE
 70
     0
  9
$REGENMODE
 70
     1
  9
$FILLMODE
 70
     1
  9
$QTEXTMODE
 70
     0
  9
$MIRRTEXT
 70
     1
  9
$LTSCALE
 40
1.0
  9
$ATTMODE
 70
     1
  9
$TEXTSIZE
 40
3.0
  9
$TRACEWID
 40
0.5
  9
$TEXTSTYLE
  7
STANDARD
  9
$CLAYER
  8
0
  9
$CELTYPE
  6
BYLAYER
  9
$CECOLOR
 62
   256
  9
$CELTSCALE
 40
1.0
  9
$DISPSILH
 70
     0
  9
$DIMSCALE
 40
1.0
  9
$DIMASZ
 40
3.0
  9
$DIMEXO
 40
1.0
  9
$DIMDLI
 40
5.0
  9
$DIMRND
 40
0.0
  9
$DIMDLE
 40
5.0
  9
$DIMEXE
 40
2.0
  9
$DIMTP
 40
0.0
  9
$DIMTM
 40
0.0
  9
$DIMTXT
 40
3.0
  9
$DIMCEN
 40
2.0
  9
$DIMTSZ
 40
0.0
  9
$DIMTOL
 70
     0
  9
$DIMLIM
 70
     0
  9
$DIMTIH
 70
     0
  9
$DIMTOH
 70
     0
  9
$DIMSE1
 70
     0
  9
$DIMSE2
 70
     0
  9
$DIMTAD
 70
     1
  9
$DIMZIN
 70
     8
  9
$DIMBLK
  1

  9
$DIMASO
 70
     1
  9
$DIMSHO
 70
     1
  9
$DIMPOST
  1

  9
$DIMAPOST
  1

  9
$DIMALT
 70
     0
  9
$DIMALTD
 70
     4
  9
$DIMALTF
 40
0.0393700787401575
  9
$DIMLFAC
 40
1.0
  9
$DIMTOFL
 70
     1
  9
$DIMTVP
 40
1.0
  9
$DIMTIX
 70
     0
  9
$DIMSOXD
 70
     0
  9
$DIMSAH
 70
     0
  9
$DIMBLK1
  1

  9
$DIMBLK2
  1

  9
$DIMSTYLE
  2
ISO-25
  9
$DIMCLRD
 70
     0
  9
$DIMCLRE
 70
     0
  9
$DIMCLRT
 70
     0
  9
$DIMTFAC
 40
1.0
  9
$DIMGAP
 40
1.0
  9
$DIMJUST
 70
     0
  9
$DIMSD1
 70
     0
  9
$DIMSD2
 70
     0
  9
$DIMTOLJ
 70
     1
  9
$DIMTZIN
 70
     1
  9
$DIMALTZ
 70
     0
  9
$DIMALTTZ
 70
     0
  9
$DIMUPT
 70
     0
  9
$DIMDEC
 70
     3
  9
$DIMTDEC
 70
     3
  9
$DIMALTU
 70
     8
  9
$DIMALTTD
 70
     4
  9
$DIMTXSTY
  7
STANDARD
  9
$DIMAUNIT
 70
     0
  9
$DIMADEC
 70
     0
  9
$DIMALTRND
 40
0.0
  9
$DIMAZIN
 70
     0
  9
$DIMDSEP
 70
    46
  9
$DIMATFIT
 70
     3
  9
$DIMFRAC
 70
     0
  9
$DIMLDRBLK
  1

  9
$DIMLUNIT
 70
     2
  9
$DIMLWD
 70
    -2
  9
$DIMLWE
 70
    -2
  9
$DIMTMOVE
 70
     0
  9
$LUNITS
 70
     2
  9
$LUPREC
 70
     4
  9
$SKETCHINC
 40
1.0
  9
$FILLETRAD
 40
0.0
  9
$AUNITS
 70
     0
  9
$AUPREC
 70
     0
  9
$MENU
  1
.
  9
$ELEVATION
 40
0.0
  9
$PELEVATION
 40
0.0
  9
$THICKNESS
 40
0.0
  9
$LIMCHECK
 70
     0
  9
$CHAMFERA
 40
0.0
  9
$CHAMFERB
 40
0.0
  9
$CHAMFERC
 40
0.0
  9
$CHAMFERD
 40
0.0
  9
$SKPOLY
 70
     0
  9
$TDCREATE
 40
2460164.44585648
  9
$TDUCREATE
 40
2460164.44585648
  9
$TDUPDATE
 40
2460164.44585648
  9
$TDUUPDATE
 40
2460164.44585648
  9
$TDINDWG
 40
0.0
  9
$TDUSRTIMER
 40
0.0
  9
$USRTIMER
 70
     1
  9
$ANGBASE
 50
0.0
  9
$ANGDIR
 70
     0
  9
$PDMODE
 70
     0
  9
$PDSIZE
 40
0.0
  9
$PLINEWID
 40
0.0
  9
$SPLFRAME
 70
     0
  9
$SPLINETYPE
 70
     6
  9
$SPLINESEGS
 70
     8
  9
$HANDSEED
  5
344
  9
$SURFTAB1
 70
     6
  9
$SURFTAB2
 70
     6
  9
$SURFTYPE
 70
     6
  9
$SURFU
 70
     6
  9
$SURFV
 70
     6
  9
$UCSBASE
  2

  9
$UCSNAME
  2

  9
$UCSORG
 10
0.0
 20
0.0
 30
0.0
  9
$UCSXDIR
 10
1.0
 20
0.0
 30
0.0
  9
$UCSYDIR
 10
0.0
 20
1.0
 30
0.0
  9
$UCSORTHOREF
  2

  9
$UCSORTHOVIEW
 70
     0
  9
$UCSORGTOP
 10
0.0
 20
0.0
 30
0.0
  9
$UCSORGBOTTOM
 10
0.0
 20
0.0
 30
0.0
  9
$UCSORGLEFT
 10
0.0
 20
0.0
 30
0.0
  9
$UCSORGRIGHT
 10
0.0
 20
0.0
 30
0.0
  9
$UCSORGFRONT
 10
0.0
 20
0.0
 30
0.0
  9
$UCSORGBACK
 10
0.0
 20
0.0
 30
0.0
  9
$PUCSBASE
  2

  9
$PUCSNAME
  2

  9
$PUCSORG
 10
0.0
 20
0.0
 30
0.0
  9
$PUCSXDIR
 10
1.0
 20
0.0
 30
0.0
  9
$PUCSYDIR
 10
0.0
 20
1.0
 30
0.0
  9
$PUCSORTHOREF
  2

  9
$PUCSORTHOVIEW
 70
     0
  9
$PUCSORGTOP
 10
0.0
 20
0.0
 30
0.0
  9
$PUCSORGBOTTOM
 10
0.0
 20
0.0
 30
0.0
  9
$PUCSORGLEFT
 10
0.0
 20
0.0
 30
0.0
  9
$PUCSORGRIGHT
 10
0.0
 20
0.0
 30
0.0
  9
$PUCSORGFRONT
 10
0.0
 20
0.0
 30
0.0
  9
$PUCSORGBACK
 10
0.0
 20
0.0
 30
0.0
  9
$USERI1
 70
     0
  9
$USERI2
 70
     0
  9
$USERI3
 70
     0
  9
$USERI4
 70
     0
  9
$USERI5
 70
     0
  9
$USERR1
 40
0.0
  9
$USERR2
 40
0.0
  9
$USERR3
 40
0.0
  9
$USERR4
 40
0.0
  9
$USERR5
 40
0.0
  9
$WORLDVIEW
 70
     1
  9
$SHADEDGE
 70
     3
  9
$SHADEDIF
 70
    70
  9
$MAXACTVP
 70
    16
  9
$PINSBASE
 10
0.0
 20
0.0
 30
0.0
  9
$PLIMCHECK
 70
     0
  9
$PEXTMIN
 10
1.00000000000000E+020
 20
1.00000000000000E+020
 30
1.00000000000000E+020
  9
$PEXTMAX
 10
-1.00000000000000E+020
 20
-1.00000000000000E+020
 30
-1.00000000000000E+020
  9
$PLIMMIN
 10
-570.0
 20
-255.0
  9
$PLIMMAX
 10
105.0
 20
285.0
  9
$UNITMODE
 70
     0
  9
$VISRETAIN
 70
     0
  9
$PLINEGEN
 70
     0
  9
$PSLTSCALE
 70
     0
  9
$TREEDEPTH
 70
  3020
  9
$CMLSTYLE
  2
STANDARD
  9
$CMLJUST
 70
     0
  9
$CMLSCALE
 40
1.0
  9
$PROXYGRAPHICS
 70
     1
  9
$MEASUREMENT
 70
     1
  9
$CELWEIGHT
370
    -3
  9
$ENDCAPS
280
     0
  9
$JOINSTYLE
280
     0
  9
$LWDISPLAY
290
     1
  9
$INSUNITS
 70
     0
  9
$HYPERLINKBASE
  1

  9
$STYLESHEET
  1

  9
$XEDIT
290
     1
  9
$CEPSNTYPE
380
     0
  9
$PSTYLEMODE
290
     1
  9
$FINGERPRINTGUID
  2
{6F25CFC2-5053-11D3-9BE9-00805F4AB38E}
  9
$VERSIONGUID
  2
{6F25CFC5-5053-11D3-9BE9-00805F4AB38E}
  9
$EXTNAMES
290
     1
  9
$PSVPSCALE
 40
0.0
  9
$OLESTARTUP
290
     0
  0
ENDSEC
  0
SECTION
  2
CLASSES
  0
CLASS
  1
LWPOLYLINE
  2
AcDbPolyline
  3
AutoCAD 2000
 90
    32768
280
     0
281
     1
  0
CLASS
  1
ACDBDICTIONARYWDFLT
  2
AcDbDictionaryWithDefault
  3
AutoCAD 2000
 90
        0
280
     0
281
     0
  0
CLASS
  1
DICTIONARYVAR
  2
AcDbDictionaryVar
  3
AutoCAD 2000
 90
        0
280
     0
281
     0
  0
CLASS
  1
ACDBPLACEHOLDER
  2
AcDbPlaceHolder
  3
AutoCAD 2000
 90
        0
280
     0
281
     1
  0
CLASS
  1
LAYOUT
  2
AcDbLayout
  3
AutoCAD 2000
 90
        0
280
     0
281
     1
  0
CLASS
  1
HATCH
  2
AcDbHatch
  3
AutoCAD 2000
 90
        0
280
     0
281
     1
  0
ENDSEC
  0
SECTION
  2
TABLES
  0
TABLE
  2
VPORT
  5
8
100
AcDbSymbolTable
 70
     1
  0
VPORT
  5
33B
330
0
100
AcDbSymbolTableRecord
100
AcDbViewportTableRecord
  2
*ACTIVE
 70
     0
 10
0.0
 20
0.0
 11
1.0
 21
1.0
 12
-232.5
 22
15.0
 13
0.0
 23
0.0
 14
0.0
 24
0.0
 15
0.0
 25
0.0
 16
0.0
 26
0.0
 36
1.0
 17
0.0
 27
0.0
 37
0.0
 40
540.0
 41
1.5
 42
50.0
 43
0.0
 44
0.0
 50
0.0
 51
0.0
 71
     0
 72
   100
 73
     1
 74
     1
 75
     0
 76
     0
 77
     0
 78
     0
281
     0
 65
     1
110
0.0
120
0.0
130
0.0
111
1.0
121
0.0
131
0.0
112
0.0
122
1.0
132
0.0
 79
     0
146
0.0
  0
ENDTAB
  0
TABLE
  2
LTYPE
  5
5
330
0
100
AcDbSymbolTable
 70
    20
  0
LTYPE
  5
33C
330
5
100
AcDbSymbolTableRecord
100
AcDbLinetypeTableRecord
  2
BYBLOCK
 70
     0
  3

 72
    65
 73
     0
 40
0.0
  0
LTYPE
  5
33D
330
5
100
AcDbSymbolTableRecord
100
AcDbLinetypeTableRecord
  2
BYLAYER
 70
     0
  3

 72
    65
 73
     0
 40
0.0
  0
LTYPE
  5
33E
330
5
100
AcDbSymbolTableRecord
100
AcDbLinetypeTableRecord
  2
CONTINUOUS
 70
    64
  3
solid line
 72
    65
 73
     0
 40
0.0
  0
LTYPE
  5
33F
330
0
100
AcDbSymbolTableRecord
100
AcDbLinetypeTableRecord
  2
CENTER
 70
    64
  3
--- - --- - --- - --- - --- -
 72
    65
 73
     4
 40
6.0
 49
3.0
 74
     0
 49
-1.0
 74
     0
 49
1.0
 74
     0
 49
-1.0
 74
     0
  0
ENDTAB
  0
TABLE
  2
LAYER
  5
2
330
0
100
AcDbSymbolTable
 70
    20
  0
LAYER
  5
340
330
2
100
AcDbSymbolTableRecord
100
AcDbLayerTableRecord
  2
0
 70
    64
 62
     0
  6
CONTINUOUS
370
    -3
390
336
  0
ENDTAB
  0
TABLE
  2
STYLE
  5
3
330
0
100
AcDbSymbolTable
 70
     4
  0
STYLE
  5
341
330
3
100
AcDbSymbolTableRecord
100
AcDbTextStyleTableRecord
  2
STANDARD
 70
    64
 40
0.0
 41
1.0
 50
0.0
 71
     0
 42
3.0
  3
monotxt
  4

  0
ENDTAB
  0
TABLE
  2
VIEW
  5
6
330
0
100
AcDbSymbolTable
 70
     0
  0
ENDTAB
  0
TABLE
  2
UCS
  5
7
330
0
100
AcDbSymbolTable
 70
     0
  0
ENDTAB
  0
TABLE
  2
APPID
  5
9
330
0
100
AcDbSymbolTable
 70
     1
  0
APPID
  5
342
330
9
100
AcDbSymbolTableRecord
100
AcDbRegAppTableRecord
  2
ACAD
 70
     0
  0
ENDTAB
  0
TABLE
  2
DIMSTYLE
  5
A
330
0
100
AcDbSymbolTable
 70
     8
100
AcDbDimStyleTable
 71
     0
  0
DIMSTYLE
105
343
330
A
100
AcDbSymbolTableRecord
100
AcDbDimStyleTableRecord
  2
ISO-25
 70
     0
  3

  4

  5

  6

  7

 40
1.0
 41
3.0
 42
1.0
 43
5.0
 44
2.0
 45
0.0
 46
5.0
 47
0.0
 48
0.0
140
3.0
141
2.0
142
0.0
143
0.0393700787401575
144
1.0
145
1.0
146
1.0
147
1.0
 71
     0
 72
     0
 73
     0
 74
     0
 75
     0
 76
     0
 77
     1
 78
     8
 79
     2
170
     0
171
     0
172
     1
173
     0
174
     0
175
     0
176
     0
177
     0
178
     0
179
     3
270
     2
271
     3
272
     3
273
     8
274
     4
340
341
275
     0
280
     0
281
     0
282
     0
283
     1
284
     1
285
     0
286
     0
287
     3
288
     0
  0
ENDTAB
  0
TABLE
  2
BLOCK_RECORD
  5
1
330
0
100
AcDbSymbolTable
 70
     2
  0
BLOCK_RECORD
  5
20
330
1
100
AcDbSymbolTableRecord
100
AcDbBlockTableRecord
  2
*MODEL_SPACE
340
337
  0
BLOCK_RECORD
  5
22
330
1
100
AcDbSymbolTableRecord
100
AcDbBlockTableRecord
  2
*PAPER_SPACE
340
338
  0
BLOCK_RECORD
  5
24
330
1
100
AcDbSymbolTableRecord
100
AcDbBlockTableRecord
  2
COMP1
340
0
102
{BLKREFS
331
25
102
}
  0
BLOCK_RECORD
  5
2E
330
1
100
AcDbSymbolTableRecord
100
AcDbBlockTableRecord
  2
COMP2
340
0
102
{BLKREFS
331
2F
102
}
  0
BLOCK_RECORD
  5
38
330
1
100
AcDbSymbolTableRecord
100
AcDbBlockTableRecord
  2
COMP3
340
0
102
{BLKREFS
331
39
102
}
  0
BLOCK_RECORD
  5
42
330
1
100
AcDbSymbolTableRecord
100
AcDbBlockTableRecord
  2
COMP4
340
0
102
{BLKREFS
331
43
102
}
  0
BLOCK_RECORD
  5
326
330
1
100
AcDbSymbolTableRecord
100
AcDbBlockTableRecord
  2
COMP5
340
0
102
{BLKREFS
331
327
102
}
  0
ENDTAB
  0
ENDSEC
  0
SECTION
  2
BLOCKS
  0
BLOCK
  5
21
330
20
100
AcDbEntity
  8
0
100
AcDbBlockBegin
  2
*MODEL_SPACE
 70
     0
 10
0.0
 20
0.0
 30
0.0
  3
*MODEL_SPACE
  1

  0
ENDBLK
  5
339
330
20
100
AcDbEntity
  8
0
100
AcDbBlockEnd
  0
BLOCK
  5
23
330
22
100
AcDbEntity
 67
     1
  8
0
100
AcDbBlockBegin
  2
*PAPER_SPACE
 70
     0
 10
0.0
 20
0.0
 30
0.0
  3
*PAPER_SPACE
  1

  0
ENDBLK
  5
33A
330
22
100
AcDbEntity
 67
     1
  8
0
100
AcDbBlockEnd
  0
BLOCK
  5
26
330
24
100
AcDbEntity
  8
0
100
AcDbBlockBegin
  2
COMP1
 70
    64
 10
0.0
 20
0.0
  0
CIRCLE
  5
27
330
24
100
AcDbEntity
  8
0
  6
CONTINUOUS
 62
     0
100
AcDbCircle
 10
-40.0
 20
257.0541146998
 40
12.0
  0
LWPOLYLINE
  5
28
330
24
100
AcDbEntity
  8
0
  6
CONTINUOUS
 62
     0
100
AcDbPolyline
 90
        6
 70
     1
 43
0.0
 10
-46.9282032302755
 20
269.0541146998
 10
-53.856406460551
 20
257.0541146998
 10
-46.9282032302755
 20
245.0541146998
 10
-33.0717967697245
 20
245.0541146998
 10
-26.143593539449
 20
257.0541146998
 10
-33.0717967697245
 20
269.0541146998
  0
CIRCLE
  5
29
330
24
100
AcDbEntity
  8
0
  6
CONTINUOUS
 62
     0
100
AcDbCircle
 10
-40.0
 20
257.0541146998
 40
6.0
  0
LINE
  5
2A
330
24
100
AcDbEntity
  8
0
  6
CENTER
 62
     0
100
AcDbLine
 10
-40.0
 20
240.0541146998
 11
-40.0
 21
274.0541146998
  0
LINE
  5
2B
330
24
100
AcDbEntity
  8
0
  6
CENTER
 62
     0
100
AcDbLine
 10
-23.0
 20
257.0541146998
 11
-57.0
 21
257.0541146998
  0
CIRCLE
  5
2C
330
24
100
AcDbEntity
  8
0
  6
CONTINUOUS
 62
     0
100
AcDbCircle
 10
-40.0
 20
257.0541146998
 40
6.5
  0
ENDBLK
  5
2D
330
24
100
AcDbEntity
  8
0
100
AcDbBlockEnd
  0
BLOCK
  5
30
330
2E
100
AcDbEntity
  8
0
100
AcDbBlockBegin
  2
COMP2
 70
    64
 10
0.0
 20
0.0
  0
CIRCLE
  5
31
330
2E
100
AcDbEntity
  8
0
  6
CONTINUOUS
 62
     0
100
AcDbCircle
 10
40.0
 20
257.0541146998
 40
12.0
  0
LWPOLYLINE
  5
32
330
2E
100
AcDbEntity
  8
0
  6
CONTINUOUS
 62
     0
100
AcDbPolyline
 90
        6
 70
     1
 43
0.0
 10
33.0717967697245
 20
269.0541146998
 10
26.143593539449
 20
257.0541146998
 10
33.0717967697245
 20
245.0541146998
 10
46.9282032302755
 20
245.0541146998
 10
53.856406460551
 20
257.0541146998
 10
46.9282032302755
 20
269.0541146998
  0
CIRCLE
  5
33
330
2E
100
AcDbEntity
  8
0
  6
CONTINUOUS
 62
     0
100
AcDbCircle
 10
40.0
 20
257.0541146998
 40
6.0
  0
LINE
  5
34
330
2E
100
AcDbEntity
  8
0
  6
CENTER
 62
     0
100
AcDbLine
 10
40.0
 20
240.0541146998
 11
40.0
 21
274.0541146998
  0
LINE
  5
35
330
2E
100
AcDbEntity
  8
0
  6
CENTER
 62
     0
100
AcDbLine
 10
57.0
 20
257.0541146998
 11
23.0
 21
257.0541146998
  0
CIRCLE
  5
36
330
2E
100
AcDbEntity
  8
0
  6
CONTINUOUS
 62
     0
100
AcDbCircle
 10
40.0
 20
257.0541146998
 40
6.5
  0
ENDBLK
  5
37
330
2E
100
AcDbEntity
  8
0
100
AcDbBlockEnd
  0
BLOCK
  5
3A
330
38
100
AcDbEntity
  8
0
100
AcDbBlockBegin
  2
COMP3
 70
    64
 10
0.0
 20
0.0
  0
CIRCLE
  5
3B
330
38
100
AcDbEntity
  8
0
  6
CONTINUOUS
 62
     0
100
AcDbCircle
 10
-40.0
 20
-227.4288807225
 40
12.0
  0
LWPOLYLINE
  5
3C
330
38
100
AcDbEntity
  8
0
  6
CONTINUOUS
 62
     0
100
AcDbPolyline
 90
        6
 70
     1
 43
0.0
 10
-46.9282032302755
 20
-215.4288807225
 10
-53.856406460551
 20
-227.4288807225
 10
-46.9282032302755
 20
-239.4288807225
 10
-33.0717967697245
 20
-239.4288807225
 10
-26.143593539449
 20
-227.4288807225
 10
-33.0717967697245
 20
-215.4288807225
  0
CIRCLE
  5
3D
330
38
100
AcDbEntity
  8
0
  6
CONTINUOUS
 62
     0
100
AcDbCircle
 10
-40.0
 20
-227.4288807225
 40
6.0
  0
LINE
  5
3E
330
38
100
AcDbEntity
  8
0
  6
CENTER
 62
     0
100
AcDbLine
 10
-40.0
 20
-244.4288807225
 11
-40.0
 21
-210.4288807225
  0
LINE
  5
3F
330
38
100
AcDbEntity
  8
0
  6
CENTER
 62
     0
100
AcDbLine
 10
-23.0
 20
-227.4288807225
 11
-57.0
 21
-227.4288807225
  0
CIRCLE
  5
40
330
38
100
AcDbEntity
  8
0
  6
CONTINUOUS
 62
     0
100
AcDbCircle
 10
-40.0
 20
-227.4288807225
 40
6.5
  0
ENDBLK
  5
41
330
38
100
AcDbEntity
  8
0
100
AcDbBlockEnd
  0
BLOCK
  5
44
330
42
100
AcDbEntity
  8
0
100
AcDbBlockBegin
  2
COMP4
 70
    64
 10
0.0
 20
0.0
  0
CIRCLE
  5
45
330
42
100
AcDbEntity
  8
0
  6
CONTINUOUS
 62
     0
100
AcDbCircle
 10
40.0
 20
-227.4288807225
 40
12.0
  0
LWPOLYLINE
  5
46
330
42
100
AcDbEntity
  8
0
  6
CONTINUOUS
 62
     0
100
AcDbPolyline
 90
        6
 70
     1
 43
0.0
 10
33.0717967697245
 20
-215.4288807225
 10
26.143593539449
 20
-227.4288807225
 10
33.0717967697245
 20
-239.4288807225
 10
46.9282032302755
 20
-239.4288807225
 10
53.856406460551
 20
-227.4288807225
 10
46.9282032302755
 20
-215.4288807225
  0
CIRCLE
  5
47
330
42
100
AcDbEntity
  8
0
  6
CONTINUOUS
 62
     0
100
AcDbCircle
 10
40.0
 20
-227.4288807225
 40
6.0
  0
LINE
  5
48
330
42
100
AcDbEntity
  8
0
  6
CENTER
 62
     0
100
AcDbLine
 10
40.0
 20
-244.4288807225
 11
40.0
 21
-210.4288807225
  0
LINE
  5
49
330
42
100
AcDbEntity
  8
0
  6
CENTER
 62
     0
100
AcDbLine
 10
57.0
 20
-227.4288807225
 11
23.0
 21
-227.4288807225
  0
CIRCLE
  5
4A
330
42
100
AcDbEntity
  8
0
  6
CONTINUOUS
 62
     0
100
AcDbCircle
 10
40.0
 20
-227.4288807225
 40
6.5
  0
ENDBLK
  5
4B
330
42
100
AcDbEntity
  8
0
100
AcDbBlockEnd
  0
BLOCK
  5
328
330
326
100
AcDbEntity
  8
0
100
AcDbBlockBegin
  2
COMP5
 70
    64
 10
0.0
 20
0.0
  0
CIRCLE
  5
329
330
326
100
AcDbEntity
  8
0
  6
CONTINUOUS
 62
     0
100
AcDbCircle
 10
0.0
 20
257.0541146998
 40
12.0
  0
LWPOLYLINE
  5
32A
330
326
100
AcDbEntity
  8
0
  6
CONTINUOUS
 62
     0
100
AcDbPolyline
 90
        6
 70
     1
 43
0.0
 10
-6.9282032302755
 20
269.0541146998
 10
-13.856406460551
 20
257.0541146998
 10
-6.9282032302755
 20
245.0541146998
 10
6.9282032302755
 20
245.0541146998
 10
13.856406460551
 20
257.0541146998
 10
6.92820323027553
 20
269.0541146998
  0
CIRCLE
  5
32B
330
326
100
AcDbEntity
  8
0
  6
CONTINUOUS
 62
     0
100
AcDbCircle
 10
0.0
 20
257.0541146998
 40
6.0
  0
LINE
  5
32C
330
326
100
AcDbEntity
  8
0
  6
CENTER
 62
     0
100
AcDbLine
 10
0.0
 20
210.0
 11
0.0
 21
285.0
  0
LINE
  5
32D
330
326
100
AcDbEntity
  8
0
  6
CENTER
 62
     0
100
AcDbLine
 10
17.0
 20
257.0541146998
 11
-17.0
 21
257.0541146998
  0
CIRCLE
  5
32E
330
326
100
AcDbEntity
  8
0
  6
CONTINUOUS
 62
     0
100
AcDbCircle
 10
0.0
 20
257.0541146998
 40
6.5
  0
ENDBLK
  5
32F
330
326
100
AcDbEntity
  8
0
100
AcDbBlockEnd
  0
ENDSEC
  0
SECTION
  2
ENTITIES
  0
INSERT
  5
25
330
20
100
AcDbEntity
  8
0
  6
CONTINUOUS
100
AcDbBlockReference
  2
COMP1
 10
0.0
 20
0.0
 41
1.0
 42
1.0
 50
0.0
  0
INSERT
  5
2F
330
20
100
AcDbEntity
  8
0
  6
CONTINUOUS
100
AcDbBlockReference
  2
COMP2
 10
0.0
 20
0.0
 41
1.0
 42
1.0
 50
0.0
  0
INSERT
  5
39
330
20
100
AcDbEntity
  8
0
  6
CONTINUOUS
100
AcDbBlockReference
  2
COMP3
 10
0.0
 20
0.0
 41
1.0
 42
1.0
 50
0.0
  0
INSERT
  5
43
330
20
100
AcDbEntity
  8
0
  6
CONTINUOUS
100
AcDbBlockReference
  2
COMP4
 10
0.0
 20
0.0
 41
1.0
 42
1.0
 50
0.0
  0
ARC
  5
4C
330
20
100
AcDbEntity
  8
0
  6
CONTINUOUS
100
AcDbCircle
 10
-71.9999999999999
 20
234.5541146998
 40
2.99999999999994
100
AcDbArc
 50
90.0
 51
180.0
  0
ARC
  5
4D
330
20
100
AcDbEntity
  8
0
  6
CONTINUOUS
100
AcDbCircle
 10
72.0
 20
234.5541146998
 40
2.99999999999989
100
AcDbArc
 50
0.0
 51
90.0
  0
LINE
  5
4E
330
20
100
AcDbEntity
  8
0
  6
CONTINUOUS
100
AcDbLine
 10
72.0
 20
237.5541146998
 11
-71.9999999999999
 21
237.5541146998
  0
SPLINE
  5
4F
330
20
100
AcDbEntity
  8
0
  6
CONTINUOUS
100
AcDbSpline
210
0.0
220
0.0
230
1.0
 70
     8
 71
     3
 72
    35
 73
    31
 74
     0
 42
1.00000000000000E-007
 43
1.00000000000000E-007
 40
0.0
 40
0.0
 40
0.0
 40
0.0
 40
0.0673085341337712
 40
0.134616347213485
 40
0.201925714894297
 40
0.269235931224934
 40
0.33654529877804
 40
0.403853112305195
 40
0.471161644771294
 40
0.538470177229444
 40
0.605777990769416
 40
0.673087358294681
 40
0.740397574688788
 40
0.807706942214192
 40
0.875014755753615
 40
0.942323288213493
 40
1.00963182067336
 40
1.07693961691665
 40
1.14424896501468
 40
1.21155927736631
 40
1.27886849655204
 40
1.34617645974753
 40
1.41348487612409
 40
1.48079348285408
 40
1.54810125579534
 40
1.61541064255817
 40
1.68272085109237
 40
1.75003022127722
 40
1.81733803418145
 40
1.88464657282294
 40
1.88464657282294
 40
1.88464657282294
 40
1.88464657282294
 10
-77.5000000013069
 20
275.854114698515
 30
0.0
 10
-77.499766690413
 20
275.868340598462
 30
0.0
 10
-77.4988334708328
 20
275.925244174261
 30
0.0
 10
-77.49300071986
 20
275.987512047509
 30
0.0
 10
-77.4835999692886
 20
276.055487149321
 30
0.0
 10
-77.4704516899377
 20
276.121191451641
 30
0.0
 10
-77.4536561274967
 20
276.18650035694
 30
0.0
 10
-77.4332388731239
 20
276.250648299145
 30
0.0
 10
-77.4092443635315
 20
276.31358015333
 30
0.0
 10
-77.3817163068362
 20
276.375039999509
 30
0.0
 10
-77.3507759372561
 20
276.434854219234
 30
0.0
 10
-77.3165394345365
 20
276.492846837182
 30
0.0
 10
-77.2791243739843
 20
276.548842468287
 30
0.0
 10
-77.2386478033015
 20
276.602665723047
 30
0.0
 10
-77.1952274848624
 20
276.65414063977
 30
0.0
 10
-77.1489788500534
 20
276.703093549761
 30
0.0
 10
-77.1000259394405
 20
276.749342184693
 30
0.0
 10
-77.0485510251995
 20
276.792762503146
 30
0.0
 10
-76.9947278367427
 20
276.833239002181
 30
0.0
 10
-76.9387320162502
 20
276.870654259645
 30
0.0
 10
-76.8807396810894
 20
276.90489047156
 30
0.0
 10
-76.8209251630189
 20
276.93583114644
 30
0.0
 10
-76.7594655660575
 20
276.963358948758
 30
0.0
 10
-76.6965335371604
 20
276.987353636394
 30
0.0
 10
-76.632385701128
 20
277.007770782687
 30
0.0
 10
-76.5670767389928
 20
277.024566402972
 30
0.0
 10
-76.5013724636354
 20
277.037714654903
 30
0.0
 10
-76.43339735056
 20
277.047115416967
 30
0.0
 10
-76.3711294822672
 20
277.052948162865
 30
0.0
 10
-76.314225901269
 20
277.053881387659
 30
0.0
 10
-76.300000000005
 20
277.05411469982
 30
0.0
  0
SPLINE
  5
50
330
20
100
AcDbEntity
  8
0
  6
CONTINUOUS
100
AcDbSpline
210
0.0
220
0.0
230
1.0
 70
     8
 71
     3
 72
    35
 73
    31
 74
     0
 42
1.00000000000000E-007
 43
1.00000000000000E-007
 40
0.0
 40
0.0
 40
0.0
 40
0.0
 40
0.0673085341336426
 40
0.134616347213393
 40
0.201925714894433
 40
0.269235931225781
 40
0.336545298778868
 40
0.40385311230536
 40
0.471161644771606
 40
0.53847017722933
 40
0.6057779907696
 40
0.67308735829497
 40
0.740397574688512
 40
0.807706942213903
 40
0.875014755753338
 40
0.942323288213268
 40
1.00963182067384
 40
1.07693961691634
 40
1.14424896501443
 40
1.21155927736739
 40
1.27886849655172
 40
1.34617645974738
 40
1.41348487612391
 40
1.48079348285477
 40
1.54810125579515
 40
1.61541064255799
 40
1.68272085109211
 40
1.7500302212782
 40
1.81733803418222
 40
1.88464657282281
 40
1.88464657282281
 40
1.88464657282281
 40
1.88464657282281
 10
76.2999999986901
 20
277.054114701122
 30
0.0
 10
76.314225898637
 20
277.053881390228
 30
0.0
 10
76.3711294744289
 20
277.052948170648
 30
0.0
 10
76.4333973477227
 20
277.04711541967
 30
0.0
 10
76.5013724495046
 20
277.037714669102
 30
0.0
 10
76.5670767518284
 20
277.02456638975
 30
0.0
 10
76.632385657117
 20
277.007770827311
 30
0.0
 10
76.6965335993292
 20
276.987353572936
 30
0.0
 10
76.7594654534865
 20
276.963359063353
 30
0.0
 10
76.8209252996714
 20
276.935831006659
 30
0.0
 10
76.8807395194086
 20
276.904890637071
 30
0.0
 10
76.9387321373413
 20
276.870654134362
 30
0.0
 10
76.9947277684584
 20
276.833239073802
 30
0.0
 10
77.0485510232194
 20
276.792762503119
 30
0.0
 10
77.1000259399451
 20
276.749342184677
 30
0.0
 10
77.1489788499291
 20
276.703093549874
 30
0.0
 10
77.195227484871
 20
276.654140639255
 30
0.0
 10
77.2386478033275
 20
276.602665725006
 30
0.0
 10
77.2791243023474
 20
276.54884253657
 30
0.0
 10
77.3165395598228
 20
276.492846716064
 30
0.0
 10
77.3507757717349
 20
276.434854380903
 30
0.0
 10
77.3817164466029
 20
276.375039862858
 30
0.0
 10
77.4092442489191
 20
276.313580265909
 30
0.0
 10
77.4332389365707
 20
276.25064823697
 30
0.0
 10
77.4536560828596
 20
276.18650040095
 30
0.0
 10
77.4704517031489
 20
276.121191438808
 30
0.0
 10
77.4835999550808
 20
276.05548716343
 30
0.0
 10
77.4930007171483
 20
275.987512050332
 30
0.0
 10
77.4988334630391
 20
275.925244182083
 30
0.0
 10
77.4997666878351
 20
275.868340601084
 30
0.0
 10
77.499999999995
 20
275.85411469982
 30
0.0
  0
LINE
  5
51
330
20
100
AcDbEntity
  8
0
  6
CONTINUOUS
100
AcDbLine
 10
-97.4999999999999
 20
278.2541146998
 11
-97.4999999999999
 21
277.0541146998
  0
LINE
  5
52
330
20
100
AcDbEntity
  8
0
  6
CONTINUOUS
100
AcDbLine
 10
97.5
 20
278.2541146998
 11
97.5
 21
277.0541146998
  0
LINE
  5
53
330
20
100
AcDbEntity
  8
0
  6
CONTINUOUS
100
AcDbLine
 10
-74.9999999999999
 20
229.5541146998
 11
75.0
 21
229.5541146998
  0
LINE
  5
54
330
20
100
AcDbEntity
  8
0
  6
CONTINUOUS
100
AcDbLine
 10
-97.4999999999999
 20
277.0541146998
 11
97.5
 21
277.0541146998
  0
LINE
  5
55
330
20
100
AcDbEntity
  8
0
  6
CONTINUOUS
100
AcDbLine
 10
62.5
 20
278.2541146998
 11
97.5
 21
278.2541146998
  0
LINE
  5
56
330
20
100
AcDbEntity
  8
0
  6
CONTINUOUS
100
AcDbLine
 10
-97.4999999999999
 20
278.2541146998
 11
-62.4999999999999
 21
278.2541146998
  0
CIRCLE
  5
57
330
20
100
AcDbEntity
  8
0
  6
CONTINUOUS
100
AcDbCircle
 10
0.0
 20
257.0541146998
 40
8.1
  0
CIRCLE
  5
58
330
20
100
AcDbEntity
  8
0
  6
CONTINUOUS
100
AcDbCircle
 10
-40.0
 20
257.0541146998
 40
8.1
  0
CIRCLE
  5
59
330
20
100
AcDbEntity
  8
0
  6
CONTINUOUS
100
AcDbCircle
 10
40.0
 20
257.0541146998
 40
8.1
  0
LINE
  5
5A
330
20
100
AcDbEntity
  8
0
  6
CONTINUOUS
100
AcDbLine
 10
-78.3
 20
87.5
 11
78.3
 21
87.5
  0
LINE
  5
5B
330
20
100
AcDbEntity
  8
0
  6
CONTINUOUS
100
AcDbLine
 10
78.3
 20
-87.5
 11
-78.3
 21
-87.5
  0
LINE
  5
5C
330
20
100
AcDbEntity
  8
0
  6
CONTINUOUS
100
AcDbLine
 10
-79.5
 20
-86.3
 11
-79.5
 21
86.3
  0
LINE
  5
5D
330
20
100
AcDbEntity
  8
0
  6
CONTINUOUS
100
AcDbLine
 10
79.5
 20
86.3
 11
79.5
 21
-86.3
  0
LINE
  5
5E
330
20
100
AcDbEntity
  8
0
  6
CENTER
100
AcDbLine
 10
56.7499999999999
 20
81.5
 11
73.2500000000001
 21
81.5
  0
LINE
  5
5F
330
20
100
AcDbEntity
  8
0
  6
CENTER
100
AcDbLine
 10
65.0
 20
73.2499999999999
 11
65.0
 21
89.7500000000001
  0
LINE
  5
60
330
20
100
AcDbEntity
  8
0
  6
CENTER
100
AcDbLine
 10
-73.2500000000001
 20
81.5
 11
-56.7499999999999
 21
81.5
  0
LINE
  5
61
330
20
100
AcDbEntity
  8
0
  6
CENTER
100
AcDbLine
 10
-73.25
 20
-81.5
 11
-56.75
 21
-81.5
  0
LINE
  5
62
330
20
100
AcDbEntity
  8
0
  6
CENTER
100
AcDbLine
 10
-65.0
 20
-89.75
 11
-65.0
 21
-73.25
  0
LINE
  5
63
330
20
100
AcDbEntity
  8
0
  6
CENTER
100
AcDbLine
 10
56.75
 20
-81.5
 11
73.25
 21
-81.5
  0
LINE
  5
64
330
20
100
AcDbEntity
  8
0
  6
CENTER
100
AcDbLine
 10
65.0
 20
-89.75
 11
65.0
 21
-73.25
  0
ARC
  5
65
330
20
100
AcDbEntity
  8
0
  6
CONTINUOUS
100
AcDbCircle
 10
78.3
 20
86.3
 40
1.2
100
AcDbArc
 50
0.0
 51
90.0
  0
ARC
  5
66
330
20
100
AcDbEntity
  8
0
  6
CONTINUOUS
100
AcDbCircle
 10
-78.3
 20
86.3
 40
1.2
100
AcDbArc
 50
90.0
 51
180.0
  0
ARC
  5
67
330
20
100
AcDbEntity
  8
0
  6
CONTINUOUS
100
AcDbCircle
 10
-78.3
 20
-86.3
 40
1.2
100
AcDbArc
 50
180.0
 51
270.0
  0
ARC
  5
68
330
20
100
AcDbEntity
  8
0
  6
CONTINUOUS
100
AcDbCircle
 10
78.3
 20
-86.3
 40
1.2
100
AcDbArc
 50
270.0
 51
0.0
  0
ARC
  5
69
330
20
100
AcDbEntity
  8
0
  6
CONTINUOUS
100
AcDbCircle
 10
92.5
 20
25.0
 40
5.0
100
AcDbArc
 50
0.0
 51
90.0
  0
LINE
  5
6A
330
20
100
AcDbEntity
  8
0
  6
CONTINUOUS
100
AcDbLine
 10
97.5
 20
25.0
 11
97.5
 21
-25.0
  0
CIRCLE
  5
6B
330
20
100
AcDbEntity
  8
0
  6
CONTINUOUS
100
AcDbCircle
 10
90.0
 20
24.0
 40
2.80000000000007
  0
CIRCLE
  5
6C
330
20
100
AcDbEntity
  8
0
  6
CONTINUOUS
100
AcDbCircle
 10
90.0
 20
-24.0
 40
2.79999999999995
  0
ARC
  5
6D
330
20
100
AcDbEntity
  8
0
  6
CONTINUOUS
100
AcDbCircle
 10
92.5
 20
-25.0
 40
4.99999999999994
100
AcDbArc
 50
270.0
 51
0.0
  0
ARC
  5
6E
330
20
100
AcDbEntity
  8
0
  6
CONTINUOUS
100
AcDbCircle
 10
-92.4999999999999
 20
-25.0
 40
5.00000000000006
100
AcDbArc
 50
180.0
 51
270.0
  0
CIRCLE
  5
6F
330
20
100
AcDbEntity
  8
0
  6
CONTINUOUS
100
AcDbCircle
 10
-89.9999999999999
 20
24.0
 40
2.80000000000007
  0
LINE
  5
70
330
20
100
AcDbEntity
  8
0
  6
CONTINUOUS
100
AcDbLine
 10
-97.4999999999999
 20
25.0
 11
-97.4999999999999
 21
-25.0
  0
CIRCLE
  5
71
330
20
100
AcDbEntity
  8
0
  6
CONTINUOUS
100
AcDbCircle
 10
-89.9999999999999
 20
-24.0
 40
2.79999999999995
  0
ARC
  5
72
330
20
100
AcDbEntity
  8
0
  6
CONTINUOUS
100
AcDbCircle
 10
-92.4999999999999
 20
25.0
 40
5.00000000000006
100
AcDbArc
 50
90.0
 51
180.0
  0
LINE
  5
73
330
20
100
AcDbEntity
  8
0
  6
CENTER
100
AcDbLine
 10
-64.9999999999999
 20
73.5
 11
-64.9999999999999
 21
89.5
  0
LINE
  5
74
330
20
100
AcDbEntity
  8
0
  6
CENTER
100
AcDbLine
 10
81.1999999999999
 20
24.0
 11
98.8000000000001
 21
24.0
  0
LINE
  5
75
330
20
100
AcDbEntity
  8
0
  6
CENTER
100
AcDbLine
 10
90.0
 20
15.1999999999999
 11
90.0
 21
32.8000000000001
  0
LINE
  5
76
330
20
100
AcDbEntity
  8
0
  6
CENTER
100
AcDbLine
 10
81.2
 20
-24.0
 11
98.8
 21
-24.0
  0
LINE
  5
77
330
20
100
AcDbEntity
  8
0
  6
CENTER
100
AcDbLine
 10
90.0
 20
-32.8
 11
90.0
 21
-15.2
  0
LINE
  5
78
330
20
100
AcDbEntity
  8
0
  6
CENTER
100
AcDbLine
 10
-98.7999999999999
 20
-24.0
 11
-81.2
 21
-24.0
  0
LINE
  5
79
330
20
100
AcDbEntity
  8
0
  6
CENTER
100
AcDbLine
 10
-89.9999999999999
 20
-32.8
 11
-89.9999999999999
 21
-15.2
  0
LINE
  5
7A
330
20
100
AcDbEntity
  8
0
  6
CENTER
100
AcDbLine
 10
-98.8
 20
24.0
 11
-81.1999999999999
 21
24.0
  0
LINE
  5
7B
330
20
100
AcDbEntity
  8
0
  6
CENTER
100
AcDbLine
 10
-89.9999999999999
 20
15.1999999999999
 11
-89.9999999999999
 21
32.8000000000001
  0
LINE
  5
7C
330
20
100
AcDbEntity
  8
0
  6
CONTINUOUS
100
AcDbLine
 10
-224.4081743554
 20
87.5
 11
-224.4081743554
 21
86.3
  0
LINE
  5
7D
330
20
100
AcDbEntity
  8
0
  6
CONTINUOUS
100
AcDbLine
 10
-224.4081743554
 20
-86.3
 11
-224.4081743554
 21
-87.5
  0
LINE
  5
7E
330
20
100
AcDbEntity
  8
0
  6
CONTINUOUS
100
AcDbLine
 10
-211.4081743554
 20
86.3
 11
-211.4081743554
 21
-86.3
  0
ARC
  5
7F
330
20
100
AcDbEntity
  8
0
  6
CONTINUOUS
100
AcDbCircle
 10
-212.6081743554
 20
86.3
 40
1.2000000000001
100
AcDbArc
 50
0.0
 51
90.0
  0
ARC
  5
80
330
20
100
AcDbEntity
  8
0
  6
CONTINUOUS
100
AcDbCircle
 10
-212.6081743554
 20
-86.3
 40
1.20000000000005
100
AcDbArc
 50
270.0
 51
0.0
  0
LINE
  5
81
330
20
100
AcDbEntity
  8
0
  6
CONTINUOUS
100
AcDbLine
 10
-224.4081743554
 20
87.5
 11
-212.6081743554
 21
87.5
  0
LINE
  5
82
330
20
100
AcDbEntity
  8
0
  6
CONTINUOUS
100
AcDbLine
 10
-212.6081743554
 20
-87.5
 11
-224.4081743554
 21
-87.5
  0
LINE
  5
83
330
20
100
AcDbEntity
  8
0
  6
CONTINUOUS
100
AcDbLine
 10
-224.4081743554
 20
86.2929289322
 11
-224.4081743554
 21
-86.2929289322
  0
LINE
  5
84
330
20
100
AcDbEntity
  8
0
  6
CONTINUOUS
100
AcDbLine
 10
-273.8081743554
 20
30.0
 11
-272.6081743554
 21
30.0
  0
LINE
  5
85
330
20
100
AcDbEntity
  8
0
  6
CONTINUOUS
100
AcDbLine
 10
-273.8081743554
 20
-30.0
 11
-272.6081743554
 21
-30.0
  0
SPLINE
  5
86
330
20
100
AcDbEntity
  8
0
  6
CONTINUOUS
100
AcDbSpline
210
0.0
220
0.0
230
1.0
 70
     8
 71
     3
 72
    35
 73
    31
 74
     0
 42
1.00000000000000E-007
 43
1.00000000000000E-007
 40
0.0
 40
0.0
 40
0.0
 40
0.0
 40
0.0673085341337436
 40
0.134616347212489
 40
0.201925714894286
 40
0.269235931224742
 40
0.336545298778084
 40
0.403853112305214
 40
0.471161644771366
 40
0.538470177229091
 40
0.605777990769462
 40
0.673087358294746
 40
0.740397574688029
 40
0.807706942213668
 40
0.875014755752344
 40
0.942323288213637
 40
1.00963182067347
 40
1.07693961691531
 40
1.14424896501471
 40
1.21155927736637
 40
1.27886849655069
 40
1.34617645974676
 40
1.41348487612333
 40
1.48079348285381
 40
1.54810125579549
 40
1.61541064255826
 40
1.68272085109123
 40
1.75003022127732
 40
1.81733803418134
 40
1.88464657282296
 40
1.88464657282296
 40
1.88464657282296
 40
1.88464657282296
 10
-272.608174356719
 20
74.299999998662
 30
0.0
 10
-272.607941045825
 20
74.314225898608
 30
0.0
 10
-272.607007826245
 20
74.3711294744112
 30
0.0
 10
-272.601175075269
 20
74.4333973476833
 30
0.0
 10
-272.591774324703
 20
74.5013724494538
 30
0.0
 10
-272.578626045341
 20
74.5670767518299
 30
0.0
 10
-272.561830482904
 20
74.6323856571027
 30
0.0
 10
-272.54141322854
 20
74.69653359928
 30
0.0
 10
-272.517418718946
 20
74.7594654534721
 30
0.0
 10
-272.489890662245
 20
74.8209252996628
 30
0.0
 10
-272.458950292651
 20
74.8807395194112
 30
0.0
 10
-272.424713789959
 20
74.9387321373131
 30
0.0
 10
-272.387298729388
 20
74.9947277684486
 30
0.0
 10
-272.346822158698
 20
75.0485510232137
 30
0.0
 10
-272.30340184025
 20
75.1000259399443
 30
0.0
 10
-272.257153205498
 20
75.1489788498736
 30
0.0
 10
-272.208200294879
 20
75.1952274848181
 30
0.0
 10
-272.156725380608
 20
75.2386478032956
 30
0.0
 10
-272.102902192145
 20
75.2791243023339
 30
0.0
 10
-272.046906371679
 20
75.3165395597821
 30
0.0
 10
-271.98891403652
 20
75.3507757716961
 30
0.0
 10
-271.929099518432
 20
75.3817164465863
 30
0.0
 10
-271.867639921501
 20
75.4092442488914
 30
0.0
 10
-271.804707892589
 20
75.4332389365359
 30
0.0
 10
-271.740560056565
 20
75.4536560828262
 30
0.0
 10
-271.6752510944
 20
75.470451703121
 30
0.0
 10
-271.609546819029
 20
75.4835999550516
 30
0.0
 10
-271.541571705948
 20
75.4930007171166
 30
0.0
 10
-271.479303837706
 20
75.4988334630096
 30
0.0
 10
-271.422400256681
 20
75.499766687806
 30
0.0
 10
-271.408174355417
 20
75.499999999966
 30
0.0
  0
SPLINE
  5
87
330
20
100
AcDbEntity
  8
0
  6
CONTINUOUS
100
AcDbSpline
210
0.0
220
0.0
230
1.0
 70
     8
 71
     3
 72
    35
 73
    31
 74
     0
 42
1.00000000000000E-007
 43
1.00000000000000E-007
 40
0.0
 40
0.0
 40
0.0
 40
0.0
 40
0.0673085341337998
 40
0.134616347212559
 40
0.201925714894314
 40
0.269235931224809
 40
0.336545298777889
 40
0.403853112305316
 40
0.471161644770542
 40
0.538470177228291
 40
0.605777990769533
 40
0.673087358293917
 40
0.740397574688063
 40
0.80770694221371
 40
0.875014755752385
 40
0.942323288212965
 40
1.00963182067356
 40
1.07693961691539
 40
1.1442489650148
 40
1.21155927736642
 40
1.27886849655078
 40
1.34617645974682
 40
1.41348487612338
 40
1.48079348285387
 40
1.54810125579458
 40
1.61541064255714
 40
1.68272085109126
 40
1.75003022127735
 40
1.81733803418139
 40
1.88464657282298
 40
1.88464657282298
 40
1.88464657282298
 40
1.88464657282298
 10
-271.408174354113
 20
-75.500000001336
 30
0.0
 10
-271.422400254059
 20
-75.499766690442
 30
0.0
 10
-271.479303829849
 20
-75.498833470862
 30
0.0
 10
-271.54157170314
 20
-75.4930007198849
 30
0.0
 10
-271.609546804893
 20
-75.4835999693207
 30
0.0
 10
-271.675251107228
 20
-75.4704516899696
 30
0.0
 10
-271.740560012499
 20
-75.4536561275357
 30
0.0
 10
-271.804707954704
 20
-75.4332388731662
 30
0.0
 10
-271.867639808907
 20
-75.409244363568
 30
0.0
 10
-271.92909965507
 20
-75.3817163068829
 30
0.0
 10
-271.988913874834
 20
-75.3507759372839
 30
0.0
 10
-272.046906492763
 20
-75.3165394345756
 30
0.0
 10
-272.102902123881
 20
-75.2791243740158
 30
0.0
 10
-272.156725378646
 20
-75.238647803329
 30
0.0
 10
-272.208200295376
 20
-75.1952274848837
 30
0.0
 10
-272.257153205325
 20
-75.1489788501144
 30
0.0
 10
-272.303401840278
 20
-75.100025939486
 30
0.0
 10
-272.346822158762
 20
-75.0485510252034
 30
0.0
 10
-272.387298657785
 20
-74.9947278367615
 30
0.0
 10
-272.424713915228
 20
-74.9387320163025
 30
0.0
 10
-272.458950127139
 20
-74.8807396811524
 30
0.0
 10
-272.489890802041
 20
-74.8209251630412
 30
0.0
 10
-272.51741860434
 20
-74.7594655661228
 30
0.0
 10
-272.541413291993
 20
-74.6965335371886
 30
0.0
 10
-272.561830438286
 20
-74.6323857011479
 30
0.0
 10
-272.578626058572
 20
-74.5670767390165
 30
0.0
 10
-272.591774310504
 20
-74.5013724636399
 30
0.0
 10
-272.601175072571
 20
-74.4333973505377
 30
0.0
 10
-272.607007818461
 20
-74.3711294822953
 30
0.0
 10
-272.607941043257
 20
-74.314225901298
 30
0.0
 10
-272.608174355417
 20
-74.300000000033
 30
0.0
  0
LINE
  5
88
330
20
100
AcDbEntity
  8
0
  6
CONTINUOUS
100
AcDbLine
 10
-233.1081743554
 20
75.5
 11
-233.1081743554
 21
77.5
  0
LINE
  5
89
330
20
100
AcDbEntity
  8
0
  6
CONTINUOUS
100
AcDbLine
 10
-233.1081743554
 20
-77.5
 11
-233.1081743554
 21
-75.5
  0
ARC
  5
8A
330
20
100
AcDbEntity
  8
0
  6
CONTINUOUS
100
AcDbCircle
 10
-225.3081743554
 20
-77.7
 40
0.200000000000045
100
AcDbArc
 50
0.0
 51
90.0
  0
ARC
  5
8B
330
20
100
AcDbEntity
  8
0
  6
CONTINUOUS
100
AcDbCircle
 10
-225.3081743554
 20
77.7
 40
0.199999999999989
100
AcDbArc
 50
270.0
 51
0.0
  0
LINE
  5
8C
330
20
100
AcDbEntity
  8
0
  6
CONTINUOUS
100
AcDbLine
 10
-273.8081743554
 20
-30.0
 11
-273.8081743554
 21
30.0
  0
LINE
  5
8D
330
20
100
AcDbEntity
  8
0
  6
CONTINUOUS
100
AcDbLine
 10
-272.6081743554
 20
-74.3
 11
-272.6081743554
 21
74.3
  0
LINE
  5
8E
330
20
100
AcDbEntity
  8
0
  6
CONTINUOUS
100
AcDbLine
 10
-225.1081743554
 20
77.7
 11
-225.1081743554
 21
85.5
  0
LINE
  5
8F
330
20
100
AcDbEntity
  8
0
  6
CONTINUOUS
100
AcDbLine
 10
-225.1081743554
 20
-85.5
 11
-225.1081743554
 21
-77.7
  0
LINE
  5
90
330
20
100
AcDbEntity
  8
0
  6
CONTINUOUS
100
AcDbLine
 10
-233.1081743554
 20
-77.5
 11
-225.3081743554
 21
-77.5
  0
LINE
  5
91
330
20
100
AcDbEntity
  8
0
  6
CONTINUOUS
100
AcDbLine
 10
-233.1081743554
 20
77.5
 11
-225.3081743554
 21
77.5
  0
LINE
  5
92
330
20
100
AcDbEntity
  8
0
  6
CONTINUOUS
100
AcDbLine
 10
-261.6081743554
 20
105.5
 11
-260.6081743554
 21
106.5
  0
LINE
  5
93
330
20
100
AcDbEntity
  8
0
  6
CONTINUOUS
100
AcDbLine
 10
-243.6081743554
 20
105.5
 11
-244.6081743554
 21
106.5
  0
LINE
  5
94
330
20
100
AcDbEntity
  8
0
  6
CONTINUOUS
100
AcDbLine
 10
-244.6081743554
 20
106.5
 11
-244.6081743554
 21
109.0
  0
ARC
  5
95
330
20
100
AcDbEntity
  8
0
  6
CONTINUOUS
100
AcDbCircle
 10
-244.1081743554
 20
109.0
 40
0.5
100
AcDbArc
 50
90.0
 51
180.0
  0
LINE
  5
96
330
20
100
AcDbEntity
  8
0
  6
CONTINUOUS
100
AcDbLine
 10
-260.6081743554
 20
106.5
 11
-260.6081743554
 21
109.0
  0
ARC
  5
97
330
20
100
AcDbEntity
  8
0
  6
CONTINUOUS
100
AcDbCircle
 10
-261.1081743554
 20
109.0
 40
0.5
100
AcDbArc
 50
0.0
 51
90.0
  0
LINE
  5
98
330
20
100
AcDbEntity
  8
0
  6
CONTINUOUS
100
AcDbLine
 10
-264.6081743554
 20
75.5
 11
-264.6081743554
 21
102.5
  0
LINE
  5
99
330
20
100
AcDbEntity
  8
0
  6
CONTINUOUS
100
AcDbLine
 10
-264.6081743554
 20
102.5
 11
-263.6081743554
 21
103.5
  0
LINE
  5
9A
330
20
100
AcDbEntity
  8
0
  6
CONTINUOUS
100
AcDbLine
 10
-263.6081743554
 20
103.5
 11
-241.6081743554
 21
103.5
  0
LINE
  5
9B
330
20
100
AcDbEntity
  8
0
  6
CONTINUOUS
100
AcDbLine
 10
-240.6081743554
 20
75.5
 11
-240.6081743554
 21
102.5
  0
LINE
  5
9C
330
20
100
AcDbEntity
  8
0
  6
CONTINUOUS
100
AcDbLine
 10
-241.6081743554
 20
103.5
 11
-240.6081743554
 21
102.5
  0
LINE
  5
9D
330
20
100
AcDbEntity
  8
0
  6
CONTINUOUS
100
AcDbLine
 10
-264.6081743554
 20
75.5
 11
-240.6081743554
 21
75.5
  0
LINE
  5
9E
330
20
100
AcDbEntity
  8
0
  6
CONTINUOUS
100
AcDbLine
 10
-240.6081743554
 20
102.5
 11
-264.6081743554
 21
102.5
  0
LINE
  5
9F
330
20
100
AcDbEntity
  8
0
  6
CONTINUOUS
100
AcDbLine
 10
-243.6081743554
 20
103.5
 11
-243.6081743554
 21
105.5
  0
LINE
  5
A0
330
20
100
AcDbEntity
  8
0
  6
CONTINUOUS
100
AcDbLine
 10
-244.4081743554
 20
103.5
 11
-244.4081743554
 21
106.3
  0
LINE
  5
A1
330
20
100
AcDbEntity
  8
0
  6
CONTINUOUS
100
AcDbLine
 10
-260.8081743554
 20
103.5
 11
-260.8081743554
 21
106.3
  0
LINE
  5
A2
330
20
100
AcDbEntity
  8
0
  6
CONTINUOUS
100
AcDbLine
 10
-261.6081743554
 20
103.5
 11
-261.6081743554
 21
105.5
  0
LINE
  5
A3
330
20
100
AcDbEntity
  8
0
  6
CONTINUOUS
100
AcDbLine
 10
-260.6081743554
 20
106.5
 11
-244.6081743554
 21
106.5
  0
LINE
  5
A4
330
20
100
AcDbEntity
  8
0
  6
CONTINUOUS
100
AcDbLine
 10
-264.6081743554
 20
114.5
 11
-240.6081743554
 21
114.5
  0
LINE
  5
A5
330
20
100
AcDbEntity
  8
0
  6
CONTINUOUS
100
AcDbLine
 10
-264.6081743554
 20
109.5
 11
-240.6081743554
 21
109.5
  0
LINE
  5
A6
330
20
100
AcDbEntity
  8
0
  6
CONTINUOUS
100
AcDbLine
 10
-264.6081743554
 20
114.5
 11
-264.6081743554
 21
109.5
  0
LINE
  5
A7
330
20
100
AcDbEntity
  8
0
  6
CONTINUOUS
100
AcDbLine
 10
-240.6081743554
 20
114.5
 11
-240.6081743554
 21
109.5
  0
LINE
  5
A8
330
20
100
AcDbEntity
  8
0
  6
CONTINUOUS
100
AcDbLine
 10
-252.6081743554
 20
113.5
 11
-252.6081743554
 21
110.5
  0
ARC
  5
A9
330
20
100
AcDbEntity
  8
0
  6
CONTINUOUS
100
AcDbCircle
 10
-246.6081743554
 20
95.9999999999977
 40
18.5000000000022
100
AcDbArc
 50
71.0753555839509
 51
108.924644416049
  0
ARC
  5
AA
330
20
100
AcDbEntity
  8
0
  6
CONTINUOUS
100
AcDbCircle
 10
-258.6081743554
 20
95.9999999999979
 40
18.500000000002
100
AcDbArc
 50
71.0753555839509
 51
108.924644416049
  0
ARC
  5
AB
330
20
100
AcDbEntity
  8
0
  6
CONTINUOUS
100
AcDbCircle
 10
-258.6081743554
 20
127.999999999998
 40
18.4999999999981
100
AcDbArc
 50
251.075355583947
 51
288.924644416054
  0
ARC
  5
AC
330
20
100
AcDbEntity
  8
0
  6
CONTINUOUS
100
AcDbCircle
 10
-246.6081743554
 20
127.999999999998
 40
18.499999999998
100
AcDbArc
 50
251.075355583947
 51
288.924644416053
  0
LINE
  5
AD
330
20
100
AcDbEntity
  8
0
  6
CENTER
100
AcDbLine
 10
-252.6081743554
 20
70.8506280914383
 11
-252.6081743554
 21
117.615066934502
  0
LINE
  5
AE
330
20
100
AcDbEntity
  8
0
  6
CONTINUOUS
100
AcDbLine
 10
-261.6081743554
 20
-105.5
 11
-260.6081743554
 21
-106.5
  0
LINE
  5
AF
330
20
100
AcDbEntity
  8
0
  6
CONTINUOUS
100
AcDbLine
 10
-243.6081743554
 20
-105.5
 11
-244.6081743554
 21
-106.5
  0
LINE
  5
B0
330
20
100
AcDbEntity
  8
0
  6
CONTINUOUS
100
AcDbLine
 10
-244.6081743554
 20
-106.5
 11
-244.6081743554
 21
-109.0
  0
ARC
  5
B1
330
20
100
AcDbEntity
  8
0
  6
CONTINUOUS
100
AcDbCircle
 10
-244.1081743554
 20
-109.0
 40
0.5
100
AcDbArc
 50
180.0
 51
270.0
  0
LINE
  5
B2
330
20
100
AcDbEntity
  8
0
  6
CONTINUOUS
100
AcDbLine
 10
-260.6081743554
 20
-106.5
 11
-260.6081743554
 21
-109.0
  0
ARC
  5
B3
330
20
100
AcDbEntity
  8
0
  6
CONTINUOUS
100
AcDbCircle
 10
-261.1081743554
 20
-109.0
 40
0.5
100
AcDbArc
 50
270.0
 51
0.0
  0
LINE
  5
B4
330
20
100
AcDbEntity
  8
0
  6
CONTINUOUS
100
AcDbLine
 10
-264.6081743554
 20
-75.5
 11
-264.6081743554
 21
-102.5
  0
LINE
  5
B5
330
20
100
AcDbEntity
  8
0
  6
CONTINUOUS
100
AcDbLine
 10
-264.6081743554
 20
-102.5
 11
-263.6081743554
 21
-103.5
  0
LINE
  5
B6
330
20
100
AcDbEntity
  8
0
  6
CONTINUOUS
100
AcDbLine
 10
-263.6081743554
 20
-103.5
 11
-241.6081743554
 21
-103.5
  0
LINE
  5
B7
330
20
100
AcDbEntity
  8
0
  6
CONTINUOUS
100
AcDbLine
 10
-240.6081743554
 20
-75.5
 11
-240.6081743554
 21
-102.5
  0
LINE
  5
B8
330
20
100
AcDbEntity
  8
0
  6
CONTINUOUS
100
AcDbLine
 10
-241.6081743554
 20
-103.5
 11
-240.6081743554
 21
-102.5
  0
LINE
  5
B9
330
20
100
AcDbEntity
  8
0
  6
CONTINUOUS
100
AcDbLine
 10
-264.6081743554
 20
-75.5
 11
-240.6081743554
 21
-75.5
  0
LINE
  5
BA
330
20
100
AcDbEntity
  8
0
  6
CONTINUOUS
100
AcDbLine
 10
-240.6081743554
 20
-102.5
 11
-264.6081743554
 21
-102.5
  0
LINE
  5
BB
330
20
100
AcDbEntity
  8
0
  6
CONTINUOUS
100
AcDbLine
 10
-243.6081743554
 20
-103.5
 11
-243.6081743554
 21
-105.5
  0
LINE
  5
BC
330
20
100
AcDbEntity
  8
0
  6
CONTINUOUS
100
AcDbLine
 10
-244.4081743554
 20
-103.5
 11
-244.4081743554
 21
-106.3
  0
LINE
  5
BD
330
20
100
AcDbEntity
  8
0
  6
CONTINUOUS
100
AcDbLine
 10
-260.8081743554
 20
-103.5
 11
-260.8081743554
 21
-106.3
  0
LINE
  5
BE
330
20
100
AcDbEntity
  8
0
  6
CONTINUOUS
100
AcDbLine
 10
-261.6081743554
 20
-103.5
 11
-261.6081743554
 21
-105.5
  0
LINE
  5
BF
330
20
100
AcDbEntity
  8
0
  6
CONTINUOUS
100
AcDbLine
 10
-260.6081743554
 20
-106.5
 11
-244.6081743554
 21
-106.5
  0
LINE
  5
C0
330
20
100
AcDbEntity
  8
0
  6
CONTINUOUS
100
AcDbLine
 10
-264.6081743554
 20
-114.5
 11
-240.6081743554
 21
-114.5
  0
LINE
  5
C1
330
20
100
AcDbEntity
  8
0
  6
CONTINUOUS
100
AcDbLine
 10
-264.6081743554
 20
-109.5
 11
-240.6081743554
 21
-109.5
  0
LINE
  5
C2
330
20
100
AcDbEntity
  8
0
  6
CONTINUOUS
100
AcDbLine
 10
-264.6081743554
 20
-114.5
 11
-264.6081743554
 21
-109.5
  0
LINE
  5
C3
330
20
100
AcDbEntity
  8
0
  6
CONTINUOUS
100
AcDbLine
 10
-240.6081743554
 20
-114.5
 11
-240.6081743554
 21
-109.5
  0
LINE
  5
C4
330
20
100
AcDbEntity
  8
0
  6
CONTINUOUS
100
AcDbLine
 10
-252.6081743554
 20
-113.5
 11
-252.6081743554
 21
-110.5
  0
ARC
  5
C5
330
20
100
AcDbEntity
  8
0
  6
CONTINUOUS
100
AcDbCircle
 10
-246.6081743554
 20
-95.9999999999977
 40
18.5000000000022
100
AcDbArc
 50
251.075355583951
 51
288.924644416049
  0
ARC
  5
C6
330
20
100
AcDbEntity
  8
0
  6
CONTINUOUS
100
AcDbCircle
 10
-258.6081743554
 20
-95.9999999999979
 40
18.500000000002
100
AcDbArc
 50
251.075355583951
 51
288.924644416049
  0
ARC
  5
C7
330
20
100
AcDbEntity
  8
0
  6
CONTINUOUS
100
AcDbCircle
 10
-258.6081743554
 20
-127.999999999998
 40
18.4999999999981
100
AcDbArc
 50
71.0753555839463
 51
108.924644416053
  0
ARC
  5
C8
330
20
100
AcDbEntity
  8
0
  6
CONTINUOUS
100
AcDbCircle
 10
-246.6081743554
 20
-127.999999999998
 40
18.499999999998
100
AcDbArc
 50
71.0753555839467
 51
108.924644416053
  0
LINE
  5
C9
330
20
100
AcDbEntity
  8
0
  6
CENTER
100
AcDbLine
 10
-252.6081743554
 20
-70.8506280914383
 11
-252.6081743554
 21
-117.615066934502
  0
LINE
  5
CA
330
20
100
AcDbEntity
  8
0
  6
CONTINUOUS
100
AcDbLine
 10
-49.0
 20
-105.5
 11
-48.0
 21
-106.5
  0
LINE
  5
CB
330
20
100
AcDbEntity
  8
0
  6
CONTINUOUS
100
AcDbLine
 10
-31.0
 20
-105.5
 11
-32.0
 21
-106.5
  0
LINE
  5
CC
330
20
100
AcDbEntity
  8
0
  6
CONTINUOUS
100
AcDbLine
 10
-32.0
 20
-106.5
 11
-32.0
 21
-109.0
  0
ARC
  5
CD
330
20
100
AcDbEntity
  8
0
  6
CONTINUOUS
100
AcDbCircle
 10
-31.5
 20
-109.0
 40
0.5
100
AcDbArc
 50
180.0
 51
270.0
  0
LINE
  5
CE
330
20
100
AcDbEntity
  8
0
  6
CONTINUOUS
100
AcDbLine
 10
-48.0
 20
-106.5
 11
-48.0
 21
-109.0
  0
ARC
  5
CF
330
20
100
AcDbEntity
  8
0
  6
CONTINUOUS
100
AcDbCircle
 10
-48.5
 20
-109.0
 40
0.5
100
AcDbArc
 50
270.0
 51
0.0
  0
ARC
  5
D0
330
20
100
AcDbEntity
  8
0
  6
CONTINUOUS
100
AcDbCircle
 10
-50.3923048454133
 20
-108.0
 40
6.50000000000001
100
AcDbArc
 50
237.795772496028
 51
302.204227503972
  0
ARC
  5
D1
330
20
100
AcDbEntity
  8
0
  6
CONTINUOUS
100
AcDbCircle
 10
-50.3923048454133
 20
-116.0
 40
6.50000000000001
100
AcDbArc
 50
57.7957724960277
 51
122.204227503972
  0
LINE
  5
D2
330
20
100
AcDbEntity
  8
0
  6
CONTINUOUS
100
AcDbLine
 10
-26.1435935394491
 20
-113.5
 11
-27.8756443470179
 21
-114.5
  0
LINE
  5
D3
330
20
100
AcDbEntity
  8
0
  6
CONTINUOUS
100
AcDbLine
 10
-53.8564064605511
 20
-113.5
 11
-52.1243556529821
 21
-114.5
  0
LINE
  5
D4
330
20
100
AcDbEntity
  8
0
  6
CONTINUOUS
100
AcDbLine
 10
-27.8756443470179
 20
-109.5
 11
-26.1435935394491
 21
-110.5
  0
LINE
  5
D5
330
20
100
AcDbEntity
  8
0
  6
CONTINUOUS
100
AcDbLine
 10
-52.1243556529821
 20
-109.5
 11
-53.8564064605511
 21
-110.5
  0
LINE
  5
D6
330
20
100
AcDbEntity
  8
0
  6
CONTINUOUS
100
AcDbLine
 10
-53.8564064605511
 20
-110.5
 11
-53.8564064605511
 21
-113.5
  0
LINE
  5
D7
330
20
100
AcDbEntity
  8
0
  6
CONTINUOUS
100
AcDbLine
 10
-46.9282032302755
 20
-110.5
 11
-46.9282032302755
 21
-113.5
  0
LINE
  5
D8
330
20
100
AcDbEntity
  8
0
  6
CONTINUOUS
100
AcDbLine
 10
-26.1435935394491
 20
-110.5
 11
-26.1435935394491
 21
-113.5
  0
LINE
  5
D9
330
20
100
AcDbEntity
  8
0
  6
CONTINUOUS
100
AcDbLine
 10
-52.1243556529821
 20
-114.5
 11
-27.8756443470179
 21
-114.5
  0
ARC
  5
DA
330
20
100
AcDbEntity
  8
0
  6
CONTINUOUS
100
AcDbCircle
 10
-40.0
 20
-134.0
 40
24.5
100
AcDbArc
 50
90.0
 51
106.426421403476
  0
ARC
  5
DB
330
20
100
AcDbEntity
  8
0
  6
CONTINUOUS
100
AcDbCircle
 10
-40.0
 20
-90.0
 40
24.5
100
AcDbArc
 50
253.573578596524
 51
270.0
  0
LINE
  5
DC
330
20
100
AcDbEntity
  8
0
  6
CENTER
100
AcDbLine
 10
-40.0
 20
-87.3940766252739
 11
-40.0
 21
-117.615066934502
  0
LINE
  5
DD
330
20
100
AcDbEntity
  8
0
  6
CONTINUOUS
100
AcDbLine
 10
-52.0
 20
-102.5
 11
-51.0
 21
-103.5
  0
LINE
  5
DE
330
20
100
AcDbEntity
  8
0
  6
CONTINUOUS
100
AcDbLine
 10
-51.0
 20
-103.5
 11
-29.0
 21
-103.5
  0
LINE
  5
DF
330
20
100
AcDbEntity
  8
0
  6
CONTINUOUS
100
AcDbLine
 10
-29.0
 20
-103.5
 11
-28.0
 21
-102.5
  0
LINE
  5
E0
330
20
100
AcDbEntity
  8
0
  6
CONTINUOUS
100
AcDbLine
 10
-52.1243556529821
 20
-109.5
 11
-27.8756443470179
 21
-109.5
  0
LINE
  5
E1
330
20
100
AcDbEntity
  8
0
  6
CONTINUOUS
100
AcDbLine
 10
-28.0
 20
-102.5
 11
-52.0
 21
-102.5
  0
LINE
  5
E2
330
20
100
AcDbEntity
  8
0
  6
CONTINUOUS
100
AcDbLine
 10
-31.0
 20
-103.5
 11
-31.0
 21
-105.5
  0
LINE
  5
E3
330
20
100
AcDbEntity
  8
0
  6
CONTINUOUS
100
AcDbLine
 10
-31.8000000000001
 20
-103.5
 11
-31.8000000000001
 21
-106.3
  0
LINE
  5
E4
330
20
100
AcDbEntity
  8
0
  6
CONTINUOUS
100
AcDbLine
 10
-48.2
 20
-103.5
 11
-48.2
 21
-106.3
  0
LINE
  5
E5
330
20
100
AcDbEntity
  8
0
  6
CONTINUOUS
100
AcDbLine
 10
-49.0
 20
-103.5
 11
-49.0
 21
-105.5
  0
ARC
  5
E6
330
20
100
AcDbEntity
  8
0
  6
CONTINUOUS
100
AcDbCircle
 10
-40.0
 20
-90.0
 40
24.5
100
AcDbArc
 50
270.0
 51
286.426421403476
  0
ARC
  5
E7
330
20
100
AcDbEntity
  8
0
  6
CONTINUOUS
100
AcDbCircle
 10
-40.0
 20
-134.0
 40
24.5
100
AcDbArc
 50
73.5735785965237
 51
90.0
  0
LINE
  5
E8
330
20
100
AcDbEntity
  8
0
  6
CONTINUOUS
100
AcDbLine
 10
-33.0717967697245
 20
-110.5
 11
-33.0717967697245
 21
-113.5
  0
ARC
  5
E9
330
20
100
AcDbEntity
  8
0
  6
CONTINUOUS
100
AcDbCircle
 10
-29.6076951545867
 20
-116.0
 40
6.50000000000001
100
AcDbArc
 50
57.7957724960285
 51
122.204227503972
  0
ARC
  5
EA
330
20
100
AcDbEntity
  8
0
  6
CONTINUOUS
100
AcDbCircle
 10
-29.6076951545867
 20
-108.0
 40
6.50000000000001
100
AcDbArc
 50
237.795772496028
 51
302.204227503971
  0
LINE
  5
EB
330
20
100
AcDbEntity
  8
0
  6
CONTINUOUS
100
AcDbLine
 10
-48.0
 20
-106.5
 11
-32.0
 21
-106.5
  0
LINE
  5
EC
330
20
100
AcDbEntity
  8
0
  6
CONTINUOUS
100
AcDbLine
 10
31.0
 20
-105.5
 11
32.0
 21
-106.5
  0
LINE
  5
ED
330
20
100
AcDbEntity
  8
0
  6
CONTINUOUS
100
AcDbLine
 10
49.0
 20
-105.5
 11
48.0
 21
-106.5
  0
LINE
  5
EE
330
20
100
AcDbEntity
  8
0
  6
CONTINUOUS
100
AcDbLine
 10
48.0
 20
-106.5
 11
48.0
 21
-109.0
  0
ARC
  5
EF
330
20
100
AcDbEntity
  8
0
  6
CONTINUOUS
100
AcDbCircle
 10
48.5
 20
-109.0
 40
0.5
100
AcDbArc
 50
180.0
 51
270.0
  0
LINE
  5
F0
330
20
100
AcDbEntity
  8
0
  6
CONTINUOUS
100
AcDbLine
 10
32.0
 20
-106.5
 11
32.0
 21
-109.0
  0
ARC
  5
F1
330
20
100
AcDbEntity
  8
0
  6
CONTINUOUS
100
AcDbCircle
 10
31.5
 20
-109.0
 40
0.5
100
AcDbArc
 50
270.0
 51
0.0
  0
ARC
  5
F2
330
20
100
AcDbEntity
  8
0
  6
CONTINUOUS
100
AcDbCircle
 10
29.6076951545867
 20
-108.0
 40
6.50000000000001
100
AcDbArc
 50
237.795772496028
 51
302.204227503972
  0
ARC
  5
F3
330
20
100
AcDbEntity
  8
0
  6
CONTINUOUS
100
AcDbCircle
 10
29.6076951545867
 20
-116.0
 40
6.50000000000001
100
AcDbArc
 50
57.7957724960277
 51
122.204227503972
  0
LINE
  5
F4
330
20
100
AcDbEntity
  8
0
  6
CONTINUOUS
100
AcDbLine
 10
53.8564064605509
 20
-113.5
 11
52.1243556529821
 21
-114.5
  0
LINE
  5
F5
330
20
100
AcDbEntity
  8
0
  6
CONTINUOUS
100
AcDbLine
 10
26.1435935394489
 20
-113.5
 11
27.8756443470179
 21
-114.5
  0
LINE
  5
F6
330
20
100
AcDbEntity
  8
0
  6
CONTINUOUS
100
AcDbLine
 10
52.1243556529821
 20
-109.5
 11
53.8564064605509
 21
-110.5
  0
LINE
  5
F7
330
20
100
AcDbEntity
  8
0
  6
CONTINUOUS
100
AcDbLine
 10
27.8756443470179
 20
-109.5
 11
26.1435935394489
 21
-110.5
  0
LINE
  5
F8
330
20
100
AcDbEntity
  8
0
  6
CONTINUOUS
100
AcDbLine
 10
26.1435935394489
 20
-110.5
 11
26.1435935394489
 21
-113.5
  0
LINE
  5
F9
330
20
100
AcDbEntity
  8
0
  6
CONTINUOUS
100
AcDbLine
 10
33.0717967697245
 20
-110.5
 11
33.0717967697245
 21
-113.5
  0
LINE
  5
FA
330
20
100
AcDbEntity
  8
0
  6
CONTINUOUS
100
AcDbLine
 10
53.8564064605509
 20
-110.5
 11
53.8564064605509
 21
-113.5
  0
LINE
  5
FB
330
20
100
AcDbEntity
  8
0
  6
CONTINUOUS
100
AcDbLine
 10
27.8756443470179
 20
-114.5
 11
52.1243556529821
 21
-114.5
  0
ARC
  5
FC
330
20
100
AcDbEntity
  8
0
  6
CONTINUOUS
100
AcDbCircle
 10
40.0
 20
-134.0
 40
24.5
100
AcDbArc
 50
90.0
 51
106.426421403476
  0
ARC
  5
FD
330
20
100
AcDbEntity
  8
0
  6
CONTINUOUS
100
AcDbCircle
 10
40.0
 20
-90.0
 40
24.5
100
AcDbArc
 50
253.573578596524
 51
270.0
  0
LINE
  5
FE
330
20
100
AcDbEntity
  8
0
  6
CENTER
100
AcDbLine
 10
40.0
 20
-87.3940766252739
 11
40.0
 21
-117.615066934502
  0
LINE
  5
FF
330
20
100
AcDbEntity
  8
0
  6
CONTINUOUS
100
AcDbLine
 10
28.0
 20
-102.5
 11
29.0
 21
-103.5
  0
LINE
  5
100
330
20
100
AcDbEntity
  8
0
  6
CONTINUOUS
100
AcDbLine
 10
29.0
 20
-103.5
 11
51.0
 21
-103.5
  0
LINE
  5
101
330
20
100
AcDbEntity
  8
0
  6
CONTINUOUS
100
AcDbLine
 10
51.0
 20
-103.5
 11
52.0
 21
-102.5
  0
LINE
  5
102
330
20
100
AcDbEntity
  8
0
  6
CONTINUOUS
100
AcDbLine
 10
27.8756443470179
 20
-109.5
 11
52.1243556529821
 21
-109.5
  0
LINE
  5
103
330
20
100
AcDbEntity
  8
0
  6
CONTINUOUS
100
AcDbLine
 10
52.0
 20
-102.5
 11
28.0
 21
-102.5
  0
LINE
  5
104
330
20
100
AcDbEntity
  8
0
  6
CONTINUOUS
100
AcDbLine
 10
49.0
 20
-103.5
 11
49.0
 21
-105.5
  0
LINE
  5
105
330
20
100
AcDbEntity
  8
0
  6
CONTINUOUS
100
AcDbLine
 10
48.1999999999999
 20
-103.5
 11
48.1999999999999
 21
-106.3
  0
LINE
  5
106
330
20
100
AcDbEntity
  8
0
  6
CONTINUOUS
100
AcDbLine
 10
31.8
 20
-103.5
 11
31.8
 21
-106.3
  0
LINE
  5
107
330
20
100
AcDbEntity
  8
0
  6
CONTINUOUS
100
AcDbLine
 10
31.0
 20
-103.5
 11
31.0
 21
-105.5
  0
ARC
  5
108
330
20
100
AcDbEntity
  8
0
  6
CONTINUOUS
100
AcDbCircle
 10
40.0
 20
-90.0
 40
24.5
100
AcDbArc
 50
270.0
 51
286.426421403476
  0
ARC
  5
109
330
20
100
AcDbEntity
  8
0
  6
CONTINUOUS
100
AcDbCircle
 10
40.0
 20
-134.0
 40
24.5
100
AcDbArc
 50
73.5735785965237
 51
90.0
  0
LINE
  5
10A
330
20
100
AcDbEntity
  8
0
  6
CONTINUOUS
100
AcDbLine
 10
46.9282032302755
 20
-110.5
 11
46.9282032302755
 21
-113.5
  0
ARC
  5
10B
330
20
100
AcDbEntity
  8
0
  6
CONTINUOUS
100
AcDbCircle
 10
50.3923048454133
 20
-116.0
 40
6.50000000000001
100
AcDbArc
 50
57.7957724960285
 51
122.204227503972
  0
ARC
  5
10C
330
20
100
AcDbEntity
  8
0
  6
CONTINUOUS
100
AcDbCircle
 10
50.3923048454133
 20
-108.0
 40
6.50000000000001
100
AcDbArc
 50
237.795772496028
 51
302.204227503971
  0
LINE
  5
10D
330
20
100
AcDbEntity
  8
0
  6
CONTINUOUS
100
AcDbLine
 10
32.0
 20
-106.5
 11
48.0
 21
-106.5
  0
LINE
  5
10E
330
20
100
AcDbEntity
  8
0
  6
CONTINUOUS
100
AcDbLine
 10
31.0
 20
105.5
 11
32.0
 21
106.5
  0
LINE
  5
10F
330
20
100
AcDbEntity
  8
0
  6
CONTINUOUS
100
AcDbLine
 10
49.0
 20
105.5
 11
48.0
 21
106.5
  0
LINE
  5
110
330
20
100
AcDbEntity
  8
0
  6
CONTINUOUS
100
AcDbLine
 10
48.0
 20
106.5
 11
48.0
 21
109.0
  0
ARC
  5
111
330
20
100
AcDbEntity
  8
0
  6
CONTINUOUS
100
AcDbCircle
 10
48.5
 20
109.0
 40
0.5
100
AcDbArc
 50
90.0
 51
180.0
  0
LINE
  5
112
330
20
100
AcDbEntity
  8
0
  6
CONTINUOUS
100
AcDbLine
 10
32.0
 20
106.5
 11
32.0
 21
109.0
  0
ARC
  5
113
330
20
100
AcDbEntity
  8
0
  6
CONTINUOUS
100
AcDbCircle
 10
31.5
 20
109.0
 40
0.5
100
AcDbArc
 50
0.0
 51
90.0
  0
ARC
  5
114
330
20
100
AcDbEntity
  8
0
  6
CONTINUOUS
100
AcDbCircle
 10
29.6076951545867
 20
108.0
 40
6.50000000000001
100
AcDbArc
 50
57.7957724960277
 51
122.204227503972
  0
ARC
  5
115
330
20
100
AcDbEntity
  8
0
  6
CONTINUOUS
100
AcDbCircle
 10
29.6076951545867
 20
116.0
 40
6.50000000000001
100
AcDbArc
 50
237.795772496028
 51
302.204227503972
  0
LINE
  5
116
330
20
100
AcDbEntity
  8
0
  6
CONTINUOUS
100
AcDbLine
 10
53.8564064605509
 20
113.5
 11
52.1243556529821
 21
114.5
  0
LINE
  5
117
330
20
100
AcDbEntity
  8
0
  6
CONTINUOUS
100
AcDbLine
 10
26.1435935394489
 20
113.5
 11
27.8756443470179
 21
114.5
  0
LINE
  5
118
330
20
100
AcDbEntity
  8
0
  6
CONTINUOUS
100
AcDbLine
 10
52.1243556529821
 20
109.5
 11
53.8564064605509
 21
110.5
  0
LINE
  5
119
330
20
100
AcDbEntity
  8
0
  6
CONTINUOUS
100
AcDbLine
 10
27.8756443470179
 20
109.5
 11
26.1435935394489
 21
110.5
  0
LINE
  5
11A
330
20
100
AcDbEntity
  8
0
  6
CONTINUOUS
100
AcDbLine
 10
26.1435935394489
 20
110.5
 11
26.1435935394489
 21
113.5
  0
LINE
  5
11B
330
20
100
AcDbEntity
  8
0
  6
CONTINUOUS
100
AcDbLine
 10
33.0717967697245
 20
110.5
 11
33.0717967697245
 21
113.5
  0
LINE
  5
11C
330
20
100
AcDbEntity
  8
0
  6
CONTINUOUS
100
AcDbLine
 10
53.8564064605509
 20
110.5
 11
53.8564064605509
 21
113.5
  0
LINE
  5
11D
330
20
100
AcDbEntity
  8
0
  6
CONTINUOUS
100
AcDbLine
 10
27.8756443470179
 20
114.5
 11
52.1243556529821
 21
114.5
  0
ARC
  5
11E
330
20
100
AcDbEntity
  8
0
  6
CONTINUOUS
100
AcDbCircle
 10
40.0
 20
134.0
 40
24.5
100
AcDbArc
 50
253.573578596524
 51
270.0
  0
ARC
  5
11F
330
20
100
AcDbEntity
  8
0
  6
CONTINUOUS
100
AcDbCircle
 10
40.0
 20
90.0
 40
24.5
100
AcDbArc
 50
90.0
 51
106.426421403476
  0
LINE
  5
120
330
20
100
AcDbEntity
  8
0
  6
CONTINUOUS
100
AcDbLine
 10
28.0
 20
102.5
 11
29.0
 21
103.5
  0
LINE
  5
121
330
20
100
AcDbEntity
  8
0
  6
CONTINUOUS
100
AcDbLine
 10
29.0
 20
103.5
 11
51.0
 21
103.5
  0
LINE
  5
122
330
20
100
AcDbEntity
  8
0
  6
CONTINUOUS
100
AcDbLine
 10
51.0
 20
103.5
 11
52.0
 21
102.5
  0
LINE
  5
123
330
20
100
AcDbEntity
  8
0
  6
CONTINUOUS
100
AcDbLine
 10
27.8756443470179
 20
109.5
 11
52.1243556529821
 21
109.5
  0
LINE
  5
124
330
20
100
AcDbEntity
  8
0
  6
CONTINUOUS
100
AcDbLine
 10
52.0
 20
102.5
 11
28.0
 21
102.5
  0
LINE
  5
125
330
20
100
AcDbEntity
  8
0
  6
CONTINUOUS
100
AcDbLine
 10
49.0
 20
103.5
 11
49.0
 21
105.5
  0
LINE
  5
126
330
20
100
AcDbEntity
  8
0
  6
CONTINUOUS
100
AcDbLine
 10
48.1999999999999
 20
103.5
 11
48.1999999999999
 21
106.3
  0
LINE
  5
127
330
20
100
AcDbEntity
  8
0
  6
CONTINUOUS
100
AcDbLine
 10
31.8
 20
103.5
 11
31.8
 21
106.3
  0
LINE
  5
128
330
20
100
AcDbEntity
  8
0
  6
CONTINUOUS
100
AcDbLine
 10
31.0
 20
103.5
 11
31.0
 21
105.5
  0
ARC
  5
129
330
20
100
AcDbEntity
  8
0
  6
CONTINUOUS
100
AcDbCircle
 10
40.0
 20
90.0
 40
24.5
100
AcDbArc
 50
73.5735785965237
 51
90.0
  0
ARC
  5
12A
330
20
100
AcDbEntity
  8
0
  6
CONTINUOUS
100
AcDbCircle
 10
40.0
 20
134.0
 40
24.5
100
AcDbArc
 50
270.0
 51
286.426421403476
  0
LINE
  5
12B
330
20
100
AcDbEntity
  8
0
  6
CONTINUOUS
100
AcDbLine
 10
46.9282032302755
 20
110.5
 11
46.9282032302755
 21
113.5
  0
ARC
  5
12C
330
20
100
AcDbEntity
  8
0
  6
CONTINUOUS
100
AcDbCircle
 10
50.3923048454133
 20
116.0
 40
6.50000000000001
100
AcDbArc
 50
237.795772496028
 51
302.204227503971
  0
ARC
  5
12D
330
20
100
AcDbEntity
  8
0
  6
CONTINUOUS
100
AcDbCircle
 10
50.3923048454133
 20
108.0
 40
6.50000000000001
100
AcDbArc
 50
57.7957724960285
 51
122.204227503972
  0
LINE
  5
12E
330
20
100
AcDbEntity
  8
0
  6
CONTINUOUS
100
AcDbLine
 10
32.0
 20
106.5
 11
48.0
 21
106.5
  0
LINE
  5
12F
330
20
100
AcDbEntity
  8
0
  6
CONTINUOUS
100
AcDbLine
 10
-9.0
 20
105.5
 11
-8.0
 21
106.5
  0
LINE
  5
130
330
20
100
AcDbEntity
  8
0
  6
CONTINUOUS
100
AcDbLine
 10
9.0
 20
105.5
 11
8.0
 21
106.5
  0
LINE
  5
131
330
20
100
AcDbEntity
  8
0
  6
CONTINUOUS
100
AcDbLine
 10
8.0
 20
106.5
 11
8.0
 21
109.0
  0
ARC
  5
132
330
20
100
AcDbEntity
  8
0
  6
CONTINUOUS
100
AcDbCircle
 10
8.5
 20
109.0
 40
0.5
100
AcDbArc
 50
90.0
 51
180.0
  0
LINE
  5
133
330
20
100
AcDbEntity
  8
0
  6
CONTINUOUS
100
AcDbLine
 10
-8.0
 20
106.5
 11
-8.0
 21
109.0
  0
ARC
  5
134
330
20
100
AcDbEntity
  8
0
  6
CONTINUOUS
100
AcDbCircle
 10
-8.5
 20
109.0
 40
0.5
100
AcDbArc
 50
0.0
 51
90.0
  0
ARC
  5
135
330
20
100
AcDbEntity
  8
0
  6
CONTINUOUS
100
AcDbCircle
 10
-10.3923048454133
 20
108.0
 40
6.50000000000001
100
AcDbArc
 50
57.7957724960277
 51
122.204227503972
  0
ARC
  5
136
330
20
100
AcDbEntity
  8
0
  6
CONTINUOUS
100
AcDbCircle
 10
-10.3923048454133
 20
116.0
 40
6.50000000000001
100
AcDbArc
 50
237.795772496028
 51
302.204227503972
  0
LINE
  5
137
330
20
100
AcDbEntity
  8
0
  6
CONTINUOUS
100
AcDbLine
 10
13.8564064605509
 20
113.5
 11
12.1243556529821
 21
114.5
  0
LINE
  5
138
330
20
100
AcDbEntity
  8
0
  6
CONTINUOUS
100
AcDbLine
 10
-13.8564064605511
 20
113.5
 11
-12.1243556529821
 21
114.5
  0
LINE
  5
139
330
20
100
AcDbEntity
  8
0
  6
CONTINUOUS
100
AcDbLine
 10
12.1243556529821
 20
109.5
 11
13.8564064605509
 21
110.5
  0
LINE
  5
13A
330
20
100
AcDbEntity
  8
0
  6
CONTINUOUS
100
AcDbLine
 10
-12.1243556529821
 20
109.5
 11
-13.8564064605511
 21
110.5
  0
LINE
  5
13B
330
20
100
AcDbEntity
  8
0
  6
CONTINUOUS
100
AcDbLine
 10
-13.8564064605511
 20
110.5
 11
-13.8564064605511
 21
113.5
  0
LINE
  5
13C
330
20
100
AcDbEntity
  8
0
  6
CONTINUOUS
100
AcDbLine
 10
-6.92820323027553
 20
110.5
 11
-6.92820323027553
 21
113.5
  0
LINE
  5
13D
330
20
100
AcDbEntity
  8
0
  6
CONTINUOUS
100
AcDbLine
 10
13.8564064605509
 20
110.5
 11
13.8564064605509
 21
113.5
  0
LINE
  5
13E
330
20
100
AcDbEntity
  8
0
  6
CONTINUOUS
100
AcDbLine
 10
-12.1243556529821
 20
114.5
 11
12.1243556529821
 21
114.5
  0
ARC
  5
13F
330
20
100
AcDbEntity
  8
0
  6
CONTINUOUS
100
AcDbCircle
 10
0.0
 20
134.0
 40
24.5
100
AcDbArc
 50
253.573578596524
 51
270.0
  0
ARC
  5
140
330
20
100
AcDbEntity
  8
0
  6
CONTINUOUS
100
AcDbCircle
 10
0.0
 20
90.0
 40
24.5
100
AcDbArc
 50
90.0
 51
106.426421403476
  0
LINE
  5
141
330
20
100
AcDbEntity
  8
0
  6
CONTINUOUS
100
AcDbLine
 10
-12.0
 20
102.5
 11
-11.0
 21
103.5
  0
LINE
  5
142
330
20
100
AcDbEntity
  8
0
  6
CONTINUOUS
100
AcDbLine
 10
-11.0
 20
103.5
 11
11.0
 21
103.5
  0
LINE
  5
143
330
20
100
AcDbEntity
  8
0
  6
CONTINUOUS
100
AcDbLine
 10
11.0
 20
103.5
 11
12.0
 21
102.5
  0
LINE
  5
144
330
20
100
AcDbEntity
  8
0
  6
CONTINUOUS
100
AcDbLine
 10
-12.1243556529821
 20
109.5
 11
12.1243556529821
 21
109.5
  0
LINE
  5
145
330
20
100
AcDbEntity
  8
0
  6
CONTINUOUS
100
AcDbLine
 10
12.0
 20
102.5
 11
-12.0
 21
102.5
  0
LINE
  5
146
330
20
100
AcDbEntity
  8
0
  6
CONTINUOUS
100
AcDbLine
 10
9.0
 20
103.5
 11
9.0
 21
105.5
  0
LINE
  5
147
330
20
100
AcDbEntity
  8
0
  6
CONTINUOUS
100
AcDbLine
 10
8.19999999999993
 20
103.5
 11
8.19999999999993
 21
106.3
  0
LINE
  5
148
330
20
100
AcDbEntity
  8
0
  6
CONTINUOUS
100
AcDbLine
 10
-8.20000000000005
 20
103.5
 11
-8.20000000000005
 21
106.3
  0
LINE
  5
149
330
20
100
AcDbEntity
  8
0
  6
CONTINUOUS
100
AcDbLine
 10
-9.0
 20
103.5
 11
-9.0
 21
105.5
  0
ARC
  5
14A
330
20
100
AcDbEntity
  8
0
  6
CONTINUOUS
100
AcDbCircle
 10
0.0
 20
90.0
 40
24.5
100
AcDbArc
 50
73.5735785965237
 51
90.0
  0
ARC
  5
14B
330
20
100
AcDbEntity
  8
0
  6
CONTINUOUS
100
AcDbCircle
 10
0.0
 20
134.0
 40
24.5
100
AcDbArc
 50
270.0
 51
286.426421403476
  0
LINE
  5
14C
330
20
100
AcDbEntity
  8
0
  6
CONTINUOUS
100
AcDbLine
 10
6.92820323027547
 20
110.5
 11
6.92820323027547
 21
113.5
  0
ARC
  5
14D
330
20
100
AcDbEntity
  8
0
  6
CONTINUOUS
100
AcDbCircle
 10
10.3923048454133
 20
116.0
 40
6.50000000000001
100
AcDbArc
 50
237.795772496028
 51
302.204227503971
  0
ARC
  5
14E
330
20
100
AcDbEntity
  8
0
  6
CONTINUOUS
100
AcDbCircle
 10
10.3923048454133
 20
108.0
 40
6.50000000000001
100
AcDbArc
 50
57.7957724960285
 51
122.204227503972
  0
LINE
  5
14F
330
20
100
AcDbEntity
  8
0
  6
CONTINUOUS
100
AcDbLine
 10
-8.0
 20
106.5
 11
8.0
 21
106.5
  0
LINE
  5
150
330
20
100
AcDbEntity
  8
0
  6
CONTINUOUS
100
AcDbLine
 10
-49.0
 20
105.5
 11
-48.0
 21
106.5
  0
LINE
  5
151
330
20
100
AcDbEntity
  8
0
  6
CONTINUOUS
100
AcDbLine
 10
-31.0
 20
105.5
 11
-32.0
 21
106.5
  0
LINE
  5
152
330
20
100
AcDbEntity
  8
0
  6
CONTINUOUS
100
AcDbLine
 10
-32.0
 20
106.5
 11
-32.0
 21
109.0
  0
ARC
  5
153
330
20
100
AcDbEntity
  8
0
  6
CONTINUOUS
100
AcDbCircle
 10
-31.5
 20
109.0
 40
0.5
100
AcDbArc
 50
90.0
 51
180.0
  0
LINE
  5
154
330
20
100
AcDbEntity
  8
0
  6
CONTINUOUS
100
AcDbLine
 10
-48.0
 20
106.5
 11
-48.0
 21
109.0
  0
ARC
  5
155
330
20
100
AcDbEntity
  8
0
  6
CONTINUOUS
100
AcDbCircle
 10
-48.5
 20
109.0
 40
0.5
100
AcDbArc
 50
0.0
 51
90.0
  0
ARC
  5
156
330
20
100
AcDbEntity
  8
0
  6
CONTINUOUS
100
AcDbCircle
 10
-50.3923048454133
 20
108.0
 40
6.50000000000001
100
AcDbArc
 50
57.7957724960277
 51
122.204227503972
  0
ARC
  5
157
330
20
100
AcDbEntity
  8
0
  6
CONTINUOUS
100
AcDbCircle
 10
-50.3923048454133
 20
116.0
 40
6.50000000000001
100
AcDbArc
 50
237.795772496028
 51
302.204227503972
  0
LINE
  5
158
330
20
100
AcDbEntity
  8
0
  6
CONTINUOUS
100
AcDbLine
 10
-26.1435935394491
 20
113.5
 11
-27.8756443470179
 21
114.5
  0
LINE
  5
159
330
20
100
AcDbEntity
  8
0
  6
CONTINUOUS
100
AcDbLine
 10
-53.8564064605511
 20
113.5
 11
-52.1243556529821
 21
114.5
  0
LINE
  5
15A
330
20
100
AcDbEntity
  8
0
  6
CONTINUOUS
100
AcDbLine
 10
-27.8756443470179
 20
109.5
 11
-26.1435935394491
 21
110.5
  0
LINE
  5
15B
330
20
100
AcDbEntity
  8
0
  6
CONTINUOUS
100
AcDbLine
 10
-52.1243556529821
 20
109.5
 11
-53.8564064605511
 21
110.5
  0
LINE
  5
15C
330
20
100
AcDbEntity
  8
0
  6
CONTINUOUS
100
AcDbLine
 10
-53.8564064605511
 20
110.5
 11
-53.8564064605511
 21
113.5
  0
LINE
  5
15D
330
20
100
AcDbEntity
  8
0
  6
CONTINUOUS
100
AcDbLine
 10
-46.9282032302755
 20
110.5
 11
-46.9282032302755
 21
113.5
  0
LINE
  5
15E
330
20
100
AcDbEntity
  8
0
  6
CONTINUOUS
100
AcDbLine
 10
-26.1435935394491
 20
110.5
 11
-26.1435935394491
 21
113.5
  0
LINE
  5
15F
330
20
100
AcDbEntity
  8
0
  6
CONTINUOUS
100
AcDbLine
 10
-52.1243556529821
 20
114.5
 11
-27.8756443470179
 21
114.5
  0
ARC
  5
160
330
20
100
AcDbEntity
  8
0
  6
CONTINUOUS
100
AcDbCircle
 10
-40.0
 20
134.0
 40
24.5
100
AcDbArc
 50
253.573578596524
 51
270.0
  0
ARC
  5
161
330
20
100
AcDbEntity
  8
0
  6
CONTINUOUS
100
AcDbCircle
 10
-40.0
 20
90.0
 40
24.5
100
AcDbArc
 50
90.0
 51
106.426421403476
  0
LINE
  5
162
330
20
100
AcDbEntity
  8
0
  6
CONTINUOUS
100
AcDbLine
 10
-52.0
 20
102.5
 11
-51.0
 21
103.5
  0
LINE
  5
163
330
20
100
AcDbEntity
  8
0
  6
CONTINUOUS
100
AcDbLine
 10
-51.0
 20
103.5
 11
-29.0
 21
103.5
  0
LINE
  5
164
330
20
100
AcDbEntity
  8
0
  6
CONTINUOUS
100
AcDbLine
 10
-29.0
 20
103.5
 11
-28.0
 21
102.5
  0
LINE
  5
165
330
20
100
AcDbEntity
  8
0
  6
CONTINUOUS
100
AcDbLine
 10
-52.1243556529821
 20
109.5
 11
-27.8756443470179
 21
109.5
  0
LINE
  5
166
330
20
100
AcDbEntity
  8
0
  6
CONTINUOUS
100
AcDbLine
 10
-28.0
 20
102.5
 11
-52.0
 21
102.5
  0
LINE
  5
167
330
20
100
AcDbEntity
  8
0
  6
CONTINUOUS
100
AcDbLine
 10
-31.0
 20
103.5
 11
-31.0
 21
105.5
  0
LINE
  5
168
330
20
100
AcDbEntity
  8
0
  6
CONTINUOUS
100
AcDbLine
 10
-31.8000000000001
 20
103.5
 11
-31.8000000000001
 21
106.3
  0
LINE
  5
169
330
20
100
AcDbEntity
  8
0
  6
CONTINUOUS
100
AcDbLine
 10
-48.2
 20
103.5
 11
-48.2
 21
106.3
  0
LINE
  5
16A
330
20
100
AcDbEntity
  8
0
  6
CONTINUOUS
100
AcDbLine
 10
-49.0
 20
103.5
 11
-49.0
 21
105.5
  0
ARC
  5
16B
330
20
100
AcDbEntity
  8
0
  6
CONTINUOUS
100
AcDbCircle
 10
-40.0
 20
90.0
 40
24.5
100
AcDbArc
 50
73.5735785965237
 51
90.0
  0
ARC
  5
16C
330
20
100
AcDbEntity
  8
0
  6
CONTINUOUS
100
AcDbCircle
 10
-40.0
 20
134.0
 40
24.5
100
AcDbArc
 50
270.0
 51
286.426421403476
  0
LINE
  5
16D
330
20
100
AcDbEntity
  8
0
  6
CONTINUOUS
100
AcDbLine
 10
-33.0717967697245
 20
110.5
 11
-33.0717967697245
 21
113.5
  0
ARC
  5
16E
330
20
100
AcDbEntity
  8
0
  6
CONTINUOUS
100
AcDbCircle
 10
-29.6076951545867
 20
116.0
 40
6.50000000000001
100
AcDbArc
 50
237.795772496028
 51
302.204227503971
  0
ARC
  5
16F
330
20
100
AcDbEntity
  8
0
  6
CONTINUOUS
100
AcDbCircle
 10
-29.6076951545867
 20
108.0
 40
6.50000000000001
100
AcDbArc
 50
57.7957724960285
 51
122.204227503972
  0
LINE
  5
170
330
20
100
AcDbEntity
  8
0
  6
CONTINUOUS
100
AcDbLine
 10
-48.0
 20
106.5
 11
-32.0
 21
106.5
  0
ARC
  5
171
330
20
100
AcDbEntity
  8
0
  6
CONTINUOUS
100
AcDbCircle
 10
-71.9999999999999
 20
-204.9288807225
 40
3.0
100
AcDbArc
 50
180.0
 51
270.0
  0
ARC
  5
172
330
20
100
AcDbEntity
  8
0
  6
CONTINUOUS
100
AcDbCircle
 10
72.0
 20
-204.9288807225
 40
3.0
100
AcDbArc
 50
270.0
 51
0.0
  0
LINE
  5
173
330
20
100
AcDbEntity
  8
0
  6
CONTINUOUS
100
AcDbLine
 10
72.0
 20
-207.9288807225
 11
-71.9999999999999
 21
-207.9288807225
  0
SPLINE
  5
174
330
20
100
AcDbEntity
  8
0
  6
CONTINUOUS
100
AcDbSpline
210
0.0
220
0.0
230
1.0
 70
     8
 71
     3
 72
    35
 73
    31
 74
     0
 42
1.00000000000000E-007
 43
1.00000000000000E-007
 40
0.0
 40
0.0
 40
0.0
 40
0.0
 40
0.0673085341337457
 40
0.134616347212496
 40
0.201925714894293
 40
0.269235931224939
 40
0.336545298778015
 40
0.403853112305498
 40
0.471161644770703
 40
0.538470177228406
 40
0.605777990769236
 40
0.673087358293645
 40
0.740397574687767
 40
0.807706942213953
 40
0.875014755752701
 40
0.942323288213292
 40
1.00963182067316
 40
1.07693961691566
 40
1.14424896501428
 40
1.21155927736599
 40
1.27886849655121
 40
1.34617645974717
 40
1.41348487612383
 40
1.48079348285327
 40
1.54810125579494
 40
1.61541064255759
 40
1.6827208510917
 40
1.75003022127779
 40
1.81733803418173
 40
1.88464657282233
 40
1.88464657282233
 40
1.88464657282233
 40
1.88464657282233
 10
77.5000000012971
 20
-246.228880721146
 30
0.0
 10
77.499766690403
 20
-246.243106621092
 30
0.0
 10
77.4988334708228
 20
-246.300010196894
 30
0.0
 10
77.4930007198495
 20
-246.362278070147
 30
0.0
 10
77.4835999692779
 20
-246.430253171955
 30
0.0
 10
77.4704516899256
 20
-246.495957474281
 30
0.0
 10
77.4536561274881
 20
-246.561266379566
 30
0.0
 10
77.4332388731103
 20
-246.625414321787
 30
0.0
 10
77.4092443635209
 20
-246.688346175959
 30
0.0
 10
77.381716306831
 20
-246.749806022132
 30
0.0
 10
77.350775937225
 20
-246.809620241904
 30
0.0
 10
77.3165394345138
 20
-246.867612859833
 30
0.0
 10
77.2791243739759
 20
-246.923608490914
 30
0.0
 10
77.2386478033061
 20
-246.97743174566
 30
0.0
 10
77.1952274848359
 20
-247.02890666242
 30
0.0
 10
77.1489788500399
 20
-247.077859572393
 30
0.0
 10
77.1000259394274
 20
-247.124108207328
 30
0.0
 10
77.0485510251817
 20
-247.167528525782
 30
0.0
 10
76.9947278367269
 20
-247.208005024816
 30
0.0
 10
76.9387320162405
 20
-247.245420282276
 30
0.0
 10
76.8807396810902
 20
-247.279656494185
 30
0.0
 10
76.8209251629957
 20
-247.310597169077
 30
0.0
 10
76.7594655660784
 20
-247.338124971376
 30
0.0
 10
76.6965335371618
 20
-247.362119659022
 30
0.0
 10
76.6323857011237
 20
-247.382536805315
 30
0.0
 10
76.5670767389869
 20
-247.399332425603
 30
0.0
 10
76.5013724636015
 20
-247.412480677537
 30
0.0
 10
76.4333973504963
 20
-247.421881439605
 30
0.0
 10
76.3711294822558
 20
-247.427714185494
 30
0.0
 10
76.3142259012591
 20
-247.42864741029
 30
0.0
 10
76.2999999999951
 20
-247.42888072245
 30
0.0
  0
SPLINE
  5
175
330
20
100
AcDbEntity
  8
0
  6
CONTINUOUS
100
AcDbSpline
210
0.0
220
0.0
230
1.0
 70
     8
 71
     3
 72
    35
 73
    31
 74
     0
 42
1.00000000000000E-007
 43
1.00000000000000E-007
 40
0.0
 40
0.0
 40
0.0
 40
0.0
 40
0.0673085341327485
 40
0.1346163472124
 40
0.201925714894281
 40
0.269235931224752
 40
0.336545298777997
 40
0.40385311230523
 40
0.471161644770337
 40
0.538470177228164
 40
0.60577799076933
 40
0.673087358293829
 40
0.740397574687857
 40
0.807706942212797
 40
0.875014755752157
 40
0.942323288213431
 40
1.00963182067329
 40
1.07693961691512
 40
1.14424896501452
 40
1.21155927736621
 40
1.27886849655052
 40
1.34617645974749
 40
1.4134848761227
 40
1.48079348285357
 40
1.54810125579492
 40
1.61541064255774
 40
1.68272085109086
 40
1.75003022127697
 40
1.81733803418101
 40
1.8846465728226
 40
1.8846465728226
 40
1.8846465728226
 40
1.8846465728226
 10
-76.299999998701
 20
-247.428880723752
 30
0.0
 10
-76.314225898647
 20
-247.428647412858
 30
0.0
 10
-76.3711294744511
 20
-247.427714193278
 30
0.0
 10
-76.4333973477309
 20
-247.421881442301
 30
0.0
 10
-76.5013724494972
 20
-247.412480691736
 30
0.0
 10
-76.5670767518742
 20
-247.399332412373
 30
0.0
 10
-76.6323856571448
 20
-247.382536849935
 30
0.0
 10
-76.6965335993246
 20
-247.362119595571
 30
0.0
 10
-76.7594654535042
 20
-247.338125085981
 30
0.0
 10
-76.820925299691
 20
-247.310597029283
 30
0.0
 10
-76.8807395194033
 20
-247.279656659711
 30
0.0
 10
-76.938732137324
 20
-247.245420157009
 30
0.0
 10
-76.9947277684719
 20
-247.208005096432
 30
0.0
 10
-77.0485510232436
 20
-247.167528525737
 30
0.0
 10
-77.1000259399671
 20
-247.124108207297
 30
0.0
 10
-77.1489788499292
 20
-247.077859572515
 30
0.0
 10
-77.1952274848842
 20
-247.028906661881
 30
0.0
 10
-77.2386478033506
 20
-246.97743174762
 30
0.0
 10
-77.279124302355
 20
-246.923608559202
 30
0.0
 10
-77.3165395598235
 20
-246.86761273871
 30
0.0
 10
-77.3507757717476
 20
-246.809620403529
 30
0.0
 10
-77.3817164466104
 20
-246.749805885494
 30
0.0
 10
-77.4092442489266
 20
-246.688346288544
 30
0.0
 10
-77.4332389365808
 20
-246.625414259606
 30
0.0
 10
-77.4536560828727
 20
-246.561266423569
 30
0.0
 10
-77.4704517031594
 20
-246.495957461435
 30
0.0
 10
-77.4835999550897
 20
-246.430253186067
 30
0.0
 10
-77.4930007171579
 20
-246.362278072966
 30
0.0
 10
-77.498833463049
 20
-246.300010204714
 30
0.0
 10
-77.499766687845
 20
-246.243106623714
 30
0.0
 10
-77.5000000000049
 20
-246.22888072245
 30
0.0
  0
LINE
  5
176
330
20
100
AcDbEntity
  8
0
  6
CONTINUOUS
100
AcDbLine
 10
97.5
 20
-248.6288807225
 11
97.5
 21
-247.4288807225
  0
LINE
  5
177
330
20
100
AcDbEntity
  8
0
  6
CONTINUOUS
100
AcDbLine
 10
-97.4999999999999
 20
-248.6288807225
 11
-97.4999999999999
 21
-247.4288807225
  0
LINE
  5
178
330
20
100
AcDbEntity
  8
0
  6
CONTINUOUS
100
AcDbLine
 10
-97.4999999999999
 20
-248.6288807225
 11
-62.4999999999999
 21
-248.6288807225
  0
LINE
  5
179
330
20
100
AcDbEntity
  8
0
  6
CONTINUOUS
100
AcDbLine
 10
62.5
 20
-248.6288807225
 11
97.5
 21
-248.6288807225
  0
LINE
  5
17A
330
20
100
AcDbEntity
  8
0
  6
CONTINUOUS
100
AcDbLine
 10
-97.4999999999999
 20
-247.4288807225
 11
97.5
 21
-247.4288807225
  0
LINE
  5
17B
330
20
100
AcDbEntity
  8
0
  6
CONTINUOUS
100
AcDbLine
 10
-74.9999999999999
 20
-199.9288807225
 11
75.0
 21
-199.9288807225
  0
CIRCLE
  5
17C
330
20
100
AcDbEntity
  8
0
  6
CONTINUOUS
100
AcDbCircle
 10
-40.0
 20
-227.4288807225
 40
8.1
  0
CIRCLE
  5
17D
330
20
100
AcDbEntity
  8
0
  6
CONTINUOUS
100
AcDbCircle
 10
40.0
 20
-227.4288807225
 40
8.1
  0
LINE
  5
17E
330
20
100
AcDbEntity
  8
0
  6
CONTINUOUS
100
AcDbLine
 10
-418.9618864889
 20
-105.5
 11
-419.9618864889
 21
-106.5
  0
LINE
  5
17F
330
20
100
AcDbEntity
  8
0
  6
CONTINUOUS
100
AcDbLine
 10
-436.9618864889
 20
-105.5
 11
-435.9618864889
 21
-106.5
  0
LINE
  5
180
330
20
100
AcDbEntity
  8
0
  6
CONTINUOUS
100
AcDbLine
 10
-435.9618864889
 20
-106.5
 11
-435.9618864889
 21
-109.0
  0
ARC
  5
181
330
20
100
AcDbEntity
  8
0
  6
CONTINUOUS
100
AcDbCircle
 10
-436.4618864889
 20
-109.0
 40
0.5
100
AcDbArc
 50
270.0
 51
0.0
  0
LINE
  5
182
330
20
100
AcDbEntity
  8
0
  6
CONTINUOUS
100
AcDbLine
 10
-419.9618864889
 20
-106.5
 11
-419.9618864889
 21
-109.0
  0
ARC
  5
183
330
20
100
AcDbEntity
  8
0
  6
CONTINUOUS
100
AcDbCircle
 10
-419.4618864889
 20
-109.0
 40
0.5
100
AcDbArc
 50
180.0
 51
270.0
  0
ARC
  5
184
330
20
100
AcDbEntity
  8
0
  6
CONTINUOUS
100
AcDbCircle
 10
-417.569581643487
 20
-108.0
 40
6.50000000000001
100
AcDbArc
 50
237.795772496028
 51
302.204227503972
  0
ARC
  5
185
330
20
100
AcDbEntity
  8
0
  6
CONTINUOUS
100
AcDbCircle
 10
-417.569581643487
 20
-116.0
 40
6.50000000000001
100
AcDbArc
 50
57.7957724960281
 51
122.204227503972
  0
LINE
  5
186
330
20
100
AcDbEntity
  8
0
  6
CONTINUOUS
100
AcDbLine
 10
-441.818292949451
 20
-113.5
 11
-440.086242141882
 21
-114.5
  0
LINE
  5
187
330
20
100
AcDbEntity
  8
0
  6
CONTINUOUS
100
AcDbLine
 10
-414.105480028349
 20
-113.5
 11
-415.837530835918
 21
-114.5
  0
LINE
  5
188
330
20
100
AcDbEntity
  8
0
  6
CONTINUOUS
100
AcDbLine
 10
-440.086242141882
 20
-109.5
 11
-441.818292949451
 21
-110.5
  0
LINE
  5
189
330
20
100
AcDbEntity
  8
0
  6
CONTINUOUS
100
AcDbLine
 10
-415.837530835918
 20
-109.5
 11
-414.105480028349
 21
-110.5
  0
LINE
  5
18A
330
20
100
AcDbEntity
  8
0
  6
CONTINUOUS
100
AcDbLine
 10
-414.105480028349
 20
-110.5
 11
-414.105480028349
 21
-113.5
  0
LINE
  5
18B
330
20
100
AcDbEntity
  8
0
  6
CONTINUOUS
100
AcDbLine
 10
-421.033683258624
 20
-110.5
 11
-421.033683258624
 21
-113.5
  0
LINE
  5
18C
330
20
100
AcDbEntity
  8
0
  6
CONTINUOUS
100
AcDbLine
 10
-441.818292949451
 20
-110.5
 11
-441.818292949451
 21
-113.5
  0
LINE
  5
18D
330
20
100
AcDbEntity
  8
0
  6
CONTINUOUS
100
AcDbLine
 10
-415.837530835918
 20
-114.5
 11
-440.086242141882
 21
-114.5
  0
ARC
  5
18E
330
20
100
AcDbEntity
  8
0
  6
CONTINUOUS
100
AcDbCircle
 10
-427.9618864889
 20
-134.0
 40
24.5
100
AcDbArc
 50
73.5735785965236
 51
90.0
  0
ARC
  5
18F
330
20
100
AcDbEntity
  8
0
  6
CONTINUOUS
100
AcDbCircle
 10
-427.9618864889
 20
-90.0
 40
24.5
100
AcDbArc
 50
270.0
 51
286.426421403476
  0
LINE
  5
190
330
20
100
AcDbEntity
  8
0
  6
CONTINUOUS
100
AcDbLine
 10
-415.9618864889
 20
-75.5
 11
-415.9618864889
 21
-102.5
  0
LINE
  5
191
330
20
100
AcDbEntity
  8
0
  6
CONTINUOUS
100
AcDbLine
 10
-415.9618864889
 20
-102.5
 11
-416.9618864889
 21
-103.5
  0
LINE
  5
192
330
20
100
AcDbEntity
  8
0
  6
CONTINUOUS
100
AcDbLine
 10
-416.9618864889
 20
-103.5
 11
-438.9618864889
 21
-103.5
  0
LINE
  5
193
330
20
100
AcDbEntity
  8
0
  6
CONTINUOUS
100
AcDbLine
 10
-439.9618864889
 20
-75.5
 11
-439.9618864889
 21
-102.5
  0
LINE
  5
194
330
20
100
AcDbEntity
  8
0
  6
CONTINUOUS
100
AcDbLine
 10
-438.9618864889
 20
-103.5
 11
-439.9618864889
 21
-102.5
  0
LINE
  5
195
330
20
100
AcDbEntity
  8
0
  6
CONTINUOUS
100
AcDbLine
 10
-415.837530835918
 20
-109.5
 11
-440.086242141882
 21
-109.5
  0
LINE
  5
196
330
20
100
AcDbEntity
  8
0
  6
CONTINUOUS
100
AcDbLine
 10
-415.9618864889
 20
-75.5
 11
-439.9618864889
 21
-75.5
  0
LINE
  5
197
330
20
100
AcDbEntity
  8
0
  6
CONTINUOUS
100
AcDbLine
 10
-439.9618864889
 20
-102.5
 11
-415.9618864889
 21
-102.5
  0
LINE
  5
198
330
20
100
AcDbEntity
  8
0
  6
CONTINUOUS
100
AcDbLine
 10
-436.9618864889
 20
-103.5
 11
-436.9618864889
 21
-105.5
  0
LINE
  5
199
330
20
100
AcDbEntity
  8
0
  6
CONTINUOUS
100
AcDbLine
 10
-436.1618864889
 20
-103.5
 11
-436.1618864889
 21
-106.3
  0
LINE
  5
19A
330
20
100
AcDbEntity
  8
0
  6
CONTINUOUS
100
AcDbLine
 10
-419.7618864889
 20
-103.5
 11
-419.7618864889
 21
-106.3
  0
LINE
  5
19B
330
20
100
AcDbEntity
  8
0
  6
CONTINUOUS
100
AcDbLine
 10
-418.9618864889
 20
-103.5
 11
-418.9618864889
 21
-105.5
  0
ARC
  5
19C
330
20
100
AcDbEntity
  8
0
  6
CONTINUOUS
100
AcDbCircle
 10
-427.9618864889
 20
-90.0
 40
24.5
100
AcDbArc
 50
253.573578596524
 51
270.0
  0
ARC
  5
19D
330
20
100
AcDbEntity
  8
0
  6
CONTINUOUS
100
AcDbCircle
 10
-427.9618864889
 20
-134.0
 40
24.5
100
AcDbArc
 50
90.0
 51
106.426421403476
  0
LINE
  5
19E
330
20
100
AcDbEntity
  8
0
  6
CONTINUOUS
100
AcDbLine
 10
-434.890089719175
 20
-110.5
 11
-434.890089719175
 21
-113.5
  0
ARC
  5
19F
330
20
100
AcDbEntity
  8
0
  6
CONTINUOUS
100
AcDbCircle
 10
-438.354191334313
 20
-116.0
 40
6.50000000000001
100
AcDbArc
 50
57.7957724960277
 51
122.204227503971
  0
ARC
  5
1A0
330
20
100
AcDbEntity
  8
0
  6
CONTINUOUS
100
AcDbCircle
 10
-438.354191334313
 20
-108.0
 40
6.50000000000001
100
AcDbArc
 50
237.795772496029
 51
302.204227503972
  0
LINE
  5
1A1
330
20
100
AcDbEntity
  8
0
  6
CONTINUOUS
100
AcDbLine
 10
-419.9618864889
 20
-106.5
 11
-435.9618864889
 21
-106.5
  0
LINE
  5
1A2
330
20
100
AcDbEntity
  8
0
  6
CONTINUOUS
100
AcDbLine
 10
-498.9618864889
 20
-105.5
 11
-499.9618864889
 21
-106.5
  0
LINE
  5
1A3
330
20
100
AcDbEntity
  8
0
  6
CONTINUOUS
100
AcDbLine
 10
-516.9618864889
 20
-105.5
 11
-515.9618864889
 21
-106.5
  0
LINE
  5
1A4
330
20
100
AcDbEntity
  8
0
  6
CONTINUOUS
100
AcDbLine
 10
-515.9618864889
 20
-106.5
 11
-515.9618864889
 21
-109.0
  0
ARC
  5
1A5
330
20
100
AcDbEntity
  8
0
  6
CONTINUOUS
100
AcDbCircle
 10
-516.4618864889
 20
-109.0
 40
0.5
100
AcDbArc
 50
270.0
 51
0.0
  0
LINE
  5
1A6
330
20
100
AcDbEntity
  8
0
  6
CONTINUOUS
100
AcDbLine
 10
-499.9618864889
 20
-106.5
 11
-499.9618864889
 21
-109.0
  0
ARC
  5
1A7
330
20
100
AcDbEntity
  8
0
  6
CONTINUOUS
100
AcDbCircle
 10
-499.4618864889
 20
-109.0
 40
0.5
100
AcDbArc
 50
180.0
 51
270.0
  0
ARC
  5
1A8
330
20
100
AcDbEntity
  8
0
  6
CONTINUOUS
100
AcDbCircle
 10
-497.569581643487
 20
-108.0
 40
6.50000000000001
100
AcDbArc
 50
237.795772496028
 51
302.204227503972
  0
ARC
  5
1A9
330
20
100
AcDbEntity
  8
0
  6
CONTINUOUS
100
AcDbCircle
 10
-497.569581643487
 20
-116.0
 40
6.50000000000001
100
AcDbArc
 50
57.7957724960281
 51
122.204227503972
  0
LINE
  5
1AA
330
20
100
AcDbEntity
  8
0
  6
CONTINUOUS
100
AcDbLine
 10
-521.818292949451
 20
-113.5
 11
-520.086242141882
 21
-114.5
  0
LINE
  5
1AB
330
20
100
AcDbEntity
  8
0
  6
CONTINUOUS
100
AcDbLine
 10
-494.105480028349
 20
-113.5
 11
-495.837530835918
 21
-114.5
  0
LINE
  5
1AC
330
20
100
AcDbEntity
  8
0
  6
CONTINUOUS
100
AcDbLine
 10
-520.086242141882
 20
-109.5
 11
-521.818292949451
 21
-110.5
  0
LINE
  5
1AD
330
20
100
AcDbEntity
  8
0
  6
CONTINUOUS
100
AcDbLine
 10
-495.837530835918
 20
-109.5
 11
-494.105480028349
 21
-110.5
  0
LINE
  5
1AE
330
20
100
AcDbEntity
  8
0
  6
CONTINUOUS
100
AcDbLine
 10
-494.105480028349
 20
-110.5
 11
-494.105480028349
 21
-113.5
  0
LINE
  5
1AF
330
20
100
AcDbEntity
  8
0
  6
CONTINUOUS
100
AcDbLine
 10
-501.033683258624
 20
-110.5
 11
-501.033683258624
 21
-113.5
  0
LINE
  5
1B0
330
20
100
AcDbEntity
  8
0
  6
CONTINUOUS
100
AcDbLine
 10
-521.818292949451
 20
-110.5
 11
-521.818292949451
 21
-113.5
  0
LINE
  5
1B1
330
20
100
AcDbEntity
  8
0
  6
CONTINUOUS
100
AcDbLine
 10
-495.837530835918
 20
-114.5
 11
-520.086242141882
 21
-114.5
  0
ARC
  5
1B2
330
20
100
AcDbEntity
  8
0
  6
CONTINUOUS
100
AcDbCircle
 10
-507.9618864889
 20
-134.0
 40
24.5
100
AcDbArc
 50
73.5735785965236
 51
90.0
  0
ARC
  5
1B3
330
20
100
AcDbEntity
  8
0
  6
CONTINUOUS
100
AcDbCircle
 10
-507.9618864889
 20
-90.0
 40
24.5
100
AcDbArc
 50
270.0
 51
286.426421403476
  0
LINE
  5
1B4
330
20
100
AcDbEntity
  8
0
  6
CONTINUOUS
100
AcDbLine
 10
-495.9618864889
 20
-75.5
 11
-495.9618864889
 21
-102.5
  0
LINE
  5
1B5
330
20
100
AcDbEntity
  8
0
  6
CONTINUOUS
100
AcDbLine
 10
-495.9618864889
 20
-102.5
 11
-496.9618864889
 21
-103.5
  0
LINE
  5
1B6
330
20
100
AcDbEntity
  8
0
  6
CONTINUOUS
100
AcDbLine
 10
-496.9618864889
 20
-103.5
 11
-518.9618864889
 21
-103.5
  0
LINE
  5
1B7
330
20
100
AcDbEntity
  8
0
  6
CONTINUOUS
100
AcDbLine
 10
-519.9618864889
 20
-75.5
 11
-519.9618864889
 21
-102.5
  0
LINE
  5
1B8
330
20
100
AcDbEntity
  8
0
  6
CONTINUOUS
100
AcDbLine
 10
-518.9618864889
 20
-103.5
 11
-519.9618864889
 21
-102.5
  0
LINE
  5
1B9
330
20
100
AcDbEntity
  8
0
  6
CONTINUOUS
100
AcDbLine
 10
-495.837530835918
 20
-109.5
 11
-520.086242141882
 21
-109.5
  0
LINE
  5
1BA
330
20
100
AcDbEntity
  8
0
  6
CONTINUOUS
100
AcDbLine
 10
-495.9618864889
 20
-75.5
 11
-519.9618864889
 21
-75.5
  0
LINE
  5
1BB
330
20
100
AcDbEntity
  8
0
  6
CONTINUOUS
100
AcDbLine
 10
-519.9618864889
 20
-102.5
 11
-495.9618864889
 21
-102.5
  0
LINE
  5
1BC
330
20
100
AcDbEntity
  8
0
  6
CONTINUOUS
100
AcDbLine
 10
-516.9618864889
 20
-103.5
 11
-516.9618864889
 21
-105.5
  0
LINE
  5
1BD
330
20
100
AcDbEntity
  8
0
  6
CONTINUOUS
100
AcDbLine
 10
-516.1618864889
 20
-103.5
 11
-516.1618864889
 21
-106.3
  0
LINE
  5
1BE
330
20
100
AcDbEntity
  8
0
  6
CONTINUOUS
100
AcDbLine
 10
-499.7618864889
 20
-103.5
 11
-499.7618864889
 21
-106.3
  0
LINE
  5
1BF
330
20
100
AcDbEntity
  8
0
  6
CONTINUOUS
100
AcDbLine
 10
-498.9618864889
 20
-103.5
 11
-498.9618864889
 21
-105.5
  0
ARC
  5
1C0
330
20
100
AcDbEntity
  8
0
  6
CONTINUOUS
100
AcDbCircle
 10
-507.9618864889
 20
-90.0
 40
24.5
100
AcDbArc
 50
253.573578596524
 51
270.0
  0
ARC
  5
1C1
330
20
100
AcDbEntity
  8
0
  6
CONTINUOUS
100
AcDbCircle
 10
-507.9618864889
 20
-134.0
 40
24.5
100
AcDbArc
 50
90.0
 51
106.426421403476
  0
LINE
  5
1C2
330
20
100
AcDbEntity
  8
0
  6
CONTINUOUS
100
AcDbLine
 10
-514.890089719175
 20
-110.5
 11
-514.890089719175
 21
-113.5
  0
ARC
  5
1C3
330
20
100
AcDbEntity
  8
0
  6
CONTINUOUS
100
AcDbCircle
 10
-518.354191334313
 20
-116.0
 40
6.50000000000001
100
AcDbArc
 50
57.7957724960277
 51
122.204227503971
  0
ARC
  5
1C4
330
20
100
AcDbEntity
  8
0
  6
CONTINUOUS
100
AcDbCircle
 10
-518.354191334313
 20
-108.0
 40
6.50000000000001
100
AcDbArc
 50
237.795772496029
 51
302.204227503972
  0
LINE
  5
1C5
330
20
100
AcDbEntity
  8
0
  6
CONTINUOUS
100
AcDbLine
 10
-499.9618864889
 20
-106.5
 11
-515.9618864889
 21
-106.5
  0
CIRCLE
  5
1C6
330
20
100
AcDbEntity
  8
0
  6
CONTINUOUS
100
AcDbCircle
 10
-377.9618864889
 20
-24.0
 40
2.79999999999995
  0
ARC
  5
1C7
330
20
100
AcDbEntity
  8
0
  6
CONTINUOUS
100
AcDbCircle
 10
-375.4618864889
 20
25.0
 40
5.00000000000003
100
AcDbArc
 50
0.0
 51
90.0
  0
LINE
  5
1C8
330
20
100
AcDbEntity
  8
0
  6
CONTINUOUS
100
AcDbLine
 10
-370.4618864889
 20
25.0
 11
-370.4618864889
 21
-25.0
  0
ARC
  5
1C9
330
20
100
AcDbEntity
  8
0
  6
CONTINUOUS
100
AcDbCircle
 10
-375.4618864889
 20
-25.0
 40
5.0
100
AcDbArc
 50
270.0
 51
0.0
  0
CIRCLE
  5
1CA
330
20
100
AcDbEntity
  8
0
  6
CONTINUOUS
100
AcDbCircle
 10
-377.9618864889
 20
24.0
 40
2.80000000000007
  0
LINE
  5
1CB
330
20
100
AcDbEntity
  8
0
  6
CONTINUOUS
100
AcDbLine
 10
-375.4618864889
 20
-30.0
 11
-405.4618864889
 21
-30.0
  0
LINE
  5
1CC
330
20
100
AcDbEntity
  8
0
  6
CONTINUOUS
100
AcDbLine
 10
-405.4618864889
 20
-30.0
 11
-405.4618864889
 21
30.0
  0
LINE
  5
1CD
330
20
100
AcDbEntity
  8
0
  6
CONTINUOUS
100
AcDbLine
 10
-405.4618864889
 20
30.0
 11
-375.4618864889
 21
30.0
  0
LINE
  5
1CE
330
20
100
AcDbEntity
  8
0
  6
CONTINUOUS
100
AcDbLine
 10
-390.4618864889
 20
74.0
 11
-390.4618864889
 21
30.0
  0
LINE
  5
1CF
330
20
100
AcDbEntity
  8
0
  6
CONTINUOUS
100
AcDbLine
 10
-390.4618864889
 20
-30.0
 11
-390.4618864889
 21
-74.0
  0
ARC
  5
1D0
330
20
100
AcDbEntity
  8
0
  6
CONTINUOUS
100
AcDbCircle
 10
-395.9618864889
 20
-82.5
 40
3.00000000000003
100
AcDbArc
 50
270.0
 51
0.0
  0
CIRCLE
  5
1D1
330
20
100
AcDbEntity
  8
0
  6
CONTINUOUS
100
AcDbCircle
 10
-402.9618864889
 20
-81.5
 40
1.64999999999998
  0
ARC
  5
1D2
330
20
100
AcDbEntity
  8
0
  6
CONTINUOUS
100
AcDbCircle
 10
-395.9618864889
 20
82.5
 40
2.99999999999997
100
AcDbArc
 50
0.0
 51
90.0
  0
CIRCLE
  5
1D3
330
20
100
AcDbEntity
  8
0
  6
CONTINUOUS
100
AcDbCircle
 10
-402.9618864889
 20
81.5
 40
1.64999999999998
  0
LINE
  5
1D4
330
20
100
AcDbEntity
  8
0
  6
CONTINUOUS
100
AcDbLine
 10
-392.9618864889
 20
-82.5
 11
-392.9618864889
 21
-75.5
  0
LINE
  5
1D5
330
20
100
AcDbEntity
  8
0
  6
CONTINUOUS
100
AcDbLine
 10
-392.9618864889
 20
75.5
 11
-392.9618864889
 21
82.5
  0
CIRCLE
  5
1D6
330
20
100
AcDbEntity
  8
0
  6
CONTINUOUS
100
AcDbCircle
 10
-402.9618864889
 20
81.5
 40
2.0
  0
CIRCLE
  5
1D7
330
20
100
AcDbEntity
  8
0
  6
CONTINUOUS
100
AcDbCircle
 10
-402.9618864889
 20
-81.5
 40
2.0
  0
ARC
  5
1D8
330
20
100
AcDbEntity
  8
0
  6
CONTINUOUS
100
AcDbCircle
 10
-391.9618864889
 20
-74.0
 40
1.5
100
AcDbArc
 50
270.0
 51
0.0
  0
ARC
  5
1D9
330
20
100
AcDbEntity
  8
0
  6
CONTINUOUS
100
AcDbCircle
 10
-391.9618864889
 20
74.0
 40
1.5
100
AcDbArc
 50
0.0
 51
90.0
  0
LINE
  5
1DA
330
20
100
AcDbEntity
  8
0
  6
CONTINUOUS
100
AcDbLine
 10
-418.9618864889
 20
105.5
 11
-419.9618864889
 21
106.5
  0
LINE
  5
1DB
330
20
100
AcDbEntity
  8
0
  6
CONTINUOUS
100
AcDbLine
 10
-436.9618864889
 20
105.5
 11
-435.9618864889
 21
106.5
  0
LINE
  5
1DC
330
20
100
AcDbEntity
  8
0
  6
CONTINUOUS
100
AcDbLine
 10
-435.9618864889
 20
106.5
 11
-435.9618864889
 21
109.0
  0
ARC
  5
1DD
330
20
100
AcDbEntity
  8
0
  6
CONTINUOUS
100
AcDbCircle
 10
-436.4618864889
 20
109.0
 40
0.5
100
AcDbArc
 50
0.0
 51
90.0
  0
LINE
  5
1DE
330
20
100
AcDbEntity
  8
0
  6
CONTINUOUS
100
AcDbLine
 10
-419.9618864889
 20
106.5
 11
-419.9618864889
 21
109.0
  0
ARC
  5
1DF
330
20
100
AcDbEntity
  8
0
  6
CONTINUOUS
100
AcDbCircle
 10
-419.4618864889
 20
109.0
 40
0.5
100
AcDbArc
 50
90.0
 51
180.0
  0
ARC
  5
1E0
330
20
100
AcDbEntity
  8
0
  6
CONTINUOUS
100
AcDbCircle
 10
-417.569581643487
 20
108.0
 40
6.50000000000001
100
AcDbArc
 50
57.7957724960281
 51
122.204227503972
  0
ARC
  5
1E1
330
20
100
AcDbEntity
  8
0
  6
CONTINUOUS
100
AcDbCircle
 10
-417.569581643487
 20
116.0
 40
6.50000000000001
100
AcDbArc
 50
237.795772496028
 51
302.204227503972
  0
LINE
  5
1E2
330
20
100
AcDbEntity
  8
0
  6
CONTINUOUS
100
AcDbLine
 10
-441.818292949451
 20
113.5
 11
-440.086242141882
 21
114.5
  0
LINE
  5
1E3
330
20
100
AcDbEntity
  8
0
  6
CONTINUOUS
100
AcDbLine
 10
-414.105480028349
 20
113.5
 11
-415.837530835918
 21
114.5
  0
LINE
  5
1E4
330
20
100
AcDbEntity
  8
0
  6
CONTINUOUS
100
AcDbLine
 10
-440.086242141882
 20
109.5
 11
-441.818292949451
 21
110.5
  0
LINE
  5
1E5
330
20
100
AcDbEntity
  8
0
  6
CONTINUOUS
100
AcDbLine
 10
-415.837530835918
 20
109.5
 11
-414.105480028349
 21
110.5
  0
LINE
  5
1E6
330
20
100
AcDbEntity
  8
0
  6
CONTINUOUS
100
AcDbLine
 10
-414.105480028349
 20
110.5
 11
-414.105480028349
 21
113.5
  0
LINE
  5
1E7
330
20
100
AcDbEntity
  8
0
  6
CONTINUOUS
100
AcDbLine
 10
-421.033683258624
 20
110.5
 11
-421.033683258624
 21
113.5
  0
LINE
  5
1E8
330
20
100
AcDbEntity
  8
0
  6
CONTINUOUS
100
AcDbLine
 10
-441.818292949451
 20
110.5
 11
-441.818292949451
 21
113.5
  0
LINE
  5
1E9
330
20
100
AcDbEntity
  8
0
  6
CONTINUOUS
100
AcDbLine
 10
-415.837530835918
 20
114.5
 11
-440.086242141882
 21
114.5
  0
ARC
  5
1EA
330
20
100
AcDbEntity
  8
0
  6
CONTINUOUS
100
AcDbCircle
 10
-427.9618864889
 20
134.0
 40
24.5
100
AcDbArc
 50
270.0
 51
286.426421403476
  0
ARC
  5
1EB
330
20
100
AcDbEntity
  8
0
  6
CONTINUOUS
100
AcDbCircle
 10
-427.9618864889
 20
90.0
 40
24.5
100
AcDbArc
 50
73.5735785965236
 51
90.0
  0
LINE
  5
1EC
330
20
100
AcDbEntity
  8
0
  6
CONTINUOUS
100
AcDbLine
 10
-415.9618864889
 20
75.5
 11
-415.9618864889
 21
102.5
  0
LINE
  5
1ED
330
20
100
AcDbEntity
  8
0
  6
CONTINUOUS
100
AcDbLine
 10
-415.9618864889
 20
102.5
 11
-416.9618864889
 21
103.5
  0
LINE
  5
1EE
330
20
100
AcDbEntity
  8
0
  6
CONTINUOUS
100
AcDbLine
 10
-416.9618864889
 20
103.5
 11
-438.9618864889
 21
103.5
  0
LINE
  5
1EF
330
20
100
AcDbEntity
  8
0
  6
CONTINUOUS
100
AcDbLine
 10
-439.9618864889
 20
75.5
 11
-439.9618864889
 21
102.5
  0
LINE
  5
1F0
330
20
100
AcDbEntity
  8
0
  6
CONTINUOUS
100
AcDbLine
 10
-438.9618864889
 20
103.5
 11
-439.9618864889
 21
102.5
  0
LINE
  5
1F1
330
20
100
AcDbEntity
  8
0
  6
CONTINUOUS
100
AcDbLine
 10
-415.837530835918
 20
109.5
 11
-440.086242141882
 21
109.5
  0
LINE
  5
1F2
330
20
100
AcDbEntity
  8
0
  6
CONTINUOUS
100
AcDbLine
 10
-415.9618864889
 20
75.5
 11
-439.9618864889
 21
75.5
  0
LINE
  5
1F3
330
20
100
AcDbEntity
  8
0
  6
CONTINUOUS
100
AcDbLine
 10
-439.9618864889
 20
102.5
 11
-415.9618864889
 21
102.5
  0
LINE
  5
1F4
330
20
100
AcDbEntity
  8
0
  6
CONTINUOUS
100
AcDbLine
 10
-436.9618864889
 20
103.5
 11
-436.9618864889
 21
105.5
  0
LINE
  5
1F5
330
20
100
AcDbEntity
  8
0
  6
CONTINUOUS
100
AcDbLine
 10
-436.1618864889
 20
103.5
 11
-436.1618864889
 21
106.3
  0
LINE
  5
1F6
330
20
100
AcDbEntity
  8
0
  6
CONTINUOUS
100
AcDbLine
 10
-419.7618864889
 20
103.5
 11
-419.7618864889
 21
106.3
  0
LINE
  5
1F7
330
20
100
AcDbEntity
  8
0
  6
CONTINUOUS
100
AcDbLine
 10
-418.9618864889
 20
103.5
 11
-418.9618864889
 21
105.5
  0
ARC
  5
1F8
330
20
100
AcDbEntity
  8
0
  6
CONTINUOUS
100
AcDbCircle
 10
-427.9618864889
 20
90.0
 40
24.5
100
AcDbArc
 50
90.0
 51
106.426421403476
  0
ARC
  5
1F9
330
20
100
AcDbEntity
  8
0
  6
CONTINUOUS
100
AcDbCircle
 10
-427.9618864889
 20
134.0
 40
24.5
100
AcDbArc
 50
253.573578596524
 51
270.0
  0
LINE
  5
1FA
330
20
100
AcDbEntity
  8
0
  6
CONTINUOUS
100
AcDbLine
 10
-434.890089719175
 20
110.5
 11
-434.890089719175
 21
113.5
  0
ARC
  5
1FB
330
20
100
AcDbEntity
  8
0
  6
CONTINUOUS
100
AcDbCircle
 10
-438.354191334313
 20
116.0
 40
6.50000000000001
100
AcDbArc
 50
237.795772496029
 51
302.204227503972
  0
ARC
  5
1FC
330
20
100
AcDbEntity
  8
0
  6
CONTINUOUS
100
AcDbCircle
 10
-438.354191334313
 20
108.0
 40
6.50000000000001
100
AcDbArc
 50
57.7957724960277
 51
122.204227503971
  0
LINE
  5
1FD
330
20
100
AcDbEntity
  8
0
  6
CONTINUOUS
100
AcDbLine
 10
-419.9618864889
 20
106.5
 11
-435.9618864889
 21
106.5
  0
LINE
  5
1FE
330
20
100
AcDbEntity
  8
0
  6
CONTINUOUS
100
AcDbLine
 10
-458.9618864889
 20
105.5
 11
-459.9618864889
 21
106.5
  0
LINE
  5
1FF
330
20
100
AcDbEntity
  8
0
  6
CONTINUOUS
100
AcDbLine
 10
-476.9618864889
 20
105.5
 11
-475.9618864889
 21
106.5
  0
LINE
  5
200
330
20
100
AcDbEntity
  8
0
  6
CONTINUOUS
100
AcDbLine
 10
-475.9618864889
 20
106.5
 11
-475.9618864889
 21
109.0
  0
ARC
  5
201
330
20
100
AcDbEntity
  8
0
  6
CONTINUOUS
100
AcDbCircle
 10
-476.4618864889
 20
109.0
 40
0.5
100
AcDbArc
 50
0.0
 51
90.0
  0
LINE
  5
202
330
20
100
AcDbEntity
  8
0
  6
CONTINUOUS
100
AcDbLine
 10
-459.9618864889
 20
106.5
 11
-459.9618864889
 21
109.0
  0
ARC
  5
203
330
20
100
AcDbEntity
  8
0
  6
CONTINUOUS
100
AcDbCircle
 10
-459.4618864889
 20
109.0
 40
0.5
100
AcDbArc
 50
90.0
 51
180.0
  0
ARC
  5
204
330
20
100
AcDbEntity
  8
0
  6
CONTINUOUS
100
AcDbCircle
 10
-457.569581643487
 20
108.0
 40
6.50000000000001
100
AcDbArc
 50
57.7957724960281
 51
122.204227503972
  0
ARC
  5
205
330
20
100
AcDbEntity
  8
0
  6
CONTINUOUS
100
AcDbCircle
 10
-457.569581643487
 20
116.0
 40
6.50000000000001
100
AcDbArc
 50
237.795772496028
 51
302.204227503972
  0
LINE
  5
206
330
20
100
AcDbEntity
  8
0
  6
CONTINUOUS
100
AcDbLine
 10
-481.818292949451
 20
113.5
 11
-480.086242141882
 21
114.5
  0
LINE
  5
207
330
20
100
AcDbEntity
  8
0
  6
CONTINUOUS
100
AcDbLine
 10
-454.105480028349
 20
113.5
 11
-455.837530835918
 21
114.5
  0
LINE
  5
208
330
20
100
AcDbEntity
  8
0
  6
CONTINUOUS
100
AcDbLine
 10
-480.086242141882
 20
109.5
 11
-481.818292949451
 21
110.5
  0
LINE
  5
209
330
20
100
AcDbEntity
  8
0
  6
CONTINUOUS
100
AcDbLine
 10
-455.837530835918
 20
109.5
 11
-454.105480028349
 21
110.5
  0
LINE
  5
20A
330
20
100
AcDbEntity
  8
0
  6
CONTINUOUS
100
AcDbLine
 10
-454.105480028349
 20
110.5
 11
-454.105480028349
 21
113.5
  0
LINE
  5
20B
330
20
100
AcDbEntity
  8
0
  6
CONTINUOUS
100
AcDbLine
 10
-461.033683258624
 20
110.5
 11
-461.033683258624
 21
113.5
  0
LINE
  5
20C
330
20
100
AcDbEntity
  8
0
  6
CONTINUOUS
100
AcDbLine
 10
-481.818292949451
 20
110.5
 11
-481.818292949451
 21
113.5
  0
LINE
  5
20D
330
20
100
AcDbEntity
  8
0
  6
CONTINUOUS
100
AcDbLine
 10
-455.837530835918
 20
114.5
 11
-480.086242141882
 21
114.5
  0
ARC
  5
20E
330
20
100
AcDbEntity
  8
0
  6
CONTINUOUS
100
AcDbCircle
 10
-467.9618864889
 20
134.0
 40
24.5
100
AcDbArc
 50
270.0
 51
286.426421403476
  0
ARC
  5
20F
330
20
100
AcDbEntity
  8
0
  6
CONTINUOUS
100
AcDbCircle
 10
-467.9618864889
 20
90.0
 40
24.5
100
AcDbArc
 50
73.5735785965236
 51
90.0
  0
LINE
  5
210
330
20
100
AcDbEntity
  8
0
  6
CONTINUOUS
100
AcDbLine
 10
-455.9618864889
 20
75.5
 11
-455.9618864889
 21
102.5
  0
LINE
  5
211
330
20
100
AcDbEntity
  8
0
  6
CONTINUOUS
100
AcDbLine
 10
-455.9618864889
 20
102.5
 11
-456.9618864889
 21
103.5
  0
LINE
  5
212
330
20
100
AcDbEntity
  8
0
  6
CONTINUOUS
100
AcDbLine
 10
-456.9618864889
 20
103.5
 11
-478.9618864889
 21
103.5
  0
LINE
  5
213
330
20
100
AcDbEntity
  8
0
  6
CONTINUOUS
100
AcDbLine
 10
-479.9618864889
 20
75.5
 11
-479.9618864889
 21
102.5
  0
LINE
  5
214
330
20
100
AcDbEntity
  8
0
  6
CONTINUOUS
100
AcDbLine
 10
-478.9618864889
 20
103.5
 11
-479.9618864889
 21
102.5
  0
LINE
  5
215
330
20
100
AcDbEntity
  8
0
  6
CONTINUOUS
100
AcDbLine
 10
-455.837530835918
 20
109.5
 11
-480.086242141882
 21
109.5
  0
LINE
  5
216
330
20
100
AcDbEntity
  8
0
  6
CONTINUOUS
100
AcDbLine
 10
-455.9618864889
 20
75.5
 11
-479.9618864889
 21
75.5
  0
LINE
  5
217
330
20
100
AcDbEntity
  8
0
  6
CONTINUOUS
100
AcDbLine
 10
-479.9618864889
 20
102.5
 11
-455.9618864889
 21
102.5
  0
LINE
  5
218
330
20
100
AcDbEntity
  8
0
  6
CONTINUOUS
100
AcDbLine
 10
-476.9618864889
 20
103.5
 11
-476.9618864889
 21
105.5
  0
LINE
  5
219
330
20
100
AcDbEntity
  8
0
  6
CONTINUOUS
100
AcDbLine
 10
-476.1618864889
 20
103.5
 11
-476.1618864889
 21
106.3
  0
LINE
  5
21A
330
20
100
AcDbEntity
  8
0
  6
CONTINUOUS
100
AcDbLine
 10
-459.7618864889
 20
103.5
 11
-459.7618864889
 21
106.3
  0
LINE
  5
21B
330
20
100
AcDbEntity
  8
0
  6
CONTINUOUS
100
AcDbLine
 10
-458.9618864889
 20
103.5
 11
-458.9618864889
 21
105.5
  0
ARC
  5
21C
330
20
100
AcDbEntity
  8
0
  6
CONTINUOUS
100
AcDbCircle
 10
-467.9618864889
 20
90.0
 40
24.5
100
AcDbArc
 50
90.0
 51
106.426421403476
  0
ARC
  5
21D
330
20
100
AcDbEntity
  8
0
  6
CONTINUOUS
100
AcDbCircle
 10
-467.9618864889
 20
134.0
 40
24.5
100
AcDbArc
 50
253.573578596524
 51
270.0
  0
LINE
  5
21E
330
20
100
AcDbEntity
  8
0
  6
CONTINUOUS
100
AcDbLine
 10
-474.890089719175
 20
110.5
 11
-474.890089719175
 21
113.5
  0
ARC
  5
21F
330
20
100
AcDbEntity
  8
0
  6
CONTINUOUS
100
AcDbCircle
 10
-478.354191334313
 20
116.0
 40
6.50000000000001
100
AcDbArc
 50
237.795772496029
 51
302.204227503972
  0
ARC
  5
220
330
20
100
AcDbEntity
  8
0
  6
CONTINUOUS
100
AcDbCircle
 10
-478.354191334313
 20
108.0
 40
6.50000000000001
100
AcDbArc
 50
57.7957724960277
 51
122.204227503971
  0
LINE
  5
221
330
20
100
AcDbEntity
  8
0
  6
CONTINUOUS
100
AcDbLine
 10
-459.9618864889
 20
106.5
 11
-475.9618864889
 21
106.5
  0
LINE
  5
222
330
20
100
AcDbEntity
  8
0
  6
CONTINUOUS
100
AcDbLine
 10
-498.9618864889
 20
105.5
 11
-499.9618864889
 21
106.5
  0
LINE
  5
223
330
20
100
AcDbEntity
  8
0
  6
CONTINUOUS
100
AcDbLine
 10
-516.9618864889
 20
105.5
 11
-515.9618864889
 21
106.5
  0
LINE
  5
224
330
20
100
AcDbEntity
  8
0
  6
CONTINUOUS
100
AcDbLine
 10
-515.9618864889
 20
106.5
 11
-515.9618864889
 21
109.0
  0
ARC
  5
225
330
20
100
AcDbEntity
  8
0
  6
CONTINUOUS
100
AcDbCircle
 10
-516.4618864889
 20
109.0
 40
0.5
100
AcDbArc
 50
0.0
 51
90.0
  0
LINE
  5
226
330
20
100
AcDbEntity
  8
0
  6
CONTINUOUS
100
AcDbLine
 10
-499.9618864889
 20
106.5
 11
-499.9618864889
 21
109.0
  0
ARC
  5
227
330
20
100
AcDbEntity
  8
0
  6
CONTINUOUS
100
AcDbCircle
 10
-499.4618864889
 20
109.0
 40
0.5
100
AcDbArc
 50
90.0
 51
180.0
  0
ARC
  5
228
330
20
100
AcDbEntity
  8
0
  6
CONTINUOUS
100
AcDbCircle
 10
-497.569581643487
 20
108.0
 40
6.50000000000001
100
AcDbArc
 50
57.7957724960281
 51
122.204227503972
  0
ARC
  5
229
330
20
100
AcDbEntity
  8
0
  6
CONTINUOUS
100
AcDbCircle
 10
-497.569581643487
 20
116.0
 40
6.50000000000001
100
AcDbArc
 50
237.795772496028
 51
302.204227503972
  0
LINE
  5
22A
330
20
100
AcDbEntity
  8
0
  6
CONTINUOUS
100
AcDbLine
 10
-521.818292949451
 20
113.5
 11
-520.086242141882
 21
114.5
  0
LINE
  5
22B
330
20
100
AcDbEntity
  8
0
  6
CONTINUOUS
100
AcDbLine
 10
-494.105480028349
 20
113.5
 11
-495.837530835918
 21
114.5
  0
LINE
  5
22C
330
20
100
AcDbEntity
  8
0
  6
CONTINUOUS
100
AcDbLine
 10
-520.086242141882
 20
109.5
 11
-521.818292949451
 21
110.5
  0
LINE
  5
22D
330
20
100
AcDbEntity
  8
0
  6
CONTINUOUS
100
AcDbLine
 10
-495.837530835918
 20
109.5
 11
-494.105480028349
 21
110.5
  0
LINE
  5
22E
330
20
100
AcDbEntity
  8
0
  6
CONTINUOUS
100
AcDbLine
 10
-494.105480028349
 20
110.5
 11
-494.105480028349
 21
113.5
  0
LINE
  5
22F
330
20
100
AcDbEntity
  8
0
  6
CONTINUOUS
100
AcDbLine
 10
-501.033683258624
 20
110.5
 11
-501.033683258624
 21
113.5
  0
LINE
  5
230
330
20
100
AcDbEntity
  8
0
  6
CONTINUOUS
100
AcDbLine
 10
-521.818292949451
 20
110.5
 11
-521.818292949451
 21
113.5
  0
LINE
  5
231
330
20
100
AcDbEntity
  8
0
  6
CONTINUOUS
100
AcDbLine
 10
-495.837530835918
 20
114.5
 11
-520.086242141882
 21
114.5
  0
ARC
  5
232
330
20
100
AcDbEntity
  8
0
  6
CONTINUOUS
100
AcDbCircle
 10
-507.9618864889
 20
134.0
 40
24.5
100
AcDbArc
 50
270.0
 51
286.426421403476
  0
ARC
  5
233
330
20
100
AcDbEntity
  8
0
  6
CONTINUOUS
100
AcDbCircle
 10
-507.9618864889
 20
90.0
 40
24.5
100
AcDbArc
 50
73.5735785965236
 51
90.0
  0
LINE
  5
234
330
20
100
AcDbEntity
  8
0
  6
CONTINUOUS
100
AcDbLine
 10
-495.9618864889
 20
75.5
 11
-495.9618864889
 21
102.5
  0
LINE
  5
235
330
20
100
AcDbEntity
  8
0
  6
CONTINUOUS
100
AcDbLine
 10
-495.9618864889
 20
102.5
 11
-496.9618864889
 21
103.5
  0
LINE
  5
236
330
20
100
AcDbEntity
  8
0
  6
CONTINUOUS
100
AcDbLine
 10
-496.9618864889
 20
103.5
 11
-518.9618864889
 21
103.5
  0
LINE
  5
237
330
20
100
AcDbEntity
  8
0
  6
CONTINUOUS
100
AcDbLine
 10
-519.9618864889
 20
75.5
 11
-519.9618864889
 21
102.5
  0
LINE
  5
238
330
20
100
AcDbEntity
  8
0
  6
CONTINUOUS
100
AcDbLine
 10
-518.9618864889
 20
103.5
 11
-519.9618864889
 21
102.5
  0
LINE
  5
239
330
20
100
AcDbEntity
  8
0
  6
CONTINUOUS
100
AcDbLine
 10
-495.837530835918
 20
109.5
 11
-520.086242141882
 21
109.5
  0
LINE
  5
23A
330
20
100
AcDbEntity
  8
0
  6
CONTINUOUS
100
AcDbLine
 10
-495.9618864889
 20
75.5
 11
-519.9618864889
 21
75.5
  0
LINE
  5
23B
330
20
100
AcDbEntity
  8
0
  6
CONTINUOUS
100
AcDbLine
 10
-519.9618864889
 20
102.5
 11
-495.9618864889
 21
102.5
  0
LINE
  5
23C
330
20
100
AcDbEntity
  8
0
  6
CONTINUOUS
100
AcDbLine
 10
-516.9618864889
 20
103.5
 11
-516.9618864889
 21
105.5
  0
LINE
  5
23D
330
20
100
AcDbEntity
  8
0
  6
CONTINUOUS
100
AcDbLine
 10
-516.1618864889
 20
103.5
 11
-516.1618864889
 21
106.3
  0
LINE
  5
23E
330
20
100
AcDbEntity
  8
0
  6
CONTINUOUS
100
AcDbLine
 10
-499.7618864889
 20
103.5
 11
-499.7618864889
 21
106.3
  0
LINE
  5
23F
330
20
100
AcDbEntity
  8
0
  6
CONTINUOUS
100
AcDbLine
 10
-498.9618864889
 20
103.5
 11
-498.9618864889
 21
105.5
  0
ARC
  5
240
330
20
100
AcDbEntity
  8
0
  6
CONTINUOUS
100
AcDbCircle
 10
-507.9618864889
 20
90.0
 40
24.5
100
AcDbArc
 50
90.0
 51
106.426421403476
  0
ARC
  5
241
330
20
100
AcDbEntity
  8
0
  6
CONTINUOUS
100
AcDbCircle
 10
-507.9618864889
 20
134.0
 40
24.5
100
AcDbArc
 50
253.573578596524
 51
270.0
  0
LINE
  5
242
330
20
100
AcDbEntity
  8
0
  6
CONTINUOUS
100
AcDbLine
 10
-514.890089719175
 20
110.5
 11
-514.890089719175
 21
113.5
  0
ARC
  5
243
330
20
100
AcDbEntity
  8
0
  6
CONTINUOUS
100
AcDbCircle
 10
-518.354191334313
 20
116.0
 40
6.50000000000001
100
AcDbArc
 50
237.795772496029
 51
302.204227503972
  0
ARC
  5
244
330
20
100
AcDbEntity
  8
0
  6
CONTINUOUS
100
AcDbCircle
 10
-518.354191334313
 20
108.0
 40
6.50000000000001
100
AcDbArc
 50
57.7957724960277
 51
122.204227503971
  0
LINE
  5
245
330
20
100
AcDbEntity
  8
0
  6
CONTINUOUS
100
AcDbLine
 10
-499.9618864889
 20
106.5
 11
-515.9618864889
 21
106.5
  0
LINE
  5
246
330
20
100
AcDbEntity
  8
0
  6
CONTINUOUS
100
AcDbLine
 10
-79.5
 20
30.0
 11
-92.4999999999999
 21
30.0
  0
LINE
  5
247
330
20
100
AcDbEntity
  8
0
  6
CONTINUOUS
100
AcDbLine
 10
-92.4999999999999
 20
-30.0
 11
-79.5
 21
-30.0
  0
LINE
  5
248
330
20
100
AcDbEntity
  8
0
  6
CONTINUOUS
100
AcDbLine
 10
92.5
 20
-30.0
 11
79.5
 21
-30.0
  0
LINE
  5
249
330
20
100
AcDbEntity
  8
0
  6
CONTINUOUS
100
AcDbLine
 10
79.5
 20
30.0
 11
92.5
 21
30.0
  0
LINE
  5
24A
330
20
100
AcDbEntity
  8
0
  6
CONTINUOUS
100
AcDbLine
 10
52.0
 20
87.5
 11
52.0
 21
102.5
  0
LINE
  5
24B
330
20
100
AcDbEntity
  8
0
  6
CONTINUOUS
100
AcDbLine
 10
28.0
 20
87.5
 11
28.0
 21
102.5
  0
LINE
  5
24C
330
20
100
AcDbEntity
  8
0
  6
CONTINUOUS
100
AcDbLine
 10
12.0
 20
87.5
 11
12.0
 21
102.5
  0
LINE
  5
24D
330
20
100
AcDbEntity
  8
0
  6
CONTINUOUS
100
AcDbLine
 10
-12.0
 20
87.5
 11
-12.0
 21
102.5
  0
LINE
  5
24E
330
20
100
AcDbEntity
  8
0
  6
CONTINUOUS
100
AcDbLine
 10
-28.0
 20
87.5
 11
-28.0
 21
102.5
  0
LINE
  5
24F
330
20
100
AcDbEntity
  8
0
  6
CONTINUOUS
100
AcDbLine
 10
-52.0
 20
87.5
 11
-52.0
 21
102.5
  0
LINE
  5
250
330
20
100
AcDbEntity
  8
0
  6
CONTINUOUS
100
AcDbLine
 10
-28.0
 20
-87.5
 11
-28.0
 21
-102.5
  0
LINE
  5
251
330
20
100
AcDbEntity
  8
0
  6
CONTINUOUS
100
AcDbLine
 10
-52.0
 20
-87.5
 11
-52.0
 21
-102.5
  0
LINE
  5
252
330
20
100
AcDbEntity
  8
0
  6
CONTINUOUS
100
AcDbLine
 10
28.0
 20
-87.5
 11
28.0
 21
-102.5
  0
LINE
  5
253
330
20
100
AcDbEntity
  8
0
  6
CONTINUOUS
100
AcDbLine
 10
52.0
 20
-87.5
 11
52.0
 21
-102.5
  0
LINE
  5
254
330
20
100
AcDbEntity
  8
0
  6
CONTINUOUS
100
AcDbLine
 10
-271.4081743554
 20
-75.5
 11
-224.4081743554
 21
-75.5
  0
ARC
  5
255
330
20
100
AcDbEntity
  8
0
  6
CONTINUOUS
100
AcDbCircle
 10
-225.3081743554
 20
-77.7
 40
2.19999999999975
100
AcDbArc
 50
65.8522600829755
 51
90.0
  0
LINE
  5
256
330
20
100
AcDbEntity
  8
0
  6
CONTINUOUS
100
AcDbLine
 10
-224.4081743554
 20
-85.5
 11
-225.1081743554
 21
-85.5
  0
LINE
  5
257
330
20
100
AcDbEntity
  8
0
  6
CONTINUOUS
100
AcDbLine
 10
-225.1081743554
 20
85.5
 11
-224.4081743554
 21
85.5
  0
LINE
  5
258
330
20
100
AcDbEntity
  8
0
  6
CONTINUOUS
100
AcDbLine
 10
-271.4081743554
 20
75.5
 11
-224.4081743554
 21
75.5
  0
ARC
  5
259
330
20
100
AcDbEntity
  8
0
  6
CONTINUOUS
100
AcDbCircle
 10
-225.3081743554
 20
77.7
 40
2.2
100
AcDbArc
 50
270.0
 51
294.147739917022
  0
CIRCLE
  5
25A
330
20
100
AcDbEntity
  8
0
  6
CONTINUOUS
100
AcDbCircle
 10
65.0
 20
-81.5
 40
3.5
  0
CIRCLE
  5
25B
330
20
100
AcDbEntity
  8
0
  6
CONTINUOUS
100
AcDbCircle
 10
65.0
 20
-81.5
 40
2.80717967697245
  0
LWPOLYLINE
  5
25C
330
20
100
AcDbEntity
  8
0
  6
CONTINUOUS
100
AcDbPolyline
 90
        6
 70
     1
 43
0.0
 10
66.5
 20
-80.5513167019495
 10
65.0
 20
-79.8398042284116
 10
63.5
 20
-80.5513167019495
 10
63.5
 20
-82.4486832980505
 10
65.0
 20
-83.1601957715884
 10
66.5
 20
-82.4486832980505
  0
CIRCLE
  5
25D
330
20
100
AcDbEntity
  8
0
  6
CONTINUOUS
100
AcDbCircle
 10
-65.0
 20
-81.5
 40
3.5
  0
CIRCLE
  5
25E
330
20
100
AcDbEntity
  8
0
  6
CONTINUOUS
100
AcDbCircle
 10
-65.0
 20
-81.5
 40
2.80717967697245
  0
LWPOLYLINE
  5
25F
330
20
100
AcDbEntity
  8
0
  6
CONTINUOUS
100
AcDbPolyline
 90
        6
 70
     1
 43
0.0
 10
-63.5
 20
-80.5513167019495
 10
-65.0
 20
-79.8398042284116
 10
-66.5
 20
-80.5513167019495
 10
-66.5
 20
-82.4486832980505
 10
-65.0
 20
-83.1601957715884
 10
-63.5
 20
-82.4486832980505
  0
CIRCLE
  5
260
330
20
100
AcDbEntity
  8
0
  6
CONTINUOUS
100
AcDbCircle
 10
-64.9999999999999
 20
81.5
 40
3.5
  0
CIRCLE
  5
261
330
20
100
AcDbEntity
  8
0
  6
CONTINUOUS
100
AcDbCircle
 10
-64.9999999999999
 20
81.5
 40
2.80717967697245
  0
LWPOLYLINE
  5
262
330
20
100
AcDbEntity
  8
0
  6
CONTINUOUS
100
AcDbPolyline
 90
        6
 70
     1
 43
0.0
 10
-63.4999999999999
 20
82.4486832980505
 10
-64.9999999999999
 20
83.1601957715884
 10
-66.4999999999999
 20
82.4486832980505
 10
-66.4999999999999
 20
80.5513167019495
 10
-64.9999999999999
 20
79.8398042284116
 10
-63.4999999999999
 20
80.5513167019495
  0
CIRCLE
  5
263
330
20
100
AcDbEntity
  8
0
  6
CONTINUOUS
100
AcDbCircle
 10
65.0
 20
81.5
 40
3.5
  0
CIRCLE
  5
264
330
20
100
AcDbEntity
  8
0
  6
CONTINUOUS
100
AcDbCircle
 10
65.0
 20
81.5
 40
2.80717967697245
  0
LWPOLYLINE
  5
265
330
20
100
AcDbEntity
  8
0
  6
CONTINUOUS
100
AcDbPolyline
 90
        6
 70
     1
 43
0.0
 10
66.5
 20
82.4486832980505
 10
65.0
 20
83.1601957715884
 10
63.5
 20
82.4486832980505
 10
63.5
 20
80.5513167019495
 10
65.0
 20
79.8398042284116
 10
66.5
 20
80.5513167019495
  0
LINE
  5
266
330
20
100
AcDbEntity
  8
0
  6
CONTINUOUS
100
AcDbLine
 10
-211.4081743554
 20
85.0
 11
-211.4081743554
 21
78.0
  0
LINE
  5
267
330
20
100
AcDbEntity
  8
0
  6
CONTINUOUS
100
AcDbLine
 10
-207.4081743554
 20
84.3071796769725
 11
-207.4081743554
 21
78.6928203230275
  0
LINE
  5
268
330
20
100
AcDbEntity
  8
0
  6
CONTINUOUS
100
AcDbLine
 10
-207.8081743554
 20
85.0
 11
-207.8081743554
 21
78.0
  0
LINE
  5
269
330
20
100
AcDbEntity
  8
0
  6
CONTINUOUS
100
AcDbLine
 10
-207.8081743554
 20
78.0
 11
-211.4081743554
 21
78.0
  0
LINE
  5
26A
330
20
100
AcDbEntity
  8
0
  6
CONTINUOUS
100
AcDbLine
 10
-207.8081743554
 20
85.0
 11
-211.4081743554
 21
85.0
  0
LINE
  5
26B
330
20
100
AcDbEntity
  8
0
  6
CONTINUOUS
100
AcDbLine
 10
-207.4081743554
 20
78.6928203230275
 11
-207.8081743554
 21
78.0
  0
LINE
  5
26C
330
20
100
AcDbEntity
  8
0
  6
CONTINUOUS
100
AcDbLine
 10
-207.4081743554
 20
84.3071796769725
 11
-207.8081743554
 21
85.0
  0
LINE
  5
26D
330
20
100
AcDbEntity
  8
0
  6
CONTINUOUS
100
AcDbLine
 10
-225.1081743554
 20
79.5
 11
-225.9081743554
 21
79.5
  0
LINE
  5
26E
330
20
100
AcDbEntity
  8
0
  6
CONTINUOUS
100
AcDbLine
 10
-225.1081743554
 20
83.5
 11
-225.9081743554
 21
83.5
  0
LINE
  5
26F
330
20
100
AcDbEntity
  8
0
  6
CONTINUOUS
100
AcDbLine
 10
-226.4081743554
 20
83.0
 11
-226.4081743554
 21
80.0
  0
LINE
  5
270
330
20
100
AcDbEntity
  8
0
  6
CONTINUOUS
100
AcDbLine
 10
-225.1081743554
 20
80.0
 11
-226.4081743554
 21
80.0
  0
LINE
  5
271
330
20
100
AcDbEntity
  8
0
  6
CONTINUOUS
100
AcDbLine
 10
-225.1081743554
 20
83.0
 11
-226.4081743554
 21
83.0
  0
LINE
  5
272
330
20
100
AcDbEntity
  8
0
  6
CONTINUOUS
100
AcDbLine
 10
-225.9081743554
 20
83.5
 11
-226.4081743554
 21
83.0
  0
LINE
  5
273
330
20
100
AcDbEntity
  8
0
  6
CONTINUOUS
100
AcDbLine
 10
-225.9081743554
 20
79.5
 11
-226.4081743554
 21
80.0
  0
LINE
  5
274
330
20
100
AcDbEntity
  8
0
  6
CONTINUOUS
100
AcDbLine
 10
-225.9081743554
 20
79.5
 11
-225.9081743554
 21
83.5
  0
LINE
  5
275
330
20
100
AcDbEntity
  8
0
  6
CONTINUOUS
100
AcDbLine
 10
-211.4081743554
 20
-78.0
 11
-211.4081743554
 21
-85.0
  0
LINE
  5
276
330
20
100
AcDbEntity
  8
0
  6
CONTINUOUS
100
AcDbLine
 10
-207.4081743554
 20
-78.6928203230275
 11
-207.4081743554
 21
-84.3071796769725
  0
LINE
  5
277
330
20
100
AcDbEntity
  8
0
  6
CONTINUOUS
100
AcDbLine
 10
-207.8081743554
 20
-78.0
 11
-207.8081743554
 21
-85.0
  0
LINE
  5
278
330
20
100
AcDbEntity
  8
0
  6
CONTINUOUS
100
AcDbLine
 10
-207.8081743554
 20
-85.0
 11
-211.4081743554
 21
-85.0
  0
LINE
  5
279
330
20
100
AcDbEntity
  8
0
  6
CONTINUOUS
100
AcDbLine
 10
-207.8081743554
 20
-78.0
 11
-211.4081743554
 21
-78.0
  0
LINE
  5
27A
330
20
100
AcDbEntity
  8
0
  6
CONTINUOUS
100
AcDbLine
 10
-207.4081743554
 20
-84.3071796769725
 11
-207.8081743554
 21
-85.0
  0
LINE
  5
27B
330
20
100
AcDbEntity
  8
0
  6
CONTINUOUS
100
AcDbLine
 10
-207.4081743554
 20
-78.6928203230275
 11
-207.8081743554
 21
-78.0
  0
LINE
  5
27C
330
20
100
AcDbEntity
  8
0
  6
CONTINUOUS
100
AcDbLine
 10
-225.1081743554
 20
-83.5
 11
-225.9081743554
 21
-83.5
  0
LINE
  5
27D
330
20
100
AcDbEntity
  8
0
  6
CONTINUOUS
100
AcDbLine
 10
-225.1081743554
 20
-79.5
 11
-225.9081743554
 21
-79.5
  0
LINE
  5
27E
330
20
100
AcDbEntity
  8
0
  6
CONTINUOUS
100
AcDbLine
 10
-226.4081743554
 20
-80.0
 11
-226.4081743554
 21
-83.0
  0
LINE
  5
27F
330
20
100
AcDbEntity
  8
0
  6
CONTINUOUS
100
AcDbLine
 10
-225.1081743554
 20
-83.0
 11
-226.4081743554
 21
-83.0
  0
LINE
  5
280
330
20
100
AcDbEntity
  8
0
  6
CONTINUOUS
100
AcDbLine
 10
-225.1081743554
 20
-80.0
 11
-226.4081743554
 21
-80.0
  0
LINE
  5
281
330
20
100
AcDbEntity
  8
0
  6
CONTINUOUS
100
AcDbLine
 10
-225.9081743554
 20
-79.5
 11
-226.4081743554
 21
-80.0
  0
LINE
  5
282
330
20
100
AcDbEntity
  8
0
  6
CONTINUOUS
100
AcDbLine
 10
-225.9081743554
 20
-83.5
 11
-226.4081743554
 21
-83.0
  0
LINE
  5
283
330
20
100
AcDbEntity
  8
0
  6
CONTINUOUS
100
AcDbLine
 10
-225.9081743554
 20
-83.5
 11
-225.9081743554
 21
-79.5
  0
ARC
  5
284
330
20
100
AcDbEntity
  8
0
  6
CONTINUOUS
100
AcDbCircle
 10
-546.2618864889
 20
86.3
 40
1.2
100
AcDbArc
 50
90.0
 51
180.0
  0
ARC
  5
285
330
20
100
AcDbEntity
  8
0
  6
CONTINUOUS
100
AcDbCircle
 10
-389.6618864889
 20
86.3
 40
1.2
100
AcDbArc
 50
0.0
 51
90.0
  0
ARC
  5
286
330
20
100
AcDbEntity
  8
0
  6
CONTINUOUS
100
AcDbCircle
 10
-389.6618864889
 20
-86.3
 40
1.2
100
AcDbArc
 50
270.0
 51
0.0
  0
ARC
  5
287
330
20
100
AcDbEntity
  8
0
  6
CONTINUOUS
100
AcDbCircle
 10
-546.2618864889
 20
-86.3
 40
1.2
100
AcDbArc
 50
180.0
 51
270.0
  0
LINE
  5
288
330
20
100
AcDbEntity
  8
0
  6
CONTINUOUS
100
AcDbLine
 10
-388.4618864889
 20
-86.3
 11
-388.4618864889
 21
-30.0
  0
LINE
  5
289
330
20
100
AcDbEntity
  8
0
  6
CONTINUOUS
100
AcDbLine
 10
-388.4618864889
 20
30.0
 11
-388.4618864889
 21
86.3
  0
LINE
  5
28A
330
20
100
AcDbEntity
  8
0
  6
CONTINUOUS
100
AcDbLine
 10
-547.4618864889
 20
86.3
 11
-547.4618864889
 21
30.0
  0
LINE
  5
28B
330
20
100
AcDbEntity
  8
0
  6
CONTINUOUS
100
AcDbLine
 10
-547.4618864889
 20
-30.0
 11
-547.4618864889
 21
-86.3
  0
ARC
  5
28C
330
20
100
AcDbEntity
  8
0
  6
CONTINUOUS
100
AcDbCircle
 10
-560.4618864889
 20
25.0
 40
5.0
100
AcDbArc
 50
90.0
 51
180.0
  0
LINE
  5
28D
330
20
100
AcDbEntity
  8
0
  6
CONTINUOUS
100
AcDbLine
 10
-530.4618864889
 20
30.0
 11
-560.4618864889
 21
30.0
  0
CIRCLE
  5
28E
330
20
100
AcDbEntity
  8
0
  6
CONTINUOUS
100
AcDbCircle
 10
-557.9618864889
 20
24.0
 40
2.80000000000007
  0
LINE
  5
28F
330
20
100
AcDbEntity
  8
0
  6
CONTINUOUS
100
AcDbLine
 10
-565.4618864889
 20
25.0
 11
-565.4618864889
 21
-25.0
  0
LINE
  5
290
330
20
100
AcDbEntity
  8
0
  6
CONTINUOUS
100
AcDbLine
 10
-545.4618864889
 20
30.0
 11
-545.4618864889
 21
74.0
  0
LINE
  5
291
330
20
100
AcDbEntity
  8
0
  6
CONTINUOUS
100
AcDbLine
 10
-560.4618864889
 20
-30.0
 11
-530.4618864889
 21
-30.0
  0
CIRCLE
  5
292
330
20
100
AcDbEntity
  8
0
  6
CONTINUOUS
100
AcDbCircle
 10
-557.9618864889
 20
-24.0
 40
2.79999999999995
  0
ARC
  5
293
330
20
100
AcDbEntity
  8
0
  6
CONTINUOUS
100
AcDbCircle
 10
-560.4618864889
 20
-25.0
 40
5.00000000000004
100
AcDbArc
 50
180.0
 51
270.0
  0
LINE
  5
294
330
20
100
AcDbEntity
  8
0
  6
CONTINUOUS
100
AcDbLine
 10
-545.4618864889
 20
-74.0
 11
-545.4618864889
 21
-30.0
  0
ARC
  5
295
330
20
100
AcDbEntity
  8
0
  6
CONTINUOUS
100
AcDbCircle
 10
-543.9618864889
 20
-74.0
 40
1.5
100
AcDbArc
 50
180.0
 51
270.0
  0
ARC
  5
296
330
20
100
AcDbEntity
  8
0
  6
CONTINUOUS
100
AcDbCircle
 10
-543.9618864889
 20
74.0
 40
1.5
100
AcDbArc
 50
90.0
 51
180.0
  0
CIRCLE
  5
297
330
20
100
AcDbEntity
  8
0
  6
CONTINUOUS
100
AcDbCircle
 10
-532.9618864889
 20
81.5
 40
1.64999999999998
  0
ARC
  5
298
330
20
100
AcDbEntity
  8
0
  6
CONTINUOUS
100
AcDbCircle
 10
-539.9618864889
 20
82.5
 40
2.99999999999994
100
AcDbArc
 50
90.0
 51
180.0
  0
CIRCLE
  5
299
330
20
100
AcDbEntity
  8
0
  6
CONTINUOUS
100
AcDbCircle
 10
-532.9618864889
 20
81.5
 40
2.0
  0
LINE
  5
29A
330
20
100
AcDbEntity
  8
0
  6
CONTINUOUS
100
AcDbLine
 10
-542.9618864889
 20
75.5
 11
-542.9618864889
 21
82.5
  0
LINE
  5
29B
330
20
100
AcDbEntity
  8
0
  6
CONTINUOUS
100
AcDbLine
 10
-542.9618864889
 20
-82.5
 11
-542.9618864889
 21
-75.5
  0
CIRCLE
  5
29C
330
20
100
AcDbEntity
  8
0
  6
CONTINUOUS
100
AcDbCircle
 10
-532.9618864889
 20
-81.5
 40
1.64999999999998
  0
CIRCLE
  5
29D
330
20
100
AcDbEntity
  8
0
  6
CONTINUOUS
100
AcDbCircle
 10
-532.9618864889
 20
-81.5
 40
2.0
  0
LINE
  5
29E
330
20
100
AcDbEntity
  8
0
  6
CONTINUOUS
100
AcDbLine
 10
-530.4618864889
 20
-30.0
 11
-530.4618864889
 21
30.0
  0
ARC
  5
29F
330
20
100
AcDbEntity
  8
0
  6
CONTINUOUS
100
AcDbCircle
 10
-539.9618864889
 20
-82.5
 40
2.99999999999996
100
AcDbArc
 50
180.0
 51
270.0
  0
LINE
  5
2A0
330
20
100
AcDbEntity
  8
0
  6
CONTINUOUS
100
AcDbLine
 10
-389.6618864889
 20
87.5
 11
-415.9618864889
 21
87.5
  0
LINE
  5
2A1
330
20
100
AcDbEntity
  8
0
  6
CONTINUOUS
100
AcDbLine
 10
-439.9618864889
 20
87.5
 11
-455.9618864889
 21
87.5
  0
LINE
  5
2A2
330
20
100
AcDbEntity
  8
0
  6
CONTINUOUS
100
AcDbLine
 10
-479.9618864889
 20
87.5
 11
-495.9618864889
 21
87.5
  0
LINE
  5
2A3
330
20
100
AcDbEntity
  8
0
  6
CONTINUOUS
100
AcDbLine
 10
-519.9618864889
 20
87.5
 11
-546.2618864889
 21
87.5
  0
LINE
  5
2A4
330
20
100
AcDbEntity
  8
0
  6
CONTINUOUS
100
AcDbLine
 10
-543.9618864889
 20
75.5
 11
-519.9618864889
 21
75.5
  0
LINE
  5
2A5
330
20
100
AcDbEntity
  8
0
  6
CONTINUOUS
100
AcDbLine
 10
-495.9618864889
 20
75.5
 11
-479.9618864889
 21
75.5
  0
LINE
  5
2A6
330
20
100
AcDbEntity
  8
0
  6
CONTINUOUS
100
AcDbLine
 10
-455.9618864889
 20
75.5
 11
-439.9618864889
 21
75.5
  0
LINE
  5
2A7
330
20
100
AcDbEntity
  8
0
  6
CONTINUOUS
100
AcDbLine
 10
-415.9618864889
 20
75.5
 11
-391.9618864889
 21
75.5
  0
LINE
  5
2A8
330
20
100
AcDbEntity
  8
0
  6
CONTINUOUS
100
AcDbLine
 10
-539.9618864889
 20
85.5
 11
-519.9618864889
 21
85.5
  0
LINE
  5
2A9
330
20
100
AcDbEntity
  8
0
  6
CONTINUOUS
100
AcDbLine
 10
-495.9618864889
 20
85.5
 11
-479.9618864889
 21
85.5
  0
LINE
  5
2AA
330
20
100
AcDbEntity
  8
0
  6
CONTINUOUS
100
AcDbLine
 10
-455.9618864889
 20
85.5
 11
-439.9618864889
 21
85.5
  0
LINE
  5
2AB
330
20
100
AcDbEntity
  8
0
  6
CONTINUOUS
100
AcDbLine
 10
-415.9618864889
 20
85.5
 11
-395.9618864889
 21
85.5
  0
LINE
  5
2AC
330
20
100
AcDbEntity
  8
0
  6
CONTINUOUS
100
AcDbLine
 10
-542.9618864889
 20
77.5
 11
-519.9618864889
 21
77.5
  0
LINE
  5
2AD
330
20
100
AcDbEntity
  8
0
  6
CONTINUOUS
100
AcDbLine
 10
-495.9618864889
 20
77.5
 11
-479.9618864889
 21
77.5
  0
LINE
  5
2AE
330
20
100
AcDbEntity
  8
0
  6
CONTINUOUS
100
AcDbLine
 10
-455.9618864889
 20
77.5
 11
-439.9618864889
 21
77.5
  0
LINE
  5
2AF
330
20
100
AcDbEntity
  8
0
  6
CONTINUOUS
100
AcDbLine
 10
-415.9618864889
 20
77.5
 11
-392.9618864889
 21
77.5
  0
LINE
  5
2B0
330
20
100
AcDbEntity
  8
0
  6
CONTINUOUS
100
AcDbLine
 10
-546.2618864889
 20
-87.5
 11
-519.9618864889
 21
-87.5
  0
LINE
  5
2B1
330
20
100
AcDbEntity
  8
0
  6
CONTINUOUS
100
AcDbLine
 10
-495.9618864889
 20
-87.5
 11
-439.9618864889
 21
-87.5
  0
LINE
  5
2B2
330
20
100
AcDbEntity
  8
0
  6
CONTINUOUS
100
AcDbLine
 10
-415.9618864889
 20
-87.5
 11
-389.6618864889
 21
-87.5
  0
LINE
  5
2B3
330
20
100
AcDbEntity
  8
0
  6
CONTINUOUS
100
AcDbLine
 10
-391.9618864889
 20
-75.5
 11
-415.9618864889
 21
-75.5
  0
LINE
  5
2B4
330
20
100
AcDbEntity
  8
0
  6
CONTINUOUS
100
AcDbLine
 10
-439.9618864889
 20
-75.5
 11
-495.9618864889
 21
-75.5
  0
LINE
  5
2B5
330
20
100
AcDbEntity
  8
0
  6
CONTINUOUS
100
AcDbLine
 10
-519.9618864889
 20
-75.5
 11
-543.9618864889
 21
-75.5
  0
LINE
  5
2B6
330
20
100
AcDbEntity
  8
0
  6
CONTINUOUS
100
AcDbLine
 10
-542.9618864889
 20
-77.5
 11
-519.9618864889
 21
-77.5
  0
LINE
  5
2B7
330
20
100
AcDbEntity
  8
0
  6
CONTINUOUS
100
AcDbLine
 10
-495.9618864889
 20
-77.5
 11
-439.9618864889
 21
-77.5
  0
LINE
  5
2B8
330
20
100
AcDbEntity
  8
0
  6
CONTINUOUS
100
AcDbLine
 10
-415.9618864889
 20
-77.5
 11
-392.9618864889
 21
-77.5
  0
LINE
  5
2B9
330
20
100
AcDbEntity
  8
0
  6
CONTINUOUS
100
AcDbLine
 10
-539.9618864889
 20
-85.5
 11
-519.9618864889
 21
-85.5
  0
LINE
  5
2BA
330
20
100
AcDbEntity
  8
0
  6
CONTINUOUS
100
AcDbLine
 10
-495.9618864889
 20
-85.5
 11
-439.9618864889
 21
-85.5
  0
LINE
  5
2BB
330
20
100
AcDbEntity
  8
0
  6
CONTINUOUS
100
AcDbLine
 10
-415.9618864889
 20
-85.5
 11
-395.9618864889
 21
-85.5
  0
LINE
  5
2BC
330
20
100
AcDbEntity
  8
0
  6
CENTER
100
AcDbLine
 10
-427.9618864889
 20
-70.0
 11
-427.9618864889
 21
-117.615066934502
  0
LINE
  5
2BD
330
20
100
AcDbEntity
  8
0
  6
CENTER
100
AcDbLine
 10
-507.9618864889
 20
-70.0
 11
-507.9618864889
 21
-117.615066934502
  0
LINE
  5
2BE
330
20
100
AcDbEntity
  8
0
  6
CENTER
100
AcDbLine
 10
-427.9618864889
 20
70.0
 11
-427.9618864889
 21
117.615066934502
  0
LINE
  5
2BF
330
20
100
AcDbEntity
  8
0
  6
CENTER
100
AcDbLine
 10
-507.9618864889
 20
70.0
 11
-507.9618864889
 21
117.615066934502
  0
LINE
  5
2C0
330
20
100
AcDbEntity
  8
0
  6
CONTINUOUS
100
AcDbLine
 10
-546.2618864889
 20
-86.3
 11
-519.9618864889
 21
-86.3
  0
LINE
  5
2C1
330
20
100
AcDbEntity
  8
0
  6
CONTINUOUS
100
AcDbLine
 10
-495.9618864889
 20
-86.3
 11
-439.9618864889
 21
-86.3
  0
LINE
  5
2C2
330
20
100
AcDbEntity
  8
0
  6
CONTINUOUS
100
AcDbLine
 10
-415.9618864889
 20
-86.3
 11
-389.6618864889
 21
-86.3
  0
LINE
  5
2C3
330
20
100
AcDbEntity
  8
0
  6
CONTINUOUS
100
AcDbLine
 10
-389.6618864889
 20
86.3
 11
-415.9618864889
 21
86.3
  0
LINE
  5
2C4
330
20
100
AcDbEntity
  8
0
  6
CONTINUOUS
100
AcDbLine
 10
-439.9618864889
 20
86.3
 11
-455.9618864889
 21
86.3
  0
LINE
  5
2C5
330
20
100
AcDbEntity
  8
0
  6
CONTINUOUS
100
AcDbLine
 10
-479.9618864889
 20
86.3
 11
-495.9618864889
 21
86.3
  0
LINE
  5
2C6
330
20
100
AcDbEntity
  8
0
  6
CONTINUOUS
100
AcDbLine
 10
-519.9618864889
 20
86.3
 11
-546.2618864889
 21
86.3
  0
LINE
  5
2C7
330
20
100
AcDbEntity
  8
0
  6
CONTINUOUS
100
AcDbLine
 10
-546.2618864889
 20
86.3
 11
-546.2618864889
 21
30.0
  0
LINE
  5
2C8
330
20
100
AcDbEntity
  8
0
  6
CONTINUOUS
100
AcDbLine
 10
-546.2618864889
 20
-30.0
 11
-546.2618864889
 21
-86.3
  0
LINE
  5
2C9
330
20
100
AcDbEntity
  8
0
  6
CONTINUOUS
100
AcDbLine
 10
-389.6618864889
 20
-86.3
 11
-389.6618864889
 21
-30.0
  0
LINE
  5
2CA
330
20
100
AcDbEntity
  8
0
  6
CONTINUOUS
100
AcDbLine
 10
-389.6618864889
 20
30.0
 11
-389.6618864889
 21
86.3
  0
LINE
  5
2CB
330
20
100
AcDbEntity
  8
0
  6
CENTER
100
AcDbLine
 10
-467.9618864889
 20
-120.0
 11
-467.9618864889
 21
120.0
  0
LINE
  5
2CC
330
20
100
AcDbEntity
  8
0
  6
CENTER
100
AcDbLine
 10
-365.0
 20
0.0
 11
-570.0
 21
0.0
  0
LINE
  5
2CD
330
20
100
AcDbEntity
  8
0
  6
CENTER
100
AcDbLine
 10
-205.0
 20
0.0
 11
-280.0
 21
0.0
  0
LINE
  5
2CE
330
20
100
AcDbEntity
  8
0
  6
CENTER
100
AcDbLine
 10
105.0
 20
0.0
 11
-105.0
 21
0.0
  0
LINE
  5
2CF
330
20
100
AcDbEntity
  8
0
  6
CENTER
100
AcDbLine
 10
-40.0
 20
70.8506280914383
 11
-40.0
 21
117.615066934502
  0
LINE
  5
2D0
330
20
100
AcDbEntity
  8
0
  6
CENTER
100
AcDbLine
 10
40.0
 20
70.8506280914383
 11
40.0
 21
117.615066934502
  0
LINE
  5
2D1
330
20
100
AcDbEntity
  8
0
  6
CONTINUOUS
100
AcDbLine
 10
62.5
 20
278.2541146998
 11
62.5
 21
277.0541146998
  0
LINE
  5
2D2
330
20
100
AcDbEntity
  8
0
  6
CONTINUOUS
100
AcDbLine
 10
-62.4999999999999
 20
278.2541146998
 11
-62.4999999999999
 21
277.0541146998
  0
LINE
  5
2D3
330
20
100
AcDbEntity
  8
0
  6
CONTINUOUS
100
AcDbLine
 10
62.5
 20
-248.6288807225
 11
62.5
 21
-247.4288807225
  0
LINE
  5
2D4
330
20
100
AcDbEntity
  8
0
  6
CONTINUOUS
100
AcDbLine
 10
-62.4999999999999
 20
-248.6288807225
 11
-62.4999999999999
 21
-247.4288807225
  0
ARC
  5
2D5
330
20
100
AcDbEntity
  8
0
  6
CONTINUOUS
100
AcDbCircle
 10
-78.3
 20
217.0541146998
 40
1.2
100
AcDbArc
 50
180.0
 51
270.0
  0
LINE
  5
2D6
330
20
100
AcDbEntity
  8
0
  6
CONTINUOUS
100
AcDbLine
 10
-78.3
 20
215.8541146998
 11
78.3
 21
215.8541146998
  0
ARC
  5
2D7
330
20
100
AcDbEntity
  8
0
  6
CONTINUOUS
100
AcDbCircle
 10
78.3
 20
217.0541146998
 40
1.19999999999999
100
AcDbArc
 50
270.0
 51
0.0
  0
ARC
  5
2D8
330
20
100
AcDbEntity
  8
0
  6
CONTINUOUS
100
AcDbCircle
 10
-78.3
 20
-187.4288807225
 40
1.19999999999999
100
AcDbArc
 50
90.0
 51
180.0
  0
LINE
  5
2D9
330
20
100
AcDbEntity
  8
0
  6
CONTINUOUS
100
AcDbLine
 10
-78.3
 20
-186.2288807225
 11
78.3
 21
-186.2288807225
  0
ARC
  5
2DA
330
20
100
AcDbEntity
  8
0
  6
CONTINUOUS
100
AcDbCircle
 10
78.3
 20
-187.4288807225
 40
1.19999999999999
100
AcDbArc
 50
0.0
 51
90.0
  0
LINE
  5
2DB
330
20
100
AcDbEntity
  8
0
  6
CONTINUOUS
100
AcDbLine
 10
-79.5
 20
228.8541146998
 11
79.5
 21
228.8541146998
  0
LINE
  5
2DC
330
20
100
AcDbEntity
  8
0
  6
CONTINUOUS
100
AcDbLine
 10
79.5
 20
217.0541146998
 11
79.5
 21
228.8541146998
  0
LINE
  5
2DD
330
20
100
AcDbEntity
  8
0
  6
CONTINUOUS
100
AcDbLine
 10
-79.5
 20
217.0541146998
 11
-79.5
 21
228.8541146998
  0
LINE
  5
2DE
330
20
100
AcDbEntity
  8
0
  6
CONTINUOUS
100
AcDbLine
 10
77.5
 20
275.8541146998
 11
77.5
 21
228.8541146998
  0
LINE
  5
2DF
330
20
100
AcDbEntity
  8
0
  6
CONTINUOUS
100
AcDbLine
 10
75.0
 20
228.8541146998
 11
75.0
 21
234.5541146998
  0
LINE
  5
2E0
330
20
100
AcDbEntity
  8
0
  6
CONTINUOUS
100
AcDbLine
 10
-74.9999999999999
 20
228.8541146998
 11
-74.9999999999999
 21
234.5541146998
  0
LINE
  5
2E1
330
20
100
AcDbEntity
  8
0
  6
CONTINUOUS
100
AcDbLine
 10
-77.4999999999999
 20
275.8541146998
 11
-77.4999999999999
 21
228.8541146998
  0
LINE
  5
2E2
330
20
100
AcDbEntity
  8
0
  6
CONTINUOUS
100
AcDbLine
 10
-79.5
 20
-199.2288807225
 11
79.5
 21
-199.2288807225
  0
LINE
  5
2E3
330
20
100
AcDbEntity
  8
0
  6
CONTINUOUS
100
AcDbLine
 10
79.5
 20
-199.2288807225
 11
79.5
 21
-187.4288807225
  0
LINE
  5
2E4
330
20
100
AcDbEntity
  8
0
  6
CONTINUOUS
100
AcDbLine
 10
-79.5
 20
-199.2288807225
 11
-79.5
 21
-187.4288807225
  0
LINE
  5
2E5
330
20
100
AcDbEntity
  8
0
  6
CONTINUOUS
100
AcDbLine
 10
77.5
 20
-246.2288807225
 11
77.5
 21
-199.2288807225
  0
LINE
  5
2E6
330
20
100
AcDbEntity
  8
0
  6
CONTINUOUS
100
AcDbLine
 10
75.0
 20
-204.9288807225
 11
75.0
 21
-199.2288807225
  0
LINE
  5
2E7
330
20
100
AcDbEntity
  8
0
  6
CONTINUOUS
100
AcDbLine
 10
-74.9999999999999
 20
-204.9288807225
 11
-74.9999999999999
 21
-199.2288807225
  0
LINE
  5
2E8
330
20
100
AcDbEntity
  8
0
  6
CONTINUOUS
100
AcDbLine
 10
-77.4999999999999
 20
-246.2288807225
 11
-77.4999999999999
 21
-199.2288807225
  0
LINE
  5
2E9
330
20
100
AcDbEntity
  8
0
  6
CONTINUOUS
100
AcDbLine
 10
68.5
 20
215.8541146998
 11
61.5
 21
215.8541146998
  0
LINE
  5
2EA
330
20
100
AcDbEntity
  8
0
  6
CONTINUOUS
100
AcDbLine
 10
67.8071796769725
 20
211.8541146998
 11
62.1928203230275
 21
211.8541146998
  0
LINE
  5
2EB
330
20
100
AcDbEntity
  8
0
  6
CONTINUOUS
100
AcDbLine
 10
68.5
 20
212.2541146998
 11
61.5
 21
212.2541146998
  0
LINE
  5
2EC
330
20
100
AcDbEntity
  8
0
  6
CONTINUOUS
100
AcDbLine
 10
61.5
 20
212.2541146998
 11
61.5
 21
215.8541146998
  0
LINE
  5
2ED
330
20
100
AcDbEntity
  8
0
  6
CONTINUOUS
100
AcDbLine
 10
68.5
 20
212.2541146998
 11
68.5
 21
215.8541146998
  0
LINE
  5
2EE
330
20
100
AcDbEntity
  8
0
  6
CONTINUOUS
100
AcDbLine
 10
62.1928203230275
 20
211.8541146998
 11
61.5
 21
212.2541146998
  0
LINE
  5
2EF
330
20
100
AcDbEntity
  8
0
  6
CONTINUOUS
100
AcDbLine
 10
67.8071796769725
 20
211.8541146998
 11
68.5
 21
212.2541146998
  0
LINE
  5
2F0
330
20
100
AcDbEntity
  8
0
  6
CONTINUOUS
100
AcDbLine
 10
63.0
 20
229.5541146998
 11
63.0
 21
230.3541146998
  0
LINE
  5
2F1
330
20
100
AcDbEntity
  8
0
  6
CONTINUOUS
100
AcDbLine
 10
67.0
 20
229.5541146998
 11
67.0
 21
230.3541146998
  0
LINE
  5
2F2
330
20
100
AcDbEntity
  8
0
  6
CONTINUOUS
100
AcDbLine
 10
66.5
 20
230.8541146998
 11
63.5
 21
230.8541146998
  0
LINE
  5
2F3
330
20
100
AcDbEntity
  8
0
  6
CONTINUOUS
100
AcDbLine
 10
63.5
 20
229.5541146998
 11
63.5
 21
230.8541146998
  0
LINE
  5
2F4
330
20
100
AcDbEntity
  8
0
  6
CONTINUOUS
100
AcDbLine
 10
66.5
 20
229.5541146998
 11
66.5
 21
230.8541146998
  0
LINE
  5
2F5
330
20
100
AcDbEntity
  8
0
  6
CONTINUOUS
100
AcDbLine
 10
67.0
 20
230.3541146998
 11
66.5
 21
230.8541146998
  0
LINE
  5
2F6
330
20
100
AcDbEntity
  8
0
  6
CONTINUOUS
100
AcDbLine
 10
63.0
 20
230.3541146998
 11
63.5
 21
230.8541146998
  0
LINE
  5
2F7
330
20
100
AcDbEntity
  8
0
  6
CONTINUOUS
100
AcDbLine
 10
63.0
 20
230.3541146998
 11
67.0
 21
230.3541146998
  0
LINE
  5
2F8
330
20
100
AcDbEntity
  8
0
  6
CONTINUOUS
100
AcDbLine
 10
-61.4999999999999
 20
215.8541146998
 11
-68.4999999999999
 21
215.8541146998
  0
LINE
  5
2F9
330
20
100
AcDbEntity
  8
0
  6
CONTINUOUS
100
AcDbLine
 10
-62.1928203230275
 20
211.8541146998
 11
-67.8071796769724
 21
211.8541146998
  0
LINE
  5
2FA
330
20
100
AcDbEntity
  8
0
  6
CONTINUOUS
100
AcDbLine
 10
-61.4999999999999
 20
212.2541146998
 11
-68.4999999999999
 21
212.2541146998
  0
LINE
  5
2FB
330
20
100
AcDbEntity
  8
0
  6
CONTINUOUS
100
AcDbLine
 10
-68.4999999999999
 20
212.2541146998
 11
-68.4999999999999
 21
215.8541146998
  0
LINE
  5
2FC
330
20
100
AcDbEntity
  8
0
  6
CONTINUOUS
100
AcDbLine
 10
-61.4999999999999
 20
212.2541146998
 11
-61.4999999999999
 21
215.8541146998
  0
LINE
  5
2FD
330
20
100
AcDbEntity
  8
0
  6
CONTINUOUS
100
AcDbLine
 10
-67.8071796769724
 20
211.8541146998
 11
-68.4999999999999
 21
212.2541146998
  0
LINE
  5
2FE
330
20
100
AcDbEntity
  8
0
  6
CONTINUOUS
100
AcDbLine
 10
-62.1928203230275
 20
211.8541146998
 11
-61.4999999999999
 21
212.2541146998
  0
LINE
  5
2FF
330
20
100
AcDbEntity
  8
0
  6
CONTINUOUS
100
AcDbLine
 10
-66.9999999999999
 20
229.5541146998
 11
-66.9999999999999
 21
230.3541146998
  0
LINE
  5
300
330
20
100
AcDbEntity
  8
0
  6
CONTINUOUS
100
AcDbLine
 10
-62.9999999999999
 20
229.5541146998
 11
-62.9999999999999
 21
230.3541146998
  0
LINE
  5
301
330
20
100
AcDbEntity
  8
0
  6
CONTINUOUS
100
AcDbLine
 10
-63.4999999999999
 20
230.8541146998
 11
-66.4999999999999
 21
230.8541146998
  0
LINE
  5
302
330
20
100
AcDbEntity
  8
0
  6
CONTINUOUS
100
AcDbLine
 10
-66.4999999999999
 20
229.5541146998
 11
-66.4999999999999
 21
230.8541146998
  0
LINE
  5
303
330
20
100
AcDbEntity
  8
0
  6
CONTINUOUS
100
AcDbLine
 10
-63.4999999999999
 20
229.5541146998
 11
-63.4999999999999
 21
230.8541146998
  0
LINE
  5
304
330
20
100
AcDbEntity
  8
0
  6
CONTINUOUS
100
AcDbLine
 10
-62.9999999999999
 20
230.3541146998
 11
-63.4999999999999
 21
230.8541146998
  0
LINE
  5
305
330
20
100
AcDbEntity
  8
0
  6
CONTINUOUS
100
AcDbLine
 10
-66.9999999999999
 20
230.3541146998
 11
-66.4999999999999
 21
230.8541146998
  0
LINE
  5
306
330
20
100
AcDbEntity
  8
0
  6
CONTINUOUS
100
AcDbLine
 10
-66.9999999999999
 20
230.3541146998
 11
-62.9999999999999
 21
230.3541146998
  0
LINE
  5
307
330
20
100
AcDbEntity
  8
0
  6
CONTINUOUS
100
AcDbLine
 10
61.5
 20
-186.2288807225
 11
68.5
 21
-186.2288807225
  0
LINE
  5
308
330
20
100
AcDbEntity
  8
0
  6
CONTINUOUS
100
AcDbLine
 10
62.1928203230276
 20
-182.2288807225
 11
67.8071796769725
 21
-182.2288807225
  0
LINE
  5
309
330
20
100
AcDbEntity
  8
0
  6
CONTINUOUS
100
AcDbLine
 10
61.5
 20
-182.6288807225
 11
68.5
 21
-182.6288807225
  0
LINE
  5
30A
330
20
100
AcDbEntity
  8
0
  6
CONTINUOUS
100
AcDbLine
 10
68.5
 20
-182.6288807225
 11
68.5
 21
-186.2288807225
  0
LINE
  5
30B
330
20
100
AcDbEntity
  8
0
  6
CONTINUOUS
100
AcDbLine
 10
61.5
 20
-182.6288807225
 11
61.5
 21
-186.2288807225
  0
LINE
  5
30C
330
20
100
AcDbEntity
  8
0
  6
CONTINUOUS
100
AcDbLine
 10
67.8071796769725
 20
-182.2288807225
 11
68.5
 21
-182.6288807225
  0
LINE
  5
30D
330
20
100
AcDbEntity
  8
0
  6
CONTINUOUS
100
AcDbLine
 10
62.1928203230276
 20
-182.2288807225
 11
61.5
 21
-182.6288807225
  0
LINE
  5
30E
330
20
100
AcDbEntity
  8
0
  6
CONTINUOUS
100
AcDbLine
 10
67.0
 20
-199.9288807225
 11
67.0
 21
-200.7288807225
  0
LINE
  5
30F
330
20
100
AcDbEntity
  8
0
  6
CONTINUOUS
100
AcDbLine
 10
63.0
 20
-199.9288807225
 11
63.0
 21
-200.7288807225
  0
LINE
  5
310
330
20
100
AcDbEntity
  8
0
  6
CONTINUOUS
100
AcDbLine
 10
63.5
 20
-201.2288807225
 11
66.5
 21
-201.2288807225
  0
LINE
  5
311
330
20
100
AcDbEntity
  8
0
  6
CONTINUOUS
100
AcDbLine
 10
66.5
 20
-199.9288807225
 11
66.5
 21
-201.2288807225
  0
LINE
  5
312
330
20
100
AcDbEntity
  8
0
  6
CONTINUOUS
100
AcDbLine
 10
63.5
 20
-199.9288807225
 11
63.5
 21
-201.2288807225
  0
LINE
  5
313
330
20
100
AcDbEntity
  8
0
  6
CONTINUOUS
100
AcDbLine
 10
63.0
 20
-200.7288807225
 11
63.5
 21
-201.2288807225
  0
LINE
  5
314
330
20
100
AcDbEntity
  8
0
  6
CONTINUOUS
100
AcDbLine
 10
67.0
 20
-200.7288807225
 11
66.5
 21
-201.2288807225
  0
LINE
  5
315
330
20
100
AcDbEntity
  8
0
  6
CONTINUOUS
100
AcDbLine
 10
67.0
 20
-200.7288807225
 11
63.0
 21
-200.7288807225
  0
LINE
  5
316
330
20
100
AcDbEntity
  8
0
  6
CONTINUOUS
100
AcDbLine
 10
-68.4999999999999
 20
-186.2288807225
 11
-61.4999999999999
 21
-186.2288807225
  0
LINE
  5
317
330
20
100
AcDbEntity
  8
0
  6
CONTINUOUS
100
AcDbLine
 10
-67.8071796769724
 20
-182.2288807225
 11
-62.1928203230275
 21
-182.2288807225
  0
LINE
  5
318
330
20
100
AcDbEntity
  8
0
  6
CONTINUOUS
100
AcDbLine
 10
-68.4999999999999
 20
-182.6288807225
 11
-61.4999999999999
 21
-182.6288807225
  0
LINE
  5
319
330
20
100
AcDbEntity
  8
0
  6
CONTINUOUS
100
AcDbLine
 10
-61.4999999999999
 20
-182.6288807225
 11
-61.4999999999999
 21
-186.2288807225
  0
LINE
  5
31A
330
20
100
AcDbEntity
  8
0
  6
CONTINUOUS
100
AcDbLine
 10
-68.4999999999999
 20
-182.6288807225
 11
-68.4999999999999
 21
-186.2288807225
  0
LINE
  5
31B
330
20
100
AcDbEntity
  8
0
  6
CONTINUOUS
100
AcDbLine
 10
-62.1928203230275
 20
-182.2288807225
 11
-61.4999999999999
 21
-182.6288807225
  0
LINE
  5
31C
330
20
100
AcDbEntity
  8
0
  6
CONTINUOUS
100
AcDbLine
 10
-67.8071796769724
 20
-182.2288807225
 11
-68.4999999999999
 21
-182.6288807225
  0
LINE
  5
31D
330
20
100
AcDbEntity
  8
0
  6
CONTINUOUS
100
AcDbLine
 10
-62.9999999999999
 20
-199.9288807225
 11
-62.9999999999999
 21
-200.7288807225
  0
LINE
  5
31E
330
20
100
AcDbEntity
  8
0
  6
CONTINUOUS
100
AcDbLine
 10
-66.9999999999999
 20
-199.9288807225
 11
-66.9999999999999
 21
-200.7288807225
  0
LINE
  5
31F
330
20
100
AcDbEntity
  8
0
  6
CONTINUOUS
100
AcDbLine
 10
-66.4999999999999
 20
-201.2288807225
 11
-63.4999999999999
 21
-201.2288807225
  0
LINE
  5
320
330
20
100
AcDbEntity
  8
0
  6
CONTINUOUS
100
AcDbLine
 10
-63.4999999999999
 20
-199.9288807225
 11
-63.4999999999999
 21
-201.2288807225
  0
LINE
  5
321
330
20
100
AcDbEntity
  8
0
  6
CONTINUOUS
100
AcDbLine
 10
-66.4999999999999
 20
-199.9288807225
 11
-66.4999999999999
 21
-201.2288807225
  0
LINE
  5
322
330
20
100
AcDbEntity
  8
0
  6
CONTINUOUS
100
AcDbLine
 10
-66.9999999999999
 20
-200.7288807225
 11
-66.4999999999999
 21
-201.2288807225
  0
LINE
  5
323
330
20
100
AcDbEntity
  8
0
  6
CONTINUOUS
100
AcDbLine
 10
-62.9999999999999
 20
-200.7288807225
 11
-63.4999999999999
 21
-201.2288807225
  0
LINE
  5
324
330
20
100
AcDbEntity
  8
0
  6
CONTINUOUS
100
AcDbLine
 10
-62.9999999999999
 20
-200.7288807225
 11
-66.9999999999999
 21
-200.7288807225
  0
LINE
  5
325
330
20
100
AcDbEntity
  8
0
  6
CENTER
100
AcDbLine
 10
5.68434188608080E-014
 20
-255.0
 11
5.68434188608080E-014
 21
-180.0
  0
INSERT
  5
327
330
20
100
AcDbEntity
  8
0
  6
CONTINUOUS
100
AcDbBlockReference
  2
COMP5
 10
0.0
 20
0.0
 41
1.0
 42
1.0
 50
0.0
  0
LINE
  5
330
330
20
100
AcDbEntity
  8
0
  6
CENTER
100
AcDbLine
 10
0.0
 20
120.0
 11
0.0
 21
-120.0
  0
ENDSEC
  0
SECTION
  2
OBJECTS
  0
DICTIONARY
  5
C
100
AcDbDictionary
281
     1
  3
ACAD_GROUP
350
D
  3
ACAD_MLINESTYLE
350
E
  3
ACDBVARIABLEDICTIONARY
350
331
  3
ACAD_PLOTSTYLENAME
350
332
  3
ACAD_LAYOUT
350
333
  3
ACAD_PLOTSETTINGS
350
334
  0
DICTIONARY
  5
D
102
{ACAD_REACTORS
330
C
102
}
330
C
100
AcDbDictionary
281
     1
  0
DICTIONARY
  5
E
102
{ACAD_REACTORS
330
C
102
}
330
C
100
AcDbDictionary
281
     1
  3
STANDARD
350
13
  0
DICTIONARY
  5
331
102
{ACAD_REACTORS
330
C
102
}
330
C
100
AcDbDictionary
281
     1
  3
SORTENTS
350
335
  0
ACDBDICTIONARYWDFLT
  5
332
102
{ACAD_REACTORS
330
C
102
}
330
C
100
AcDbDictionary
281
     1
  3
Normal
350
336
100
AcDbDictionaryWithDefault
340
336
  0
DICTIONARY
  5
333
102
{ACAD_REACTORS
330
C
102
}
330
C
100
AcDbDictionary
281
     1
  3
Model
350
337
  3
Layout1
350
338
  0
DICTIONARY
  5
334
102
{ACAD_REACTORS
330
C
102
}
330
C
100
AcDbDictionary
281
     1
  0
MLINESTYLE
  5
13
102
{ACAD_REACTORS
330
E
102
}
330
E
100
AcDbMlineStyle
  2
STANDARD
 70
     0
  3

 62
   256
 51
90.0
 52
90.0
 71
     2
 49
0.5
 62
   256
  6
BYLAYER
 49
-0.5
 62
   256
  6
BYLAYER
  0
DICTIONARYVAR
  5
335
102
{ACAD_REACTORS
330
331
102
}
330
331
100
DictionaryVariables
280
     0
  1
96
  0
ACDBPLACEHOLDER
  5
336
102
{ACAD_REACTORS
330
332
102
}
330
332
  0
LAYOUT
  5
337
102
{ACAD_REACTORS
330
333
102
}
330
333
100
AcDbPlotSettings
  1

  2

  4

  6

 40
0.0
 41
0.0
 42
0.0
 43
0.0
 44
0.0
 45
0.0
 46
0.0
 47
0.0
 48
0.0
 49
0.0
140
0.0
141
0.0
142
1.0
143
1.0
 70
  1712
 72
     0
 73
     0
 74
     0
  7

 75
     0
147
1.0
148
0.0
149
0.0
100
AcDbLayout
  1
Model
 70
     1
 71
     0
 10
0.0
 20
0.0
 11
297.0
 21
210.0
 12
0.0
 22
0.0
 32
0.0
 14
0.0
 24
0.0
 34
0.0
 15
0.0
 25
0.0
 35
0.0
146
0.0
 13
0.0
 23
0.0
 33
0.0
 16
1.0
 26
0.0
 36
0.0
 17
0.0
 27
1.0
 37
0.0
 76
     0
330
20
  0
LAYOUT
  5
338
102
{ACAD_REACTORS
330
333
102
}
330
333
100
AcDbPlotSettings
  1

  2
none_device
  4

  6

 40
0.0
 41
0.0
 42
0.0
 43
0.0
 44
0.0
 45
0.0
 46
0.0
 47
0.0
 48
0.0
 49
0.0
140
0.0
141
0.0
142
1.0
143
1.0
 70
   688
 72
     0
 73
     0
 74
     5
  7

 75
    16
147
1.0
148
0.0
149
0.0
100
AcDbLayout
  1
Layout1
 70
     0
 71
     1
 10
-9.0
 20
-9.0
 11
288.0
 21
201.0
 12
0.0
 22
0.0
 32
0.0
 14
1.00000000000000E+020
 24
1.00000000000000E+020
 34
1.00000000000000E+020
 15
-1.00000000000000E+020
 25
-1.00000000000000E+020
 35
-1.00000000000000E+020
146
0.0
 13
0.0
 23
0.0
 33
0.0
 16
1.0
 26
0.0
 36
0.0
 17
0.0
 27
1.0
 37
0.0
 76
     0
330
22
  0
ENDSEC
  0
EOF
