  0
SECTION
  2
HEADER
  9
$ACADVER
  1
AC1006
  9
$INSBASE
 10
0.0
 20
0.0
 30
0.0
  9
$EXTMIN
 10
-73.96602553655933
 20
-301.4481324844048
  9
$EXTMAX
 10
219.2238444069727
 20
-147.7139988167341
  9
$LIMMIN
 10
-73.96602553655933
 20
-301.4481324844048
  9
$LIMMAX
 10
219.2238444069727
 20
-147.7139988167341
  9
$ORTHOMODE
 70
     0
  9
$REGENMODE
 70
     1
  9
$FILLMODE
 70
     1
  9
$QTEXTMODE
 70
     0
  9
$MIRRTEXT
 70
     1
  9
$DRAGMODE
 70
     2
  9
$LTSCALE
 40
1.0
  9
$OSMODE
 70
     0
  9
$ATTMODE
 70
     1
  9
$TEXTSIZE
 40
3.0
  9
$TRACEWID
 40
0.5
  9
$TEXTSTYLE
  7
STANDARD
  9
$CLAYER
  8
0
  9
$CELTYPE
  6
BYLAYER
  9
$CECOLOR
 62
   256
  9
$DIMSCALE
 40
1.0
  9
$DIMASZ
 40
3.0
  9
$DIMEXO
 40
1.0
  9
$DIMDLI
 40
5.0
  9
$DIMRND
 40
0.0
  9
$DIMDLE
 40
5.0
  9
$DIMEXE
 40
2.0
  9
$DIMTP
 40
0.0
  9
$DIMTM
 40
0.0
  9
$DIMTXT
 40
3.0
  9
$DIMCEN
 40
2.0
  9
$DIMTSZ
 40
0.0
  9
$DIMTOL
 70
     0
  9
$DIMLIM
 70
     0
  9
$DIMTIH
 70
     0
  9
$DIMTOH
 70
     0
  9
$DIMSE1
 70
     0
  9
$DIMSE2
 70
     0
  9
$DIMTAD
 70
     1
  9
$DIMZIN
 70
     8
  9
$DIMBLK
  1

  9
$DIMASO
 70
     1
  9
$DIMSHO
 70
     0
  9
$DIMPOST
  1

  9
$DIMAPOST
  1

  9
$DIMALT
 70
     0
  9
$DIMALTD
 70
     4
  9
$DIMALTF
 40
25.4
  9
$DIMLFAC
 40
1.0
  9
$DIMTOFL
 70
     1
  9
$DIMTVP
 40
1.0
  9
$DIMTIX
 70
     0
  9
$DIMSOXD
 70
     0
  9
$DIMSAH
 70
     0
  9
$DIMBLK1
  1

  9
$DIMBLK2
  1

  9
$LUNITS
 70
     2
  9
$LUPREC
 70
     4
  9
$AXISMODE
 70
     0
  9
$AXISUNIT
 10
0.0
 20
0.0
  9
$SKETCHINC
 40
1.0
  9
$FILLETRAD
 40
0.0
  9
$AUNITS
 70
     0
  9
$AUPREC
 70
     0
  9
$MENU
  1
acad
  9
$ELEVATION
 40
0.0
  9
$THICKNESS
 40
0.0
  9
$LIMCHECK
 70
     0
  9
$BLIPMODE
 70
     1
  9
$CHAMFERA
 40
0.0
  9
$CHAMFERB
 40
0.0
  9
$SKPOLY
 70
     0
  9
$TDCREATE
 40
2454060.634143519
  9
$TDUPDATE
 40
2454060.634143519
  9
$TDINDWG
 40
0.0
  9
$TDUSRTIMER
 40
0.0
  9
$USRTIMER
 70
     1
  9
$ANGBASE
 50
0.0
  9
$ANGDIR
 70
     0
  9
$PDMODE
 70
     0
  9
$PDSIZE
 40
0.0
  9
$PLINEWID
 40
0.0
  9
$COORDS
 70
     0
  9
$SPLFRAME
 70
     0
  9
$SPLINETYPE
 70
     6
  9
$SPLINESEGS
 70
     8
  9
$ATTDIA
 70
     0
  9
$ATTREQ
 70
     1
  9
$HANDLING
 70
     0
  9
$HANDSEED
  5
0
  9
$SURFTAB1
 70
     6
  9
$SURFTAB2
 70
     6
  9
$SURFTYPE
 70
     6
  9
$SURFU
 70
     6
  9
$SURFV
 70
     6
  9
$FLATLAND
 70
     0
  9
$UCSNAME
  2

  9
$UCSORG
 10
0.0
 20
0.0
 30
0.0
  9
$UCSXDIR
 10
1.0
 20
0.0
 30
0.0
  9
$UCSYDIR
 10
0.0
 20
1.0
 30
0.0
  9
$USERI1
 70
     0
  9
$USERI2
 70
     0
  9
$USERI3
 70
     0
  9
$USERI4
 70
     0
  9
$USERI5
 70
     0
  9
$USERR1
 40
0.0
  9
$USERR2
 40
0.0
  9
$USERR3
 40
0.0
  9
$USERR4
 40
0.0
  9
$USERR5
 40
0.0
  9
$WORLDVIEW
 70
     1
  0
ENDSEC
  0
SECTION
  2
TABLES
  0
TABLE
  2
VPORT
 70
     1
  0
VPORT
  2
*ACTIVE
 70
     0
 10
0.0
 20
0.0
 11
1.0
 21
1.0
 12
72.62890943520669
 22
-224.5810656505695
 13
0.0
 23
0.0
 14
0.0
 24
0.0
 15
0.0
 25
0.0
 16
0.0
 26
0.0
 36
1.0
 17
0.0
 27
0.0
 37
0.0
 40
293.189869943532
 41
1.5
 42
50.0
 43
0.0
 44
0.0
 50
0.0
 51
0.0
 71
     0
 72
   100
 73
     1
 74
     1
 75
     0
 76
     0
 77
     0
 78
     0
  0
ENDTAB
  0
TABLE
  2
LTYPE
 70
    20
  0
LTYPE
  2
CONTINUOUS
 70
    64
  3
solid line
 72
    65
 73
     0
 40
0.0
  0
LTYPE
  2
CENTER
 70
    64
  3
--- - --- - --- - --- - --- - 
 72
    65
 73
     4
 40
6.0
 49
3.0
 49
-1.0
 49
1.0
 49
-1.0
  0
ENDTAB
  0
TABLE
  2
LAYER
 70
    20
  0
LAYER
  2
0
 70
    64
 62
     7
  6
CONTINUOUS
  0
LAYER
  2
1
 70
    64
 62
     7
  6
CONTINUOUS
  0
LAYER
  2
12
 70
    64
 62
     7
  6
CONTINUOUS
  0
LAYER
  2
13
 70
    64
 62
     7
  6
CONTINUOUS
  0
LAYER
  2
3
 70
    64
 62
     7
  6
CONTINUOUS
  0
LAYER
  2
14
 70
    64
 62
     7
  6
CONTINUOUS
  0
LAYER
  2
10
 70
    64
 62
     7
  6
CONTINUOUS
  0
LAYER
  2
5
 70
    64
 62
     7
  6
CONTINUOUS
  0
LAYER
  2
4
 70
    64
 62
     7
  6
CONTINUOUS
  0
ENDTAB
  0
TABLE
  2
STYLE
 70
     4
  0
ENDTAB
  0
TABLE
  2
VIEW
 70
     0
  0
ENDTAB
  0
TABLE
  2
UCS
 70
     0
  0
ENDTAB
  0
TABLE
  2
DWGMGR
 70
     0
  0
ENDTAB
  0
ENDSEC
  0
SECTION
  2
BLOCKS
  0
BLOCK
  8
4
  2
COMP1
 70
    64
 10
0.0
 20
0.0
  0
POLYLINE
  8
4
  6
CONTINUOUS
 66
     1
 70
     0
 40
0.0
 41
0.0
  0
VERTEX
  8
4
 10
103.7839736938477
 20
-149.7140045166016
  0
VERTEX
  8
4
 10
102.7839736938477
 20
-149.7140045166016
  0
VERTEX
  8
4
 10
102.7839736938477
 20
-151.7140045166016
  0
VERTEX
  8
4
 10
103.7839736938477
 20
-151.7140045166016
  0
SEQEND
  8
4
  0
POLYLINE
  8
4
  6
CONTINUOUS
 66
     1
 70
     0
 40
0.0
 41
0.0
  0
VERTEX
  8
4
 10
102.7839736938477
 20
-150.7140045166016
  0
VERTEX
  8
4
 10
103.7839736938477
 20
-150.7140045166016
  0
SEQEND
  8
4
  0
POLYLINE
  8
4
  6
CONTINUOUS
 66
     1
 70
     0
 40
0.0
 41
0.0
  0
VERTEX
  8
4
 10
104.1589736938477
 20
-151.7140045166016
  0
VERTEX
  8
4
 10
104.1589736938477
 20
-149.7140045166016
  0
VERTEX
  8
4
 10
105.1589736938477
 20
-151.7140045166016
  0
VERTEX
  8
4
 10
105.1589736938477
 20
-149.7140045166016
  0
SEQEND
  8
4
  0
POLYLINE
  8
4
  6
CONTINUOUS
 66
     1
 70
     0
 40
0.0
 41
0.0
  0
VERTEX
  8
4
 10
105.5339736938477
 20
-149.7140045166016
  0
VERTEX
  8
4
 10
106.5339736938477
 20
-149.7140045166016
  0
SEQEND
  8
4
  0
POLYLINE
  8
4
  6
CONTINUOUS
 66
     1
 70
     0
 40
0.0
 41
0.0
  0
VERTEX
  8
4
 10
106.0339736938477
 20
-149.7140045166016
  0
VERTEX
  8
4
 10
106.0339736938477
 20
-151.7140045166016
  0
SEQEND
  8
4
  0
POLYLINE
  8
4
  6
CONTINUOUS
 66
     1
 70
     0
 40
0.0
 41
0.0
  0
VERTEX
  8
4
 10
107.9089736938477
 20
-149.7140045166016
  0
VERTEX
  8
4
 10
106.9089736938477
 20
-149.7140045166016
  0
VERTEX
  8
4
 10
106.9089736938477
 20
-151.7140045166016
  0
VERTEX
  8
4
 10
107.9089736938477
 20
-151.7140045166016
  0
SEQEND
  8
4
  0
POLYLINE
  8
4
  6
CONTINUOUS
 66
     1
 70
     0
 40
0.0
 41
0.0
  0
VERTEX
  8
4
 10
106.9089736938477
 20
-150.7140045166016
  0
VERTEX
  8
4
 10
107.9089736938477
 20
-150.7140045166016
  0
SEQEND
  8
4
  0
POLYLINE
  8
4
  6
CONTINUOUS
 66
     1
 70
     0
 40
0.0
 41
0.0
  0
VERTEX
  8
4
 10
108.2839736938477
 20
-150.7140045166016
  0
VERTEX
  8
4
 10
108.7839736938477
 20
-150.7140045166016
  0
VERTEX
  8
4
 10
108.9751744478928
 20
-150.6761383197021
  0
VERTEX
  8
4
 10
109.1375198364258
 20
-150.5675506591797
  0
VERTEX
  8
4
 10
109.2461074969481
 20
-150.4052052706467
  0
VERTEX
  8
4
 10
109.2839736938477
 20
-150.2140045166016
  0
VERTEX
  8
4
 10
109.2461074969481
 20
-150.0228037625564
  0
VERTEX
  8
4
 10
109.1375198364258
 20
-149.8604583740234
  0
VERTEX
  8
4
 10
108.9751744478928
 20
-149.7518707135011
  0
VERTEX
  8
4
 10
108.7839736938477
 20
-149.7140045166016
  0
VERTEX
  8
4
 10
108.2839736938477
 20
-149.7140045166016
  0
VERTEX
  8
4
 10
108.2839736938477
 20
-151.7140045166016
  0
SEQEND
  8
4
  0
POLYLINE
  8
4
  6
CONTINUOUS
 66
     1
 70
     0
 40
0.0
 41
0.0
  0
VERTEX
  8
4
 10
109.2839736938477
 20
-151.7140045166016
  0
VERTEX
  8
4
 10
108.7839736938477
 20
-150.7140045166016
  0
SEQEND
  8
4
  0
ENDBLK
  8
4
  0
BLOCK
  8
4
  2
COMP2
 70
    64
 10
0.0
 20
0.0
  0
POLYLINE
  8
4
  6
CONTINUOUS
 66
     1
 70
     0
 40
0.0
 41
0.0
  0
VERTEX
  8
4
 10
93.78397369384766
 20
-150.1515045166016
  0
VERTEX
  8
4
 10
93.7286565427497
 20
-149.9800329745872
  0
VERTEX
  8
4
 10
93.61622498719899
 20
-149.8388537286218
  0
VERTEX
  8
4
 10
93.46133763264672
 20
-149.7461311174582
  0
VERTEX
  8
4
 10
93.28397369384766
 20
-149.7140045166016
  0
VERTEX
  8
4
 10
93.1066097550486
 20
-149.7461311174582
  0
VERTEX
  8
4
 10
92.95172240049632
 20
-149.8388537286218
  0
VERTEX
  8
4
 10
92.83929084494561
 20
-149.9800329745872
  0
VERTEX
  8
4
 10
92.78397369384766
 20
-150.1515045166016
  0
VERTEX
  8
4
 10
92.78397369384766
 20
-151.3390045166016
  0
VERTEX
  8
4
 10
92.85561027102386
 20
-151.4895483126515
  0
VERTEX
  8
4
 10
92.9714199787804
 20
-151.6098001077718
  0
VERTEX
  8
4
 10
93.11931886338385
 20
-151.6873288753437
  0
VERTEX
  8
4
 10
93.28397369384766
 20
-151.7140045166016
  0
VERTEX
  8
4
 10
93.44862852431146
 20
-151.6873288753437
  0
VERTEX
  8
4
 10
93.59652740891491
 20
-151.6098001077718
  0
VERTEX
  8
4
 10
93.71233711667145
 20
-151.4895483126515
  0
VERTEX
  8
4
 10
93.78397369384766
 20
-151.3390045166016
  0
SEQEND
  8
4
  0
POLYLINE
  8
4
  6
CONTINUOUS
 66
     1
 70
     0
 40
0.0
 41
0.0
  0
VERTEX
  8
4
 10
94.15897369384766
 20
-149.7140045166016
  0
VERTEX
  8
4
 10
94.15897369384766
 20
-151.7140045166016
  0
SEQEND
  8
4
  0
POLYLINE
  8
4
  6
CONTINUOUS
 66
     1
 70
     0
 40
0.0
 41
0.0
  0
VERTEX
  8
4
 10
95.15897369384766
 20
-149.7140045166016
  0
VERTEX
  8
4
 10
95.15897369384766
 20
-151.7140045166016
  0
SEQEND
  8
4
  0
POLYLINE
  8
4
  6
CONTINUOUS
 66
     1
 70
     0
 40
0.0
 41
0.0
  0
VERTEX
  8
4
 10
94.15897369384766
 20
-150.7140045166016
  0
VERTEX
  8
4
 10
95.15897369384766
 20
-150.7140045166016
  0
SEQEND
  8
4
  0
POLYLINE
  8
4
  6
CONTINUOUS
 66
     1
 70
     0
 40
0.0
 41
0.0
  0
VERTEX
  8
4
 10
96.53397369384766
 20
-149.7140045166016
  0
VERTEX
  8
4
 10
95.53397369384766
 20
-149.7140045166016
  0
VERTEX
  8
4
 10
95.53397369384766
 20
-151.7140045166016
  0
VERTEX
  8
4
 10
96.53397369384766
 20
-151.7140045166016
  0
SEQEND
  8
4
  0
POLYLINE
  8
4
  6
CONTINUOUS
 66
     1
 70
     0
 40
0.0
 41
0.0
  0
VERTEX
  8
4
 10
95.53397369384766
 20
-150.7140045166016
  0
VERTEX
  8
4
 10
96.53397369384766
 20
-150.7140045166016
  0
SEQEND
  8
4
  0
POLYLINE
  8
4
  6
CONTINUOUS
 66
     1
 70
     0
 40
0.0
 41
0.0
  0
VERTEX
  8
4
 10
97.90897369384766
 20
-150.1515045166016
  0
VERTEX
  8
4
 10
97.8536565427497
 20
-149.9800329745872
  0
VERTEX
  8
4
 10
97.74122498719899
 20
-149.8388537286218
  0
VERTEX
  8
4
 10
97.58633763264672
 20
-149.7461311174582
  0
VERTEX
  8
4
 10
97.40897369384766
 20
-149.7140045166016
  0
VERTEX
  8
4
 10
97.2316097550486
 20
-149.7461311174582
  0
VERTEX
  8
4
 10
97.07672240049632
 20
-149.8388537286218
  0
VERTEX
  8
4
 10
96.96429084494561
 20
-149.9800329745872
  0
VERTEX
  8
4
 10
96.90897369384766
 20
-150.1515045166016
  0
VERTEX
  8
4
 10
96.90897369384766
 20
-151.3390045166016
  0
VERTEX
  8
4
 10
96.98061027102386
 20
-151.4895483126515
  0
VERTEX
  8
4
 10
97.0964199787804
 20
-151.6098001077718
  0
VERTEX
  8
4
 10
97.24431886338385
 20
-151.6873288753437
  0
VERTEX
  8
4
 10
97.40897369384766
 20
-151.7140045166016
  0
VERTEX
  8
4
 10
97.57362852431146
 20
-151.6873288753437
  0
VERTEX
  8
4
 10
97.72152740891491
 20
-151.6098001077718
  0
VERTEX
  8
4
 10
97.83733711667145
 20
-151.4895483126515
  0
VERTEX
  8
4
 10
97.90897369384766
 20
-151.3390045166016
  0
SEQEND
  8
4
  0
POLYLINE
  8
4
  6
CONTINUOUS
 66
     1
 70
     0
 40
0.0
 41
0.0
  0
VERTEX
  8
4
 10
98.28397369384766
 20
-149.7140045166016
  0
VERTEX
  8
4
 10
98.28397369384766
 20
-151.7140045166016
  0
SEQEND
  8
4
  0
POLYLINE
  8
4
  6
CONTINUOUS
 66
     1
 70
     0
 40
0.0
 41
0.0
  0
VERTEX
  8
4
 10
98.28397369384766
 20
-150.9640045166016
  0
VERTEX
  8
4
 10
99.28397369384766
 20
-149.7140045166016
  0
SEQEND
  8
4
  0
POLYLINE
  8
4
  6
CONTINUOUS
 66
     1
 70
     0
 40
0.0
 41
0.0
  0
VERTEX
  8
4
 10
98.59647369384766
 20
-150.5890045166016
  0
VERTEX
  8
4
 10
99.28397369384766
 20
-151.7140045166016
  0
SEQEND
  8
4
  0
ENDBLK
  8
4
  0
BLOCK
  8
4
  2
COMP3
 70
    64
 10
0.0
 20
0.0
  0
POLYLINE
  8
4
  6
CONTINUOUS
 66
     1
 70
     0
 40
0.0
 41
0.0
  0
VERTEX
  8
4
 10
83.78397369384766
 20
-149.7140045166016
  0
VERTEX
  8
4
 10
82.78397369384766
 20
-149.7140045166016
  0
VERTEX
  8
4
 10
82.78397369384766
 20
-151.7140045166016
  0
SEQEND
  8
4
  0
POLYLINE
  8
4
  6
CONTINUOUS
 66
     1
 70
     0
 40
0.0
 41
0.0
  0
VERTEX
  8
4
 10
82.78397369384766
 20
-150.7140045166016
  0
VERTEX
  8
4
 10
83.65897369384766
 20
-150.7140045166016
  0
SEQEND
  8
4
  0
POLYLINE
  8
4
  6
CONTINUOUS
 66
     1
 70
     0
 40
0.0
 41
0.0
  0
VERTEX
  8
4
 10
84.15897369384766
 20
-149.7140045166016
  0
VERTEX
  8
4
 10
84.15897369384766
 20
-151.3390045166016
  0
VERTEX
  8
4
 10
84.23061027102386
 20
-151.4895483126515
  0
VERTEX
  8
4
 10
84.3464199787804
 20
-151.6098001077718
  0
VERTEX
  8
4
 10
84.49431886338385
 20
-151.6873288753437
  0
VERTEX
  8
4
 10
84.65897369384766
 20
-151.7140045166016
  0
VERTEX
  8
4
 10
84.82362852431146
 20
-151.6873288753437
  0
VERTEX
  8
4
 10
84.97152740891491
 20
-151.6098001077718
  0
VERTEX
  8
4
 10
85.08733711667145
 20
-151.4895483126515
  0
VERTEX
  8
4
 10
85.15897369384766
 20
-151.3390045166016
  0
VERTEX
  8
4
 10
85.15897369384766
 20
-149.7140045166016
  0
SEQEND
  8
4
  0
POLYLINE
  8
4
  6
CONTINUOUS
 66
     1
 70
     0
 40
0.0
 41
0.0
  0
VERTEX
  8
4
 10
85.53397369384766
 20
-151.7140045166016
  0
VERTEX
  8
4
 10
85.53397369384766
 20
-149.7140045166016
  0
VERTEX
  8
4
 10
86.53397369384766
 20
-151.7140045166016
  0
VERTEX
  8
4
 10
86.53397369384766
 20
-149.7140045166016
  0
SEQEND
  8
4
  0
POLYLINE
  8
4
  6
CONTINUOUS
 66
     1
 70
     0
 40
0.0
 41
0.0
  0
VERTEX
  8
4
 10
87.90897369384766
 20
-150.1515045166016
  0
VERTEX
  8
4
 10
87.8536565427497
 20
-149.9800329745872
  0
VERTEX
  8
4
 10
87.74122498719899
 20
-149.8388537286218
  0
VERTEX
  8
4
 10
87.58633763264672
 20
-149.7461311174582
  0
VERTEX
  8
4
 10
87.40897369384766
 20
-149.7140045166016
  0
VERTEX
  8
4
 10
87.2316097550486
 20
-149.7461311174582
  0
VERTEX
  8
4
 10
87.07672240049632
 20
-149.8388537286218
  0
VERTEX
  8
4
 10
86.96429084494561
 20
-149.9800329745872
  0
VERTEX
  8
4
 10
86.90897369384766
 20
-150.1515045166016
  0
VERTEX
  8
4
 10
86.90897369384766
 20
-151.3390045166016
  0
VERTEX
  8
4
 10
86.98061027102386
 20
-151.4895483126515
  0
VERTEX
  8
4
 10
87.0964199787804
 20
-151.6098001077718
  0
VERTEX
  8
4
 10
87.24431886338385
 20
-151.6873288753437
  0
VERTEX
  8
4
 10
87.40897369384766
 20
-151.7140045166016
  0
VERTEX
  8
4
 10
87.57362852431146
 20
-151.6873288753437
  0
VERTEX
  8
4
 10
87.72152740891491
 20
-151.6098001077718
  0
VERTEX
  8
4
 10
87.83733711667145
 20
-151.4895483126515
  0
VERTEX
  8
4
 10
87.90897369384766
 20
-151.3390045166016
  0
SEQEND
  8
4
  0
POLYLINE
  8
4
  6
CONTINUOUS
 66
     1
 70
     0
 40
0.0
 41
0.0
  0
VERTEX
  8
4
 10
88.65897369384766
 20
-151.6515045166016
  0
VERTEX
  8
4
 10
88.65897369384766
 20
-151.4640045166016
  0
VERTEX
  8
4
 10
88.87772369384766
 20
-151.4640045166016
  0
VERTEX
  8
4
 10
88.87772369384766
 20
-151.6515045166016
  0
VERTEX
  8
4
 10
88.65897369384766
 20
-151.6515045166016
  0
SEQEND
  8
4
  0
ENDBLK
  8
4
  0
BLOCK
  8
4
  2
COMP4
 70
    64
 10
0.0
 20
0.0
  0
POLYLINE
  8
4
  6
CONTINUOUS
 66
     1
 70
     0
 40
0.0
 41
0.0
  0
VERTEX
  8
4
 10
73.47147369384766
 20
-149.7140045166016
  0
VERTEX
  8
4
 10
74.47147369384766
 20
-149.7140045166016
  0
VERTEX
  8
4
 10
73.47147369384766
 20
-151.7140045166016
  0
VERTEX
  8
4
 10
74.47147369384766
 20
-151.7140045166016
  0
SEQEND
  8
4
  0
POLYLINE
  8
4
  6
CONTINUOUS
 66
     1
 70
     0
 40
0.0
 41
0.0
  0
VERTEX
  8
4
 10
75.84647369384766
 20
-149.7140045166016
  0
VERTEX
  8
4
 10
74.84647369384766
 20
-149.7140045166016
  0
VERTEX
  8
4
 10
74.84647369384766
 20
-151.7140045166016
  0
VERTEX
  8
4
 10
75.84647369384766
 20
-151.7140045166016
  0
SEQEND
  8
4
  0
POLYLINE
  8
4
  6
CONTINUOUS
 66
     1
 70
     0
 40
0.0
 41
0.0
  0
VERTEX
  8
4
 10
74.84647369384766
 20
-150.7140045166016
  0
VERTEX
  8
4
 10
75.84647369384766
 20
-150.7140045166016
  0
SEQEND
  8
4
  0
POLYLINE
  8
4
  6
CONTINUOUS
 66
     1
 70
     0
 40
0.0
 41
0.0
  0
VERTEX
  8
4
 10
76.22147369384766
 20
-150.7140045166016
  0
VERTEX
  8
4
 10
76.72147369384766
 20
-150.7140045166016
  0
VERTEX
  8
4
 10
76.91267444789281
 20
-150.6761383197021
  0
VERTEX
  8
4
 10
77.07501983642578
 20
-150.5675506591797
  0
VERTEX
  8
4
 10
77.18360749694814
 20
-150.4052052706467
  0
VERTEX
  8
4
 10
77.22147369384766
 20
-150.2140045166016
  0
VERTEX
  8
4
 10
77.18360749694814
 20
-150.0228037625564
  0
VERTEX
  8
4
 10
77.07501983642578
 20
-149.8604583740234
  0
VERTEX
  8
4
 10
76.91267444789281
 20
-149.7518707135011
  0
VERTEX
  8
4
 10
76.72147369384766
 20
-149.7140045166016
  0
VERTEX
  8
4
 10
76.22147369384766
 20
-149.7140045166016
  0
VERTEX
  8
4
 10
76.22147369384766
 20
-151.7140045166016
  0
SEQEND
  8
4
  0
POLYLINE
  8
4
  6
CONTINUOUS
 66
     1
 70
     0
 40
0.0
 41
0.0
  0
VERTEX
  8
4
 10
77.22147369384766
 20
-151.7140045166016
  0
VERTEX
  8
4
 10
76.72147369384766
 20
-150.7140045166016
  0
SEQEND
  8
4
  0
POLYLINE
  8
4
  6
CONTINUOUS
 66
     1
 70
     0
 40
0.0
 41
0.0
  0
VERTEX
  8
4
 10
77.59647369384766
 20
-150.1515045166016
  0
VERTEX
  8
4
 10
77.59647369384766
 20
-151.3390045166016
  0
VERTEX
  8
4
 10
77.66811027102386
 20
-151.4895483126515
  0
VERTEX
  8
4
 10
77.7839199787804
 20
-151.6098001077718
  0
VERTEX
  8
4
 10
77.93181886338385
 20
-151.6873288753437
  0
VERTEX
  8
4
 10
78.09647369384766
 20
-151.7140045166016
  0
VERTEX
  8
4
 10
78.26112852431146
 20
-151.6873288753437
  0
VERTEX
  8
4
 10
78.40902740891491
 20
-151.6098001077718
  0
VERTEX
  8
4
 10
78.52483711667145
 20
-151.4895483126515
  0
VERTEX
  8
4
 10
78.59647369384766
 20
-151.3390045166016
  0
VERTEX
  8
4
 10
78.59647369384766
 20
-150.1515045166016
  0
VERTEX
  8
4
 10
78.5411565427497
 20
-149.9800329745872
  0
VERTEX
  8
4
 10
78.42872498719899
 20
-149.8388537286218
  0
VERTEX
  8
4
 10
78.27383763264672
 20
-149.7461311174582
  0
VERTEX
  8
4
 10
78.09647369384766
 20
-149.7140045166016
  0
VERTEX
  8
4
 10
77.9191097550486
 20
-149.7461311174582
  0
VERTEX
  8
4
 10
77.76422240049632
 20
-149.8388537286218
  0
VERTEX
  8
4
 10
77.65179084494561
 20
-149.9800329745872
  0
VERTEX
  8
4
 10
77.59647369384766
 20
-150.1515045166016
  0
SEQEND
  8
4
  0
ENDBLK
  8
4
  0
BLOCK
  8
4
  2
COMP5
 70
    64
 10
0.0
 20
0.0
  0
POLYLINE
  8
4
  6
CONTINUOUS
 66
     1
 70
     0
 40
0.0
 41
0.0
  0
VERTEX
  8
4
 10
63.02459716796875
 20
-151.1515045166016
  0
VERTEX
  8
4
 10
63.02459716796875
 20
-152.3390045166016
  0
VERTEX
  8
4
 10
63.09623374514496
 20
-152.4895483126515
  0
VERTEX
  8
4
 10
63.2120434529015
 20
-152.6098001077718
  0
VERTEX
  8
4
 10
63.35994233750494
 20
-152.6873288753437
  0
VERTEX
  8
4
 10
63.52459716796875
 20
-152.7140045166016
  0
VERTEX
  8
4
 10
63.68925199843256
 20
-152.6873288753437
  0
VERTEX
  8
4
 10
63.837150883036
 20
-152.6098001077718
  0
VERTEX
  8
4
 10
63.95296059079254
 20
-152.4895483126515
  0
VERTEX
  8
4
 10
64.02459716796875
 20
-152.3390045166016
  0
VERTEX
  8
4
 10
64.02459716796875
 20
-151.1515045166016
  0
VERTEX
  8
4
 10
63.96928001687079
 20
-150.9800329745872
  0
VERTEX
  8
4
 10
63.85684846132008
 20
-150.8388537286218
  0
VERTEX
  8
4
 10
63.70196110676782
 20
-150.7461311174582
  0
VERTEX
  8
4
 10
63.52459716796875
 20
-150.7140045166016
  0
VERTEX
  8
4
 10
63.34723322916968
 20
-150.7461311174582
  0
VERTEX
  8
4
 10
63.19234587461742
 20
-150.8388537286218
  0
VERTEX
  8
4
 10
63.07991431906671
 20
-150.9800329745872
  0
VERTEX
  8
4
 10
63.02459716796875
 20
-151.1515045166016
  0
SEQEND
  8
4
  0
POLYLINE
  8
4
  6
CONTINUOUS
 66
     1
 70
     0
 40
0.0
 41
0.0
  0
VERTEX
  8
4
 10
65.39959716796875
 20
-150.7140045166016
  0
VERTEX
  8
4
 10
64.39959716796875
 20
-150.7140045166016
  0
VERTEX
  8
4
 10
64.39959716796875
 20
-152.7140045166016
  0
SEQEND
  8
4
  0
POLYLINE
  8
4
  6
CONTINUOUS
 66
     1
 70
     0
 40
0.0
 41
0.0
  0
VERTEX
  8
4
 10
64.39959716796875
 20
-151.7140045166016
  0
VERTEX
  8
4
 10
65.27459716796875
 20
-151.7140045166016
  0
SEQEND
  8
4
  0
POLYLINE
  8
4
  6
CONTINUOUS
 66
     1
 70
     0
 40
0.0
 41
0.0
  0
VERTEX
  8
4
 10
66.77459716796875
 20
-150.7140045166016
  0
VERTEX
  8
4
 10
65.77459716796875
 20
-150.7140045166016
  0
VERTEX
  8
4
 10
65.77459716796875
 20
-152.7140045166016
  0
SEQEND
  8
4
  0
POLYLINE
  8
4
  6
CONTINUOUS
 66
     1
 70
     0
 40
0.0
 41
0.0
  0
VERTEX
  8
4
 10
65.77459716796875
 20
-151.7140045166016
  0
VERTEX
  8
4
 10
66.64959716796875
 20
-151.7140045166016
  0
SEQEND
  8
4
  0
POLYLINE
  8
4
  6
CONTINUOUS
 66
     1
 70
     0
 40
0.0
 41
0.0
  0
VERTEX
  8
4
 10
67.39959716796875
 20
-152.3077545166016
  0
VERTEX
  8
4
 10
68.89959716796875
 20
-152.3077545166016
  0
VERTEX
  8
4
 10
68.14959716796875
 20
-150.9952545166016
  0
VERTEX
  8
4
 10
67.39959716796875
 20
-152.3077545166016
  0
SEQEND
  8
4
  0
POLYLINE
  8
4
  6
CONTINUOUS
 66
     1
 70
     0
 40
0.0
 41
0.0
  0
VERTEX
  8
4
 10
67.43084716796875
 20
-152.2452545166016
  0
VERTEX
  8
4
 10
68.86834716796875
 20
-152.2452545166016
  0
SEQEND
  8
4
  0
POLYLINE
  8
4
  6
CONTINUOUS
 66
     1
 70
     0
 40
0.0
 41
0.0
  0
VERTEX
  8
4
 10
67.46209716796875
 20
-152.1827545166016
  0
VERTEX
  8
4
 10
68.83709716796875
 20
-152.1827545166016
  0
SEQEND
  8
4
  0
POLYLINE
  8
4
  6
CONTINUOUS
 66
     1
 70
     0
 40
0.0
 41
0.0
  0
VERTEX
  8
4
 10
67.49334716796875
 20
-152.1202545166016
  0
VERTEX
  8
4
 10
68.80584716796875
 20
-152.1202545166016
  0
SEQEND
  8
4
  0
POLYLINE
  8
4
  6
CONTINUOUS
 66
     1
 70
     0
 40
0.0
 41
0.0
  0
VERTEX
  8
4
 10
67.55584716796875
 20
-152.0577545166016
  0
VERTEX
  8
4
 10
68.74334716796875
 20
-152.0577545166016
  0
SEQEND
  8
4
  0
POLYLINE
  8
4
  6
CONTINUOUS
 66
     1
 70
     0
 40
0.0
 41
0.0
  0
VERTEX
  8
4
 10
67.58709716796875
 20
-151.9952545166016
  0
VERTEX
  8
4
 10
68.71209716796875
 20
-151.9952545166016
  0
SEQEND
  8
4
  0
POLYLINE
  8
4
  6
CONTINUOUS
 66
     1
 70
     0
 40
0.0
 41
0.0
  0
VERTEX
  8
4
 10
67.61834716796875
 20
-151.9327545166016
  0
VERTEX
  8
4
 10
68.68084716796875
 20
-151.9327545166016
  0
SEQEND
  8
4
  0
POLYLINE
  8
4
  6
CONTINUOUS
 66
     1
 70
     0
 40
0.0
 41
0.0
  0
VERTEX
  8
4
 10
67.64959716796875
 20
-151.8702545166016
  0
VERTEX
  8
4
 10
68.64959716796875
 20
-151.8702545166016
  0
SEQEND
  8
4
  0
POLYLINE
  8
4
  6
CONTINUOUS
 66
     1
 70
     0
 40
0.0
 41
0.0
  0
VERTEX
  8
4
 10
67.68084716796875
 20
-151.8077545166016
  0
VERTEX
  8
4
 10
68.61834716796875
 20
-151.8077545166016
  0
SEQEND
  8
4
  0
POLYLINE
  8
4
  6
CONTINUOUS
 66
     1
 70
     0
 40
0.0
 41
0.0
  0
VERTEX
  8
4
 10
67.71209716796875
 20
-151.7452545166016
  0
VERTEX
  8
4
 10
68.58709716796875
 20
-151.7452545166016
  0
SEQEND
  8
4
  0
POLYLINE
  8
4
  6
CONTINUOUS
 66
     1
 70
     0
 40
0.0
 41
0.0
  0
VERTEX
  8
4
 10
67.74334716796875
 20
-151.6827545166016
  0
VERTEX
  8
4
 10
68.55584716796875
 20
-151.6827545166016
  0
SEQEND
  8
4
  0
POLYLINE
  8
4
  6
CONTINUOUS
 66
     1
 70
     0
 40
0.0
 41
0.0
  0
VERTEX
  8
4
 10
67.80584716796875
 20
-151.6202545166016
  0
VERTEX
  8
4
 10
68.49334716796875
 20
-151.6202545166016
  0
SEQEND
  8
4
  0
POLYLINE
  8
4
  6
CONTINUOUS
 66
     1
 70
     0
 40
0.0
 41
0.0
  0
VERTEX
  8
4
 10
67.83709716796875
 20
-151.5577545166016
  0
VERTEX
  8
4
 10
68.46209716796875
 20
-151.5577545166016
  0
SEQEND
  8
4
  0
POLYLINE
  8
4
  6
CONTINUOUS
 66
     1
 70
     0
 40
0.0
 41
0.0
  0
VERTEX
  8
4
 10
67.86834716796875
 20
-151.4952545166016
  0
VERTEX
  8
4
 10
68.43084716796875
 20
-151.4952545166016
  0
SEQEND
  8
4
  0
POLYLINE
  8
4
  6
CONTINUOUS
 66
     1
 70
     0
 40
0.0
 41
0.0
  0
VERTEX
  8
4
 10
67.89959716796875
 20
-151.4327545166016
  0
VERTEX
  8
4
 10
68.39959716796875
 20
-151.4327545166016
  0
SEQEND
  8
4
  0
POLYLINE
  8
4
  6
CONTINUOUS
 66
     1
 70
     0
 40
0.0
 41
0.0
  0
VERTEX
  8
4
 10
67.93084716796875
 20
-151.3702545166016
  0
VERTEX
  8
4
 10
68.36834716796875
 20
-151.3702545166016
  0
SEQEND
  8
4
  0
POLYLINE
  8
4
  6
CONTINUOUS
 66
     1
 70
     0
 40
0.0
 41
0.0
  0
VERTEX
  8
4
 10
67.96209716796875
 20
-151.3077545166016
  0
VERTEX
  8
4
 10
68.33709716796875
 20
-151.3077545166016
  0
SEQEND
  8
4
  0
POLYLINE
  8
4
  6
CONTINUOUS
 66
     1
 70
     0
 40
0.0
 41
0.0
  0
VERTEX
  8
4
 10
67.99334716796875
 20
-151.2452545166016
  0
VERTEX
  8
4
 10
68.30584716796875
 20
-151.2452545166016
  0
SEQEND
  8
4
  0
POLYLINE
  8
4
  6
CONTINUOUS
 66
     1
 70
     0
 40
0.0
 41
0.0
  0
VERTEX
  8
4
 10
68.05584716796875
 20
-151.1827545166016
  0
VERTEX
  8
4
 10
68.24334716796875
 20
-151.1827545166016
  0
SEQEND
  8
4
  0
POLYLINE
  8
4
  6
CONTINUOUS
 66
     1
 70
     0
 40
0.0
 41
0.0
  0
VERTEX
  8
4
 10
68.08709716796875
 20
-151.1202545166016
  0
VERTEX
  8
4
 10
68.21209716796875
 20
-151.1202545166016
  0
SEQEND
  8
4
  0
POLYLINE
  8
4
  6
CONTINUOUS
 66
     1
 70
     0
 40
0.0
 41
0.0
  0
VERTEX
  8
4
 10
68.11834716796875
 20
-151.0577545166016
  0
VERTEX
  8
4
 10
68.18084716796875
 20
-151.0577545166016
  0
SEQEND
  8
4
  0
ENDBLK
  8
4
  0
BLOCK
  8
4
  2
COMP6
 70
    64
 10
0.0
 20
0.0
  0
POLYLINE
  8
4
  6
CONTINUOUS
 66
     1
 70
     0
 40
0.0
 41
0.0
  0
VERTEX
  8
4
 10
62.75376129150391
 20
-150.3239440917969
  0
VERTEX
  8
4
 10
63.25376129150391
 20
-148.3239440917969
  0
VERTEX
  8
4
 10
63.75376129150391
 20
-150.3239440917969
  0
SEQEND
  8
4
  0
POLYLINE
  8
4
  6
CONTINUOUS
 66
     1
 70
     0
 40
0.0
 41
0.0
  0
VERTEX
  8
4
 10
63.59751129150391
 20
-149.6989440917969
  0
VERTEX
  8
4
 10
62.91001129150391
 20
-149.6989440917969
  0
SEQEND
  8
4
  0
POLYLINE
  8
4
  6
CONTINUOUS
 66
     1
 70
     0
 40
0.0
 41
0.0
  0
VERTEX
  8
4
 10
64.12876129150391
 20
-150.3239440917969
  0
VERTEX
  8
4
 10
65.12876129150391
 20
-148.3239440917969
  0
SEQEND
  8
4
  0
POLYLINE
  8
4
  6
CONTINUOUS
 66
     1
 70
     0
 40
0.0
 41
0.0
  0
VERTEX
  8
4
 10
65.50376129150391
 20
-148.3239440917969
  0
VERTEX
  8
4
 10
66.50376129150391
 20
-148.3239440917969
  0
VERTEX
  8
4
 10
65.50376129150391
 20
-150.3239440917969
  0
VERTEX
  8
4
 10
66.50376129150391
 20
-150.3239440917969
  0
SEQEND
  8
4
  0
ENDBLK
  8
4
  0
BLOCK
  8
4
  2
COMP7
 70
    64
 10
0.0
 20
0.0
  0
POLYLINE
  8
4
  6
CONTINUOUS
 66
     1
 70
     0
 40
0.0
 41
0.0
  0
VERTEX
  8
4
 10
54.15897369384766
 20
-150.2140045166016
  0
VERTEX
  8
4
 10
54.65897369384766
 20
-148.2140045166016
  0
VERTEX
  8
4
 10
55.15897369384766
 20
-150.2140045166016
  0
SEQEND
  8
4
  0
POLYLINE
  8
4
  6
CONTINUOUS
 66
     1
 70
     0
 40
0.0
 41
0.0
  0
VERTEX
  8
4
 10
55.00272369384766
 20
-149.5890045166016
  0
VERTEX
  8
4
 10
54.31522369384766
 20
-149.5890045166016
  0
SEQEND
  8
4
  0
POLYLINE
  8
4
  6
CONTINUOUS
 66
     1
 70
     0
 40
0.0
 41
0.0
  0
VERTEX
  8
4
 10
55.53397369384766
 20
-150.2140045166016
  0
VERTEX
  8
4
 10
56.53397369384766
 20
-148.2140045166016
  0
SEQEND
  8
4
  0
POLYLINE
  8
4
  6
CONTINUOUS
 66
     1
 70
     0
 40
0.0
 41
0.0
  0
VERTEX
  8
4
 10
56.90897369384766
 20
-148.2140045166016
  0
VERTEX
  8
4
 10
57.90897369384766
 20
-148.2140045166016
  0
VERTEX
  8
4
 10
56.90897369384766
 20
-150.2140045166016
  0
VERTEX
  8
4
 10
57.90897369384766
 20
-150.2140045166016
  0
SEQEND
  8
4
  0
ENDBLK
  8
4
  0
BLOCK
  8
4
  2
COMP8
 70
    64
 10
0.0
 20
0.0
  0
POLYLINE
  8
4
  6
CONTINUOUS
 66
     1
 70
     0
 40
0.0
 41
0.0
  0
VERTEX
  8
4
 10
56.62772369384766
 20
-152.4640045166016
  0
VERTEX
  8
4
 10
56.62772369384766
 20
-150.9640045166016
  0
VERTEX
  8
4
 10
55.31522369384766
 20
-151.7140045166016
  0
VERTEX
  8
4
 10
56.62772369384766
 20
-152.4640045166016
  0
SEQEND
  8
4
  0
POLYLINE
  8
4
  6
CONTINUOUS
 66
     1
 70
     0
 40
0.0
 41
0.0
  0
VERTEX
  8
4
 10
56.56522369384766
 20
-152.4327545166016
  0
VERTEX
  8
4
 10
56.56522369384766
 20
-150.9952545166016
  0
SEQEND
  8
4
  0
POLYLINE
  8
4
  6
CONTINUOUS
 66
     1
 70
     0
 40
0.0
 41
0.0
  0
VERTEX
  8
4
 10
56.50272369384766
 20
-152.4015045166016
  0
VERTEX
  8
4
 10
56.50272369384766
 20
-151.0265045166016
  0
SEQEND
  8
4
  0
POLYLINE
  8
4
  6
CONTINUOUS
 66
     1
 70
     0
 40
0.0
 41
0.0
  0
VERTEX
  8
4
 10
56.44022369384766
 20
-152.3702545166016
  0
VERTEX
  8
4
 10
56.44022369384766
 20
-151.0577545166016
  0
SEQEND
  8
4
  0
POLYLINE
  8
4
  6
CONTINUOUS
 66
     1
 70
     0
 40
0.0
 41
0.0
  0
VERTEX
  8
4
 10
56.37772369384766
 20
-152.3077545166016
  0
VERTEX
  8
4
 10
56.37772369384766
 20
-151.1202545166016
  0
SEQEND
  8
4
  0
POLYLINE
  8
4
  6
CONTINUOUS
 66
     1
 70
     0
 40
0.0
 41
0.0
  0
VERTEX
  8
4
 10
56.31522369384766
 20
-152.2765045166016
  0
VERTEX
  8
4
 10
56.31522369384766
 20
-151.1515045166016
  0
SEQEND
  8
4
  0
POLYLINE
  8
4
  6
CONTINUOUS
 66
     1
 70
     0
 40
0.0
 41
0.0
  0
VERTEX
  8
4
 10
56.25272369384766
 20
-152.2452545166016
  0
VERTEX
  8
4
 10
56.25272369384766
 20
-151.1827545166016
  0
SEQEND
  8
4
  0
POLYLINE
  8
4
  6
CONTINUOUS
 66
     1
 70
     0
 40
0.0
 41
0.0
  0
VERTEX
  8
4
 10
56.19022369384766
 20
-152.2140045166016
  0
VERTEX
  8
4
 10
56.19022369384766
 20
-151.2140045166016
  0
SEQEND
  8
4
  0
POLYLINE
  8
4
  6
CONTINUOUS
 66
     1
 70
     0
 40
0.0
 41
0.0
  0
VERTEX
  8
4
 10
56.12772369384766
 20
-152.1827545166016
  0
VERTEX
  8
4
 10
56.12772369384766
 20
-151.2452545166016
  0
SEQEND
  8
4
  0
POLYLINE
  8
4
  6
CONTINUOUS
 66
     1
 70
     0
 40
0.0
 41
0.0
  0
VERTEX
  8
4
 10
56.06522369384766
 20
-152.1515045166016
  0
VERTEX
  8
4
 10
56.06522369384766
 20
-151.2765045166016
  0
SEQEND
  8
4
  0
POLYLINE
  8
4
  6
CONTINUOUS
 66
     1
 70
     0
 40
0.0
 41
0.0
  0
VERTEX
  8
4
 10
56.00272369384766
 20
-152.1202545166016
  0
VERTEX
  8
4
 10
56.00272369384766
 20
-151.3077545166016
  0
SEQEND
  8
4
  0
POLYLINE
  8
4
  6
CONTINUOUS
 66
     1
 70
     0
 40
0.0
 41
0.0
  0
VERTEX
  8
4
 10
55.94022369384766
 20
-152.0577545166016
  0
VERTEX
  8
4
 10
55.94022369384766
 20
-151.3702545166016
  0
SEQEND
  8
4
  0
POLYLINE
  8
4
  6
CONTINUOUS
 66
     1
 70
     0
 40
0.0
 41
0.0
  0
VERTEX
  8
4
 10
55.87772369384766
 20
-152.0265045166016
  0
VERTEX
  8
4
 10
55.87772369384766
 20
-151.4015045166016
  0
SEQEND
  8
4
  0
POLYLINE
  8
4
  6
CONTINUOUS
 66
     1
 70
     0
 40
0.0
 41
0.0
  0
VERTEX
  8
4
 10
55.81522369384766
 20
-151.9952545166016
  0
VERTEX
  8
4
 10
55.81522369384766
 20
-151.4327545166016
  0
SEQEND
  8
4
  0
POLYLINE
  8
4
  6
CONTINUOUS
 66
     1
 70
     0
 40
0.0
 41
0.0
  0
VERTEX
  8
4
 10
55.75272369384766
 20
-151.9640045166016
  0
VERTEX
  8
4
 10
55.75272369384766
 20
-151.4640045166016
  0
SEQEND
  8
4
  0
POLYLINE
  8
4
  6
CONTINUOUS
 66
     1
 70
     0
 40
0.0
 41
0.0
  0
VERTEX
  8
4
 10
55.69022369384766
 20
-151.9327545166016
  0
VERTEX
  8
4
 10
55.69022369384766
 20
-151.4952545166016
  0
SEQEND
  8
4
  0
POLYLINE
  8
4
  6
CONTINUOUS
 66
     1
 70
     0
 40
0.0
 41
0.0
  0
VERTEX
  8
4
 10
55.62772369384766
 20
-151.9015045166016
  0
VERTEX
  8
4
 10
55.62772369384766
 20
-151.5265045166016
  0
SEQEND
  8
4
  0
POLYLINE
  8
4
  6
CONTINUOUS
 66
     1
 70
     0
 40
0.0
 41
0.0
  0
VERTEX
  8
4
 10
55.56522369384766
 20
-151.8702545166016
  0
VERTEX
  8
4
 10
55.56522369384766
 20
-151.5577545166016
  0
SEQEND
  8
4
  0
POLYLINE
  8
4
  6
CONTINUOUS
 66
     1
 70
     0
 40
0.0
 41
0.0
  0
VERTEX
  8
4
 10
55.50272369384766
 20
-151.8077545166016
  0
VERTEX
  8
4
 10
55.50272369384766
 20
-151.6202545166016
  0
SEQEND
  8
4
  0
POLYLINE
  8
4
  6
CONTINUOUS
 66
     1
 70
     0
 40
0.0
 41
0.0
  0
VERTEX
  8
4
 10
55.44022369384766
 20
-151.7765045166016
  0
VERTEX
  8
4
 10
55.44022369384766
 20
-151.6515045166016
  0
SEQEND
  8
4
  0
POLYLINE
  8
4
  6
CONTINUOUS
 66
     1
 70
     0
 40
0.0
 41
0.0
  0
VERTEX
  8
4
 10
55.37772369384766
 20
-151.7452545166016
  0
VERTEX
  8
4
 10
55.37772369384766
 20
-151.6827545166016
  0
SEQEND
  8
4
  0
ENDBLK
  8
4
  0
BLOCK
  8
4
  2
COMP9
 70
    64
 10
0.0
 20
0.0
  0
POLYLINE
  8
4
  6
CONTINUOUS
 66
     1
 70
     0
 40
0.0
 41
0.0
  0
VERTEX
  8
4
 10
30.22147369384766
 20
-152.0108795166016
  0
VERTEX
  8
4
 10
30.15232725497521
 20
-151.7965400890836
  0
VERTEX
  8
4
 10
30.01178781053682
 20
-151.6200660316268
  0
VERTEX
  8
4
 10
29.81817861734648
 20
-151.5041627676723
  0
VERTEX
  8
4
 10
29.59647369384766
 20
-151.4640045166016
  0
VERTEX
  8
4
 10
29.37476877034883
 20
-151.5041627676723
  0
VERTEX
  8
4
 10
29.18115957715849
 20
-151.6200660316268
  0
VERTEX
  8
4
 10
29.0406201327201
 20
-151.7965400890836
  0
VERTEX
  8
4
 10
28.97147369384766
 20
-152.0108795166016
  0
VERTEX
  8
4
 10
28.97147369384766
 20
-153.4952545166016
  0
VERTEX
  8
4
 10
29.06101941531792
 20
-153.683434261664
  0
VERTEX
  8
4
 10
29.2057815500136
 20
-153.8337490055643
  0
VERTEX
  8
4
 10
29.3906551557679
 20
-153.9306599650293
  0
VERTEX
  8
4
 10
29.59647369384766
 20
-153.9640045166016
  0
VERTEX
  8
4
 10
29.80229223192741
 20
-153.9306599650293
  0
VERTEX
  8
4
 10
29.98716583768172
 20
-153.8337490055643
  0
VERTEX
  8
4
 10
30.13192797237739
 20
-153.683434261664
  0
VERTEX
  8
4
 10
30.22147369384766
 20
-153.4952545166016
  0
SEQEND
  8
4
  0
POLYLINE
  8
4
  6
CONTINUOUS
 66
     1
 70
     0
 40
0.0
 41
0.0
  0
VERTEX
  8
4
 10
30.69022369384766
 20
-151.4640045166016
  0
VERTEX
  8
4
 10
30.69022369384766
 20
-153.9640045166016
  0
SEQEND
  8
4
  0
POLYLINE
  8
4
  6
CONTINUOUS
 66
     1
 70
     0
 40
0.0
 41
0.0
  0
VERTEX
  8
4
 10
31.94022369384766
 20
-151.4640045166016
  0
VERTEX
  8
4
 10
31.94022369384766
 20
-153.9640045166016
  0
SEQEND
  8
4
  0
POLYLINE
  8
4
  6
CONTINUOUS
 66
     1
 70
     0
 40
0.0
 41
0.0
  0
VERTEX
  8
4
 10
30.69022369384766
 20
-152.7140045166016
  0
VERTEX
  8
4
 10
31.94022369384766
 20
-152.7140045166016
  0
SEQEND
  8
4
  0
POLYLINE
  8
4
  6
CONTINUOUS
 66
     1
 70
     0
 40
0.0
 41
0.0
  0
VERTEX
  8
4
 10
33.65897369384766
 20
-151.4640045166016
  0
VERTEX
  8
4
 10
32.40897369384766
 20
-151.4640045166016
  0
VERTEX
  8
4
 10
32.40897369384766
 20
-153.9640045166016
  0
VERTEX
  8
4
 10
33.65897369384766
 20
-153.9640045166016
  0
SEQEND
  8
4
  0
POLYLINE
  8
4
  6
CONTINUOUS
 66
     1
 70
     0
 40
0.0
 41
0.0
  0
VERTEX
  8
4
 10
32.40897369384766
 20
-152.7140045166016
  0
VERTEX
  8
4
 10
33.65897369384766
 20
-152.7140045166016
  0
SEQEND
  8
4
  0
POLYLINE
  8
4
  6
CONTINUOUS
 66
     1
 70
     0
 40
0.0
 41
0.0
  0
VERTEX
  8
4
 10
35.37772369384766
 20
-152.0108795166016
  0
VERTEX
  8
4
 10
35.30857725497521
 20
-151.7965400890836
  0
VERTEX
  8
4
 10
35.16803781053682
 20
-151.6200660316268
  0
VERTEX
  8
4
 10
34.97442861734648
 20
-151.5041627676723
  0
VERTEX
  8
4
 10
34.75272369384766
 20
-151.4640045166016
  0
VERTEX
  8
4
 10
34.53101877034884
 20
-151.5041627676723
  0
VERTEX
  8
4
 10
34.33740957715849
 20
-151.6200660316268
  0
VERTEX
  8
4
 10
34.1968701327201
 20
-151.7965400890836
  0
VERTEX
  8
4
 10
34.12772369384766
 20
-152.0108795166016
  0
VERTEX
  8
4
 10
34.12772369384766
 20
-153.4952545166016
  0
VERTEX
  8
4
 10
34.21726941531792
 20
-153.683434261664
  0
VERTEX
  8
4
 10
34.3620315500136
 20
-153.8337490055643
  0
VERTEX
  8
4
 10
34.5469051557679
 20
-153.9306599650293
  0
VERTEX
  8
4
 10
34.75272369384766
 20
-153.9640045166016
  0
VERTEX
  8
4
 10
34.95854223192742
 20
-153.9306599650293
  0
VERTEX
  8
4
 10
35.14341583768172
 20
-153.8337490055643
  0
VERTEX
  8
4
 10
35.28817797237739
 20
-153.683434261664
  0
VERTEX
  8
4
 10
35.37772369384766
 20
-153.4952545166016
  0
SEQEND
  8
4
  0
POLYLINE
  8
4
  6
CONTINUOUS
 66
     1
 70
     0
 40
0.0
 41
0.0
  0
VERTEX
  8
4
 10
35.84647369384766
 20
-151.4640045166016
  0
VERTEX
  8
4
 10
35.84647369384766
 20
-153.9640045166016
  0
SEQEND
  8
4
  0
POLYLINE
  8
4
  6
CONTINUOUS
 66
     1
 70
     0
 40
0.0
 41
0.0
  0
VERTEX
  8
4
 10
35.84647369384766
 20
-153.0265045166016
  0
VERTEX
  8
4
 10
37.09647369384766
 20
-151.4640045166016
  0
SEQEND
  8
4
  0
POLYLINE
  8
4
  6
CONTINUOUS
 66
     1
 70
     0
 40
0.0
 41
0.0
  0
VERTEX
  8
4
 10
36.23709869384766
 20
-152.5577545166016
  0
VERTEX
  8
4
 10
37.09647369384766
 20
-153.9640045166016
  0
SEQEND
  8
4
  0
ENDBLK
  8
4
  0
BLOCK
  8
4
  2
COMP10
 70
    64
 10
0.0
 20
0.0
  0
POLYLINE
  8
4
  6
CONTINUOUS
 66
     1
 70
     0
 40
0.0
 41
0.0
  0
VERTEX
  8
4
 10
19.83084869384766
 20
-151.4640045166016
  0
VERTEX
  8
4
 10
19.83084869384766
 20
-153.9640045166016
  0
SEQEND
  8
4
  0
POLYLINE
  8
4
  6
CONTINUOUS
 66
     1
 70
     0
 40
0.0
 41
0.0
  0
VERTEX
  8
4
 10
21.08084869384766
 20
-151.4640045166016
  0
VERTEX
  8
4
 10
21.08084869384766
 20
-153.9640045166016
  0
SEQEND
  8
4
  0
POLYLINE
  8
4
  6
CONTINUOUS
 66
     1
 70
     0
 40
0.0
 41
0.0
  0
VERTEX
  8
4
 10
19.83084869384766
 20
-152.7140045166016
  0
VERTEX
  8
4
 10
21.08084869384766
 20
-152.7140045166016
  0
SEQEND
  8
4
  0
POLYLINE
  8
4
  6
CONTINUOUS
 66
     1
 70
     0
 40
0.0
 41
0.0
  0
VERTEX
  8
4
 10
21.54959869384766
 20
-152.0108795166016
  0
VERTEX
  8
4
 10
21.54959869384766
 20
-153.4952545166016
  0
VERTEX
  8
4
 10
21.63914441531792
 20
-153.683434261664
  0
VERTEX
  8
4
 10
21.7839065500136
 20
-153.8337490055643
  0
VERTEX
  8
4
 10
21.9687801557679
 20
-153.9306599650293
  0
VERTEX
  8
4
 10
22.17459869384766
 20
-153.9640045166016
  0
VERTEX
  8
4
 10
22.38041723192741
 20
-153.9306599650293
  0
VERTEX
  8
4
 10
22.56529083768172
 20
-153.8337490055643
  0
VERTEX
  8
4
 10
22.71005297237739
 20
-153.683434261664
  0
VERTEX
  8
4
 10
22.79959869384766
 20
-153.4952545166016
  0
VERTEX
  8
4
 10
22.79959869384766
 20
-152.0108795166016
  0
VERTEX
  8
4
 10
22.73045225497521
 20
-151.7965400890836
  0
VERTEX
  8
4
 10
22.58991281053682
 20
-151.6200660316268
  0
VERTEX
  8
4
 10
22.39630361734648
 20
-151.5041627676723
  0
VERTEX
  8
4
 10
22.17459869384766
 20
-151.4640045166016
  0
VERTEX
  8
4
 10
21.95289377034883
 20
-151.5041627676723
  0
VERTEX
  8
4
 10
21.75928457715849
 20
-151.6200660316268
  0
VERTEX
  8
4
 10
21.6187451327201
 20
-151.7965400890836
  0
VERTEX
  8
4
 10
21.54959869384766
 20
-152.0108795166016
  0
SEQEND
  8
4
  0
POLYLINE
  8
4
  6
CONTINUOUS
 66
     1
 70
     0
 40
0.0
 41
0.0
  0
VERTEX
  8
4
 10
23.26834869384766
 20
-151.4640045166016
  0
VERTEX
  8
4
 10
23.26834869384766
 20
-153.9640045166016
  0
VERTEX
  8
4
 10
24.51834869384766
 20
-153.9640045166016
  0
SEQEND
  8
4
  0
POLYLINE
  8
4
  6
CONTINUOUS
 66
     1
 70
     0
 40
0.0
 41
0.0
  0
VERTEX
  8
4
 10
24.98709869384766
 20
-153.9640045166016
  0
VERTEX
  8
4
 10
25.65116119384766
 20
-153.9640045166016
  0
VERTEX
  8
4
 10
25.88311108836848
 20
-153.9339552941009
  0
VERTEX
  8
4
 10
26.08088684082031
 20
-153.8077926635742
  0
VERTEX
  8
4
 10
26.20704947134702
 20
-153.6100169111224
  0
VERTEX
  8
4
 10
26.23709869384766
 20
-153.3780670166016
  0
VERTEX
  8
4
 10
26.23709869384766
 20
-152.0499420166016
  0
VERTEX
  8
4
 10
26.20704947134702
 20
-151.8179921220807
  0
VERTEX
  8
4
 10
26.08088684082031
 20
-151.6202163696289
  0
VERTEX
  8
4
 10
25.88311108836848
 20
-151.4940537391022
  0
VERTEX
  8
4
 10
25.65116119384766
 20
-151.4640045166016
  0
VERTEX
  8
4
 10
24.98709869384766
 20
-151.4640045166016
  0
VERTEX
  8
4
 10
24.98709869384766
 20
-153.9640045166016
  0
SEQEND
  8
4
  0
ENDBLK
  8
4
  0
BLOCK
  8
4
  2
COMP11
 70
    64
 10
0.0
 20
0.0
  0
POLYLINE
  8
4
  6
CONTINUOUS
 66
     1
 70
     0
 40
0.0
 41
0.0
  0
VERTEX
  8
4
 10
9.830848693847656
 20
-151.4640045166016
  0
VERTEX
  8
4
 10
9.830848693847656
 20
-153.9640045166016
  0
VERTEX
  8
4
 10
11.08084869384766
 20
-153.9640045166016
  0
SEQEND
  8
4
  0
POLYLINE
  8
4
  6
CONTINUOUS
 66
     1
 70
     0
 40
0.0
 41
0.0
  0
VERTEX
  8
4
 10
11.54959869384766
 20
-152.0108795166016
  0
VERTEX
  8
4
 10
11.54959869384766
 20
-153.4952545166016
  0
VERTEX
  8
4
 10
11.63914441531792
 20
-153.683434261664
  0
VERTEX
  8
4
 10
11.7839065500136
 20
-153.8337490055643
  0
VERTEX
  8
4
 10
11.9687801557679
 20
-153.9306599650293
  0
VERTEX
  8
4
 10
12.17459869384766
 20
-153.9640045166016
  0
VERTEX
  8
4
 10
12.38041723192741
 20
-153.9306599650293
  0
VERTEX
  8
4
 10
12.56529083768172
 20
-153.8337490055643
  0
VERTEX
  8
4
 10
12.71005297237739
 20
-153.683434261664
  0
VERTEX
  8
4
 10
12.79959869384766
 20
-153.4952545166016
  0
VERTEX
  8
4
 10
12.79959869384766
 20
-152.0108795166016
  0
VERTEX
  8
4
 10
12.73045225497521
 20
-151.7965400890836
  0
VERTEX
  8
4
 10
12.58991281053682
 20
-151.6200660316268
  0
VERTEX
  8
4
 10
12.39630361734648
 20
-151.5041627676723
  0
VERTEX
  8
4
 10
12.17459869384766
 20
-151.4640045166016
  0
VERTEX
  8
4
 10
11.95289377034883
 20
-151.5041627676723
  0
VERTEX
  8
4
 10
11.75928457715849
 20
-151.6200660316268
  0
VERTEX
  8
4
 10
11.6187451327201
 20
-151.7965400890836
  0
VERTEX
  8
4
 10
11.54959869384766
 20
-152.0108795166016
  0
SEQEND
  8
4
  0
POLYLINE
  8
4
  6
CONTINUOUS
 66
     1
 70
     0
 40
0.0
 41
0.0
  0
VERTEX
  8
4
 10
14.51834869384766
 20
-152.0108795166016
  0
VERTEX
  8
4
 10
14.44920225497521
 20
-151.7965400890836
  0
VERTEX
  8
4
 10
14.30866281053682
 20
-151.6200660316268
  0
VERTEX
  8
4
 10
14.11505361734648
 20
-151.5041627676723
  0
VERTEX
  8
4
 10
13.89334869384766
 20
-151.4640045166016
  0
VERTEX
  8
4
 10
13.67164377034883
 20
-151.5041627676723
  0
VERTEX
  8
4
 10
13.47803457715849
 20
-151.6200660316268
  0
VERTEX
  8
4
 10
13.3374951327201
 20
-151.7965400890836
  0
VERTEX
  8
4
 10
13.26834869384766
 20
-152.0108795166016
  0
VERTEX
  8
4
 10
13.26834869384766
 20
-153.4952545166016
  0
VERTEX
  8
4
 10
13.35789441531792
 20
-153.683434261664
  0
VERTEX
  8
4
 10
13.5026565500136
 20
-153.8337490055643
  0
VERTEX
  8
4
 10
13.6875301557679
 20
-153.9306599650293
  0
VERTEX
  8
4
 10
13.89334869384766
 20
-153.9640045166016
  0
VERTEX
  8
4
 10
14.09916723192741
 20
-153.9306599650293
  0
VERTEX
  8
4
 10
14.28404083768172
 20
-153.8337490055643
  0
VERTEX
  8
4
 10
14.42880297237739
 20
-153.683434261664
  0
VERTEX
  8
4
 10
14.51834869384766
 20
-153.4952545166016
  0
SEQEND
  8
4
  0
POLYLINE
  8
4
  6
CONTINUOUS
 66
     1
 70
     0
 40
0.0
 41
0.0
  0
VERTEX
  8
4
 10
14.98709869384766
 20
-151.4640045166016
  0
VERTEX
  8
4
 10
14.98709869384766
 20
-153.9640045166016
  0
SEQEND
  8
4
  0
POLYLINE
  8
4
  6
CONTINUOUS
 66
     1
 70
     0
 40
0.0
 41
0.0
  0
VERTEX
  8
4
 10
14.98709869384766
 20
-153.0265045166016
  0
VERTEX
  8
4
 10
16.23709869384766
 20
-151.4640045166016
  0
SEQEND
  8
4
  0
POLYLINE
  8
4
  6
CONTINUOUS
 66
     1
 70
     0
 40
0.0
 41
0.0
  0
VERTEX
  8
4
 10
15.37772369384766
 20
-152.5577545166016
  0
VERTEX
  8
4
 10
16.23709869384766
 20
-153.9640045166016
  0
SEQEND
  8
4
  0
ENDBLK
  8
4
  0
BLOCK
  8
4
  2
COMP12
 70
    64
 10
0.0
 20
0.0
  0
POLYLINE
  8
4
  6
CONTINUOUS
 66
     1
 70
     0
 40
0.0
 41
0.0
  0
VERTEX
  8
4
 10
0.6902246475219727
 20
-153.9640045166016
  0
VERTEX
  8
4
 10
1.315224647521973
 20
-151.4640045166016
  0
VERTEX
  8
4
 10
1.940224647521973
 20
-153.9640045166016
  0
SEQEND
  8
4
  0
POLYLINE
  8
4
  6
CONTINUOUS
 66
     1
 70
     0
 40
0.0
 41
0.0
  0
VERTEX
  8
4
 10
1.744912147521973
 20
-153.1827545166016
  0
VERTEX
  8
4
 10
0.8855371475219727
 20
-153.1827545166016
  0
SEQEND
  8
4
  0
POLYLINE
  8
4
  6
CONTINUOUS
 66
     1
 70
     0
 40
0.0
 41
0.0
  0
VERTEX
  8
4
 10
2.408974647521973
 20
-153.9640045166016
  0
VERTEX
  8
4
 10
3.658974647521973
 20
-151.4640045166016
  0
SEQEND
  8
4
  0
POLYLINE
  8
4
  6
CONTINUOUS
 66
     1
 70
     0
 40
0.0
 41
0.0
  0
VERTEX
  8
4
 10
4.127724647521973
 20
-151.4640045166016
  0
VERTEX
  8
4
 10
5.377724647521973
 20
-151.4640045166016
  0
VERTEX
  8
4
 10
4.127724647521973
 20
-153.9640045166016
  0
VERTEX
  8
4
 10
5.377724647521973
 20
-153.9640045166016
  0
SEQEND
  8
4
  0
ENDBLK
  8
4
  0
BLOCK
  8
4
  2
COMP13
 70
    64
 10
0.0
 20
0.0
  0
POLYLINE
  8
4
  6
CONTINUOUS
 66
     1
 70
     0
 40
0.0
 41
0.0
  0
VERTEX
  8
4
 10
-9.309775352478027
 20
-152.7140045166016
  0
VERTEX
  8
4
 10
-8.684775352478027
 20
-152.7140045166016
  0
VERTEX
  8
4
 10
-8.445774409921578
 20
-152.6666717704772
  0
VERTEX
  8
4
 10
-8.242842674255371
 20
-152.5309371948242
  0
VERTEX
  8
4
 10
-8.107108098602415
 20
-152.328005459158
  0
VERTEX
  8
4
 10
-8.059775352478027
 20
-152.0890045166016
  0
VERTEX
  8
4
 10
-8.107108098602415
 20
-151.8500035740451
  0
VERTEX
  8
4
 10
-8.242842674255371
 20
-151.6470718383789
  0
VERTEX
  8
4
 10
-8.445774409921578
 20
-151.511337262726
  0
VERTEX
  8
4
 10
-8.684775352478027
 20
-151.4640045166016
  0
VERTEX
  8
4
 10
-9.309775352478027
 20
-151.4640045166016
  0
VERTEX
  8
4
 10
-9.309775352478027
 20
-153.9640045166016
  0
SEQEND
  8
4
  0
POLYLINE
  8
4
  6
CONTINUOUS
 66
     1
 70
     0
 40
0.0
 41
0.0
  0
VERTEX
  8
4
 10
-8.059775352478027
 20
-153.9640045166016
  0
VERTEX
  8
4
 10
-8.684775352478027
 20
-152.7140045166016
  0
SEQEND
  8
4
  0
POLYLINE
  8
4
  6
CONTINUOUS
 66
     1
 70
     0
 40
0.0
 41
0.0
  0
VERTEX
  8
4
 10
-7.591025352478027
 20
-151.4640045166016
  0
VERTEX
  8
4
 10
-7.591025352478027
 20
-153.4952545166016
  0
VERTEX
  8
4
 10
-7.501479631007761
 20
-153.683434261664
  0
VERTEX
  8
4
 10
-7.356717496312087
 20
-153.8337490055643
  0
VERTEX
  8
4
 10
-7.171843890557786
 20
-153.9306599650293
  0
VERTEX
  8
4
 10
-6.966025352478027
 20
-153.9640045166016
  0
VERTEX
  8
4
 10
-6.760206814398269
 20
-153.9306599650293
  0
VERTEX
  8
4
 10
-6.575333208643968
 20
-153.8337490055643
  0
VERTEX
  8
4
 10
-6.430571073948293
 20
-153.683434261664
  0
VERTEX
  8
4
 10
-6.341025352478027
 20
-153.4952545166016
  0
VERTEX
  8
4
 10
-6.341025352478027
 20
-151.4640045166016
  0
SEQEND
  8
4
  0
POLYLINE
  8
4
  6
CONTINUOUS
 66
     1
 70
     0
 40
0.0
 41
0.0
  0
VERTEX
  8
4
 10
-5.872275352478027
 20
-153.9640045166016
  0
VERTEX
  8
4
 10
-5.872275352478027
 20
-151.4640045166016
  0
VERTEX
  8
4
 10
-4.622275352478027
 20
-153.9640045166016
  0
VERTEX
  8
4
 10
-4.622275352478027
 20
-151.4640045166016
  0
SEQEND
  8
4
  0
ENDBLK
  8
4
  0
BLOCK
  8
4
  2
COMP14
 70
    64
 10
0.0
 20
0.0
  0
POLYLINE
  8
4
  6
CONTINUOUS
 66
     1
 70
     0
 40
0.0
 41
0.0
  0
VERTEX
  8
4
 10
-62.16915130615234
 20
-152.7140045166016
  0
VERTEX
  8
4
 10
-61.54415130615234
 20
-152.7140045166016
  0
VERTEX
  8
4
 10
-61.30515036359589
 20
-152.6666717704772
  0
VERTEX
  8
4
 10
-61.10221862792969
 20
-152.5309371948242
  0
VERTEX
  8
4
 10
-60.96648405227673
 20
-152.328005459158
  0
VERTEX
  8
4
 10
-60.91915130615234
 20
-152.0890045166016
  0
VERTEX
  8
4
 10
-60.96648405227673
 20
-151.8500035740451
  0
VERTEX
  8
4
 10
-61.10221862792969
 20
-151.6470718383789
  0
VERTEX
  8
4
 10
-61.30515036359589
 20
-151.511337262726
  0
VERTEX
  8
4
 10
-61.54415130615234
 20
-151.4640045166016
  0
VERTEX
  8
4
 10
-62.16915130615234
 20
-151.4640045166016
  0
VERTEX
  8
4
 10
-62.16915130615234
 20
-153.9640045166016
  0
SEQEND
  8
4
  0
POLYLINE
  8
4
  6
CONTINUOUS
 66
     1
 70
     0
 40
0.0
 41
0.0
  0
VERTEX
  8
4
 10
-60.45040130615234
 20
-152.0108795166016
  0
VERTEX
  8
4
 10
-60.45040130615234
 20
-153.4952545166016
  0
VERTEX
  8
4
 10
-60.36085558468208
 20
-153.683434261664
  0
VERTEX
  8
4
 10
-60.2160934499864
 20
-153.8337490055643
  0
VERTEX
  8
4
 10
-60.03121984423211
 20
-153.9306599650293
  0
VERTEX
  8
4
 10
-59.82540130615234
 20
-153.9640045166016
  0
VERTEX
  8
4
 10
-59.61958276807258
 20
-153.9306599650293
  0
VERTEX
  8
4
 10
-59.43470916231829
 20
-153.8337490055643
  0
VERTEX
  8
4
 10
-59.28994702762261
 20
-153.683434261664
  0
VERTEX
  8
4
 10
-59.20040130615234
 20
-153.4952545166016
  0
VERTEX
  8
4
 10
-59.20040130615234
 20
-152.0108795166016
  0
VERTEX
  8
4
 10
-59.26954774502479
 20
-151.7965400890836
  0
VERTEX
  8
4
 10
-59.41008718946318
 20
-151.6200660316268
  0
VERTEX
  8
4
 10
-59.60369638265352
 20
-151.5041627676723
  0
VERTEX
  8
4
 10
-59.82540130615234
 20
-151.4640045166016
  0
VERTEX
  8
4
 10
-60.04710622965116
 20
-151.5041627676723
  0
VERTEX
  8
4
 10
-60.24071542284151
 20
-151.6200660316268
  0
VERTEX
  8
4
 10
-60.3812548672799
 20
-151.7965400890836
  0
VERTEX
  8
4
 10
-60.45040130615234
 20
-152.0108795166016
  0
SEQEND
  8
4
  0
POLYLINE
  8
4
  6
CONTINUOUS
 66
     1
 70
     0
 40
0.0
 41
0.0
  0
VERTEX
  8
4
 10
-58.73165130615234
 20
-151.4640045166016
  0
VERTEX
  8
4
 10
-58.73165130615234
 20
-153.9640045166016
  0
VERTEX
  8
4
 10
-57.48165130615234
 20
-153.9640045166016
  0
SEQEND
  8
4
  0
POLYLINE
  8
4
  6
CONTINUOUS
 66
     1
 70
     0
 40
0.0
 41
0.0
  0
VERTEX
  8
4
 10
-56.54415130615234
 20
-153.8858795166016
  0
VERTEX
  8
4
 10
-56.54415130615234
 20
-153.6515045166016
  0
VERTEX
  8
4
 10
-56.27071380615234
 20
-153.6515045166016
  0
VERTEX
  8
4
 10
-56.27071380615234
 20
-153.8858795166016
  0
VERTEX
  8
4
 10
-56.54415130615234
 20
-153.8858795166016
  0
SEQEND
  8
4
  0
ENDBLK
  8
4
  0
BLOCK
  8
4
  2
COMP15
 70
    64
 10
0.0
 20
0.0
  0
POLYLINE
  8
4
  6
CONTINUOUS
 66
     1
 70
     0
 40
0.0
 41
0.0
  0
VERTEX
  8
4
 10
-71.02852630615234
 20
-172.4015045166016
  0
VERTEX
  8
4
 10
-71.1999978481667
 20
-172.4568216676995
  0
VERTEX
  8
4
 10
-71.34117709413214
 20
-172.5692532232502
  0
VERTEX
  8
4
 10
-71.43389970529574
 20
-172.7241405778025
  0
VERTEX
  8
4
 10
-71.46602630615234
 20
-172.9015045166016
  0
VERTEX
  8
4
 10
-71.43389970529574
 20
-173.0788684554006
  0
VERTEX
  8
4
 10
-71.34117709413214
 20
-173.2337558099529
  0
VERTEX
  8
4
 10
-71.1999978481667
 20
-173.3461873655036
  0
VERTEX
  8
4
 10
-71.02852630615234
 20
-173.4015045166016
  0
VERTEX
  8
4
 10
-69.84102630615234
 20
-173.4015045166016
  0
VERTEX
  8
4
 10
-69.6904825101024
 20
-173.3298679394254
  0
VERTEX
  8
4
 10
-69.57023071498213
 20
-173.2140582316688
  0
VERTEX
  8
4
 10
-69.49270194741017
 20
-173.0661593470654
  0
VERTEX
  8
4
 10
-69.46602630615234
 20
-172.9015045166016
  0
VERTEX
  8
4
 10
-69.49270194741017
 20
-172.7368496861378
  0
VERTEX
  8
4
 10
-69.57023071498213
 20
-172.5889508015343
  0
VERTEX
  8
4
 10
-69.6904825101024
 20
-172.4731410937778
  0
VERTEX
  8
4
 10
-69.84102630615234
 20
-172.4015045166016
  0
SEQEND
  8
4
  0
POLYLINE
  8
4
  6
CONTINUOUS
 66
     1
 70
     0
 40
0.0
 41
0.0
  0
VERTEX
  8
4
 10
-71.09102630615234
 20
-171.0265045166016
  0
VERTEX
  8
4
 10
-71.24562962475361
 20
-171.0933682471568
  0
VERTEX
  8
4
 10
-71.36852264404297
 20
-171.2089385986328
  0
VERTEX
  8
4
 10
-71.4450771064358
 20
-171.3592982227331
  0
VERTEX
  8
4
 10
-71.46602630615234
 20
-171.5265045166016
  0
VERTEX
  8
4
 10
-71.43901242634502
 20
-171.7064030782662
  0
VERTEX
  8
4
 10
-71.34694652011746
 20
-171.8636978245796
  0
VERTEX
  8
4
 10
-71.20326725082374
 20
-171.9758289141392
  0
VERTEX
  8
4
 10
-71.02852630615234
 20
-172.0265045166016
  0
VERTEX
  8
4
 10
-70.82301565002186
 20
-171.9982739343972
  0
VERTEX
  8
4
 10
-70.64376739119915
 20
-171.8930842417837
  0
VERTEX
  8
4
 10
-70.51824790644086
 20
-171.7273663870565
  0
VERTEX
  8
4
 10
-70.46602630615234
 20
-171.5265045166016
  0
VERTEX
  8
4
 10
-70.41917229524889
 20
-171.3405221877528
  0
VERTEX
  8
4
 10
-70.30977630615234
 20
-171.1827545166016
  0
VERTEX
  8
4
 10
-70.15200863500114
 20
-171.073358527505
  0
VERTEX
  8
4
 10
-69.96602630615234
 20
-171.0265045166016
  0
VERTEX
  8
4
 10
-69.77164691123957
 20
-171.0413817613133
  0
VERTEX
  8
4
 10
-69.60280724893832
 20
-171.1400917615319
  0
VERTEX
  8
4
 10
-69.49340932723118
 20
-171.3022333079569
  0
VERTEX
  8
4
 10
-69.46602630615234
 20
-171.4952545166016
  0
VERTEX
  8
4
 10
-69.49189675487473
 20
-171.6659074276499
  0
VERTEX
  8
4
 10
-69.56865274653944
 20
-171.8207490905966
  0
VERTEX
  8
4
 10
-69.68886142710866
 20
-171.9449404413795
  0
VERTEX
  8
4
 10
-69.84102630615234
 20
-172.0265045166016
  0
SEQEND
  8
4
  0
POLYLINE
  8
4
  6
CONTINUOUS
 66
     1
 70
     0
 40
0.0
 41
0.0
  0
VERTEX
  8
4
 10
-69.46602630615234
 20
-170.6515045166016
  0
VERTEX
  8
4
 10
-69.46602630615234
 20
-170.1202545166016
  0
VERTEX
  8
4
 10
-69.49006568415285
 20
-169.9346946009849
  0
VERTEX
  8
4
 10
-69.59099578857422
 20
-169.7764739990234
  0
VERTEX
  8
4
 10
-69.74921639053569
 20
-169.6755438946021
  0
VERTEX
  8
4
 10
-69.93477630615234
 20
-169.6515045166016
  0
VERTEX
  8
4
 10
-70.99727630615234
 20
-169.6515045166016
  0
VERTEX
  8
4
 10
-71.18283622176899
 20
-169.6755438946021
  0
VERTEX
  8
4
 10
-71.34105682373047
 20
-169.7764739990234
  0
VERTEX
  8
4
 10
-71.44198692815183
 20
-169.9346946009849
  0
VERTEX
  8
4
 10
-71.46602630615234
 20
-170.1202545166016
  0
VERTEX
  8
4
 10
-71.46602630615234
 20
-170.6515045166016
  0
VERTEX
  8
4
 10
-69.46602630615234
 20
-170.6515045166016
  0
SEQEND
  8
4
  0
POLYLINE
  8
4
  6
CONTINUOUS
 66
     1
 70
     0
 40
0.0
 41
0.0
  0
VERTEX
  8
4
 10
-70.46602630615234
 20
-168.3390045166016
  0
VERTEX
  8
4
 10
-70.46602630615234
 20
-169.2140045166016
  0
SEQEND
  8
4
  0
POLYLINE
  8
4
  6
CONTINUOUS
 66
     1
 70
     0
 40
0.0
 41
0.0
  0
VERTEX
  8
4
 10
-71.40352630615234
 20
-166.9640045166016
  0
VERTEX
  8
4
 10
-71.40352630615234
 20
-167.7765045166016
  0
VERTEX
  8
4
 10
-70.52852630615234
 20
-167.9015045166016
  0
VERTEX
  8
4
 10
-70.65352630615234
 20
-167.5890045166016
  0
VERTEX
  8
4
 10
-70.65352630615234
 20
-167.2140045166016
  0
VERTEX
  8
4
 10
-70.40352630615234
 20
-166.9015045166016
  0
VERTEX
  8
4
 10
-69.77852630615234
 20
-166.9015045166016
  0
VERTEX
  8
4
 10
-69.46602630615234
 20
-167.2140045166016
  0
VERTEX
  8
4
 10
-69.46602630615234
 20
-167.5890045166016
  0
VERTEX
  8
4
 10
-69.77852630615234
 20
-167.9015045166016
  0
SEQEND
  8
4
  0
POLYLINE
  8
4
  6
CONTINUOUS
 66
     1
 70
     0
 40
0.0
 41
0.0
  0
VERTEX
  8
4
 10
-71.46602630615234
 20
-165.8390045166016
  0
VERTEX
  8
4
 10
-71.21602630615234
 20
-165.5890045166016
  0
VERTEX
  8
4
 10
-70.71602630615234
 20
-165.5890045166016
  0
VERTEX
  8
4
 10
-70.52852630615234
 20
-165.8390045166016
  0
VERTEX
  8
4
 10
-70.52852630615234
 20
-166.2140045166016
  0
VERTEX
  8
4
 10
-70.71602630615234
 20
-166.4640045166016
  0
VERTEX
  8
4
 10
-71.21602630615234
 20
-166.4640045166016
  0
VERTEX
  8
4
 10
-71.46602630615234
 20
-166.2140045166016
  0
VERTEX
  8
4
 10
-71.46602630615234
 20
-165.8390045166016
  0
SEQEND
  8
4
  0
POLYLINE
  8
4
  6
CONTINUOUS
 66
     1
 70
     0
 40
0.0
 41
0.0
  0
VERTEX
  8
4
 10
-70.52852630615234
 20
-166.2140045166016
  0
VERTEX
  8
4
 10
-70.27852630615234
 20
-166.5265045166016
  0
VERTEX
  8
4
 10
-69.77852630615234
 20
-166.5265045166016
  0
VERTEX
  8
4
 10
-69.46602630615234
 20
-166.2140045166016
  0
VERTEX
  8
4
 10
-69.46602630615234
 20
-165.8390045166016
  0
VERTEX
  8
4
 10
-69.77852630615234
 20
-165.5265045166016
  0
VERTEX
  8
4
 10
-70.27852630615234
 20
-165.5265045166016
  0
VERTEX
  8
4
 10
-70.52852630615234
 20
-165.8390045166016
  0
SEQEND
  8
4
  0
POLYLINE
  8
4
  6
CONTINUOUS
 66
     1
 70
     0
 40
0.0
 41
0.0
  0
VERTEX
  8
4
 10
-69.46602630615234
 20
-164.6515045166016
  0
VERTEX
  8
4
 10
-71.46602630615234
 20
-164.6515045166016
  0
VERTEX
  8
4
 10
-70.87227630615234
 20
-164.9952545166016
  0
SEQEND
  8
4
  0
POLYLINE
  8
4
  6
CONTINUOUS
 66
     1
 70
     0
 40
0.0
 41
0.0
  0
VERTEX
  8
4
 10
-70.46602630615234
 20
-162.8390045166016
  0
VERTEX
  8
4
 10
-70.46602630615234
 20
-163.7140045166016
  0
SEQEND
  8
4
  0
POLYLINE
  8
4
  6
CONTINUOUS
 66
     1
 70
     0
 40
0.0
 41
0.0
  0
VERTEX
  8
4
 10
-69.46602630615234
 20
-161.9015045166016
  0
VERTEX
  8
4
 10
-71.46602630615234
 20
-161.9015045166016
  0
VERTEX
  8
4
 10
-70.87227630615234
 20
-162.2452545166016
  0
SEQEND
  8
4
  0
POLYLINE
  8
4
  6
CONTINUOUS
 66
     1
 70
     0
 40
0.0
 41
0.0
  0
VERTEX
  8
4
 10
-71.40352630615234
 20
-160.0890045166016
  0
VERTEX
  8
4
 10
-71.40352630615234
 20
-160.9015045166016
  0
VERTEX
  8
4
 10
-70.52852630615234
 20
-161.0265045166016
  0
VERTEX
  8
4
 10
-70.65352630615234
 20
-160.7140045166016
  0
VERTEX
  8
4
 10
-70.65352630615234
 20
-160.3390045166016
  0
VERTEX
  8
4
 10
-70.40352630615234
 20
-160.0265045166016
  0
VERTEX
  8
4
 10
-69.77852630615234
 20
-160.0265045166016
  0
VERTEX
  8
4
 10
-69.46602630615234
 20
-160.3390045166016
  0
VERTEX
  8
4
 10
-69.46602630615234
 20
-160.7140045166016
  0
VERTEX
  8
4
 10
-69.77852630615234
 20
-161.0265045166016
  0
SEQEND
  8
4
  0
ENDBLK
  8
4
  0
BLOCK
  8
4
  2
COMP16
 70
    64
 10
0.0
 20
0.0
  0
POLYLINE
  8
4
  6
CONTINUOUS
 66
     1
 70
     0
 40
0.0
 41
0.0
  0
VERTEX
  8
4
 10
-66.09102630615234
 20
-167.5890045166016
  0
VERTEX
  8
4
 10
-66.24562962475361
 20
-167.6558682471568
  0
VERTEX
  8
4
 10
-66.36852264404297
 20
-167.7714385986328
  0
VERTEX
  8
4
 10
-66.4450771064358
 20
-167.9217982227331
  0
VERTEX
  8
4
 10
-66.46602630615234
 20
-168.0890045166016
  0
VERTEX
  8
4
 10
-66.43901242634502
 20
-168.2689030782662
  0
VERTEX
  8
4
 10
-66.34694652011746
 20
-168.4261978245796
  0
VERTEX
  8
4
 10
-66.20326725082374
 20
-168.5383289141392
  0
VERTEX
  8
4
 10
-66.02852630615234
 20
-168.5890045166016
  0
VERTEX
  8
4
 10
-65.82301565002186
 20
-168.5607739343972
  0
VERTEX
  8
4
 10
-65.64376739119915
 20
-168.4555842417837
  0
VERTEX
  8
4
 10
-65.51824790644086
 20
-168.2898663870565
  0
VERTEX
  8
4
 10
-65.46602630615234
 20
-168.0890045166016
  0
VERTEX
  8
4
 10
-65.41917229524889
 20
-167.9030221877528
  0
VERTEX
  8
4
 10
-65.30977630615234
 20
-167.7452545166016
  0
VERTEX
  8
4
 10
-65.15200863500114
 20
-167.635858527505
  0
VERTEX
  8
4
 10
-64.96602630615234
 20
-167.5890045166016
  0
VERTEX
  8
4
 10
-64.77164691123957
 20
-167.6038817613133
  0
VERTEX
  8
4
 10
-64.60280724893832
 20
-167.7025917615319
  0
VERTEX
  8
4
 10
-64.49340932723118
 20
-167.8647333079569
  0
VERTEX
  8
4
 10
-64.46602630615234
 20
-168.0577545166016
  0
VERTEX
  8
4
 10
-64.49189675487473
 20
-168.2284074276499
  0
VERTEX
  8
4
 10
-64.56865274653944
 20
-168.3832490905966
  0
VERTEX
  8
4
 10
-64.68886142710866
 20
-168.5074404413795
  0
VERTEX
  8
4
 10
-64.84102630615234
 20
-168.5890045166016
  0
SEQEND
  8
4
  0
POLYLINE
  8
4
  6
CONTINUOUS
 66
     1
 70
     0
 40
0.0
 41
0.0
  0
VERTEX
  8
4
 10
-64.46602630615234
 20
-167.2140045166016
  0
VERTEX
  8
4
 10
-66.46602630615234
 20
-166.2140045166016
  0
SEQEND
  8
4
  0
POLYLINE
  8
4
  6
CONTINUOUS
 66
     1
 70
     0
 40
0.0
 41
0.0
  0
VERTEX
  8
4
 10
-64.46602630615234
 20
-165.8390045166016
  0
VERTEX
  8
4
 10
-66.46602630615234
 20
-165.8390045166016
  0
VERTEX
  8
4
 10
-64.46602630615234
 20
-164.8390045166016
  0
VERTEX
  8
4
 10
-66.46602630615234
 20
-164.8390045166016
  0
SEQEND
  8
4
  0
ENDBLK
  8
4
  0
BLOCK
  8
4
  2
COMP17
 70
    64
 10
0.0
 20
0.0
  0
POLYLINE
  8
4
  6
CONTINUOUS
 66
     1
 70
     0
 40
0.0
 41
0.0
  0
VERTEX
  8
4
 10
129.6882629394531
 20
-244.6978759765625
  0
VERTEX
  8
4
 10
130.2820129394531
 20
-244.6978759765625
  0
VERTEX
  8
4
 10
130.4174107350382
 20
-244.6041528340961
  0
VERTEX
  8
4
 10
130.4695129394531
 20
-244.4478759765625
  0
VERTEX
  8
4
 10
130.4174107350382
 20
-244.2915991190289
  0
VERTEX
  8
4
 10
130.2820129394531
 20
-244.1978759765625
  0
VERTEX
  8
4
 10
129.6882629394531
 20
-244.1978759765625
  0
VERTEX
  8
4
 10
129.5319375454632
 20
-244.2817503298869
  0
VERTEX
  8
4
 10
129.4695129394531
 20
-244.4478759765625
  0
VERTEX
  8
4
 10
129.5319375454632
 20
-244.6140016232382
  0
VERTEX
  8
4
 10
129.6882629394531
 20
-244.6978759765625
  0
SEQEND
  8
4
  0
ENDBLK
  8
4
  0
BLOCK
  8
4
  2
COMP18
 70
    64
 10
0.0
 20
0.0
  0
POLYLINE
  8
4
  6
CONTINUOUS
 66
     1
 70
     0
 40
0.0
 41
0.0
  0
VERTEX
  8
4
 10
130.9695129394531
 20
-244.1978759765625
  0
VERTEX
  8
4
 10
130.9695129394531
 20
-244.6978759765625
  0
VERTEX
  8
4
 10
131.9695129394531
 20
-244.6978759765625
  0
SEQEND
  8
4
  0
POLYLINE
  8
4
  6
CONTINUOUS
 66
     1
 70
     0
 40
0.0
 41
0.0
  0
VERTEX
  8
4
 10
131.4695129394531
 20
-244.6978759765625
  0
VERTEX
  8
4
 10
131.4695129394531
 20
-244.2603759765625
  0
SEQEND
  8
4
  0
ENDBLK
  8
4
  0
BLOCK
  8
4
  2
COMP19
 70
    64
 10
0.0
 20
0.0
  0
POLYLINE
  8
4
  6
CONTINUOUS
 66
     1
 70
     0
 40
0.0
 41
0.0
  0
VERTEX
  8
4
 10
132.4695129394531
 20
-244.1978759765625
  0
VERTEX
  8
4
 10
132.4695129394531
 20
-244.6978759765625
  0
VERTEX
  8
4
 10
133.4695129394531
 20
-244.6978759765625
  0
SEQEND
  8
4
  0
POLYLINE
  8
4
  6
CONTINUOUS
 66
     1
 70
     0
 40
0.0
 41
0.0
  0
VERTEX
  8
4
 10
132.9695129394531
 20
-244.6978759765625
  0
VERTEX
  8
4
 10
132.9695129394531
 20
-244.2603759765625
  0
SEQEND
  8
4
  0
ENDBLK
  8
4
  0
BLOCK
  8
4
  2
COMP20
 70
    64
 10
0.0
 20
0.0
  0
POLYLINE
  8
4
  6
CONTINUOUS
 66
     1
 70
     0
 40
0.0
 41
0.0
  0
VERTEX
  8
4
 10
138.6941528320313
 20
-246.4407501220703
  0
VERTEX
  8
4
 10
138.3191528320313
 20
-247.4720001220703
  0
VERTEX
  8
4
 10
139.0691528320313
 20
-247.4720001220703
  0
SEQEND
  8
4
  0
POLYLINE
  8
4
  6
CONTINUOUS
 66
     1
 70
     0
 40
0.0
 41
0.0
  0
VERTEX
  8
4
 10
138.8347778320313
 20
-247.9407501220703
  0
VERTEX
  8
4
 10
138.8347778320313
 20
-246.9563751220703
  0
SEQEND
  8
4
  0
ENDBLK
  8
4
  0
BLOCK
  8
4
  2
COMP21
 70
    64
 10
0.0
 20
0.0
  0
POLYLINE
  8
4
  6
CONTINUOUS
 66
     1
 70
     0
 40
0.0
 41
0.0
  0
VERTEX
  8
4
 10
135.4462280273438
 20
-246.7220001220703
  0
VERTEX
  8
4
 10
135.6806030273438
 20
-246.4407501220703
  0
VERTEX
  8
4
 10
135.9618530273438
 20
-246.4407501220703
  0
VERTEX
  8
4
 10
136.1962280273438
 20
-246.7220001220703
  0
VERTEX
  8
4
 10
136.1962280273438
 20
-246.9563751220703
  0
VERTEX
  8
4
 10
135.9149780273438
 20
-247.1907501220703
  0
VERTEX
  8
4
 10
135.6337280273438
 20
-247.1907501220703
  0
SEQEND
  8
4
  0
POLYLINE
  8
4
  6
CONTINUOUS
 66
     1
 70
     0
 40
0.0
 41
0.0
  0
VERTEX
  8
4
 10
135.9149780273438
 20
-247.1907501220703
  0
VERTEX
  8
4
 10
136.1962280273438
 20
-247.4720001220703
  0
VERTEX
  8
4
 10
136.1962280273438
 20
-247.7063751220703
  0
VERTEX
  8
4
 10
135.9618530273438
 20
-247.9407501220703
  0
VERTEX
  8
4
 10
135.6806030273438
 20
-247.9407501220703
  0
VERTEX
  8
4
 10
135.4462280273438
 20
-247.7063751220703
  0
SEQEND
  8
4
  0
ENDBLK
  8
4
  0
BLOCK
  8
4
  2
COMP22
 70
    64
 10
0.0
 20
0.0
  0
POLYLINE
  8
4
  6
CONTINUOUS
 66
     1
 70
     0
 40
0.0
 41
0.0
  0
VERTEX
  8
4
 10
132.5128021240234
 20
-246.7824859619141
  0
VERTEX
  8
4
 10
132.7471771240234
 20
-246.5012359619141
  0
VERTEX
  8
4
 10
133.0284271240234
 20
-246.5012359619141
  0
VERTEX
  8
4
 10
133.2628021240234
 20
-246.7824859619141
  0
VERTEX
  8
4
 10
133.2628021240234
 20
-247.1574859619141
  0
VERTEX
  8
4
 10
132.5128021240234
 20
-247.8137359619141
  0
VERTEX
  8
4
 10
132.5128021240234
 20
-248.0012359619141
  0
VERTEX
  8
4
 10
133.2628021240234
 20
-248.0012359619141
  0
SEQEND
  8
4
  0
ENDBLK
  8
4
  0
BLOCK
  8
4
  2
COMP23
 70
    64
 10
0.0
 20
0.0
  0
POLYLINE
  8
4
  6
CONTINUOUS
 66
     1
 70
     0
 40
0.0
 41
0.0
  0
VERTEX
  8
4
 10
130.0148773193359
 20
-248.0617218017578
  0
VERTEX
  8
4
 10
130.0148773193359
 20
-246.5617218017578
  0
VERTEX
  8
4
 10
129.7570648193359
 20
-247.0070343017578
  0
SEQEND
  8
4
  0
ENDBLK
  8
4
  0
BLOCK
  8
4
  2
COMP24
 70
    64
 10
0.0
 20
0.0
  0
POLYLINE
  8
4
  6
CONTINUOUS
 66
     1
 70
     0
 40
0.0
 41
0.0
  0
VERTEX
  8
4
 10
65.31397247314453
 20
-272.3389892578125
  0
VERTEX
  8
4
 10
65.31397247314453
 20
-271.7764892578125
  0
VERTEX
  8
4
 10
65.25865532204658
 20
-271.6050177157982
  0
VERTEX
  8
4
 10
65.14622376649587
 20
-271.4638384698327
  0
VERTEX
  8
4
 10
64.99133641194356
 20
-271.3711158586691
  0
VERTEX
  8
4
 10
64.81397247314453
 20
-271.3389892578125
  0
VERTEX
  8
4
 10
64.6366085343455
 20
-271.3711158586691
  0
VERTEX
  8
4
 10
64.4817211797932
 20
-271.4638384698327
  0
VERTEX
  8
4
 10
64.36928962424248
 20
-271.6050177157982
  0
VERTEX
  8
4
 10
64.31397247314453
 20
-271.7764892578125
  0
VERTEX
  8
4
 10
64.25865532204658
 20
-271.6050177157982
  0
VERTEX
  8
4
 10
64.14622376649587
 20
-271.4638384698327
  0
VERTEX
  8
4
 10
63.99133641194356
 20
-271.3711158586691
  0
VERTEX
  8
4
 10
63.81397247314453
 20
-271.3389892578125
  0
VERTEX
  8
4
 10
63.6366085343455
 20
-271.3711158586691
  0
VERTEX
  8
4
 10
63.4817211797932
 20
-271.4638384698327
  0
VERTEX
  8
4
 10
63.36928962424248
 20
-271.6050177157982
  0
VERTEX
  8
4
 10
63.31397247314453
 20
-271.7764892578125
  0
VERTEX
  8
4
 10
63.31397247314453
 20
-272.3389892578125
  0
VERTEX
  8
4
 10
65.31397247314453
 20
-272.3389892578125
  0
SEQEND
  8
4
  0
POLYLINE
  8
4
  6
CONTINUOUS
 66
     1
 70
     0
 40
0.0
 41
0.0
  0
VERTEX
  8
4
 10
64.31397247314453
 20
-272.3389892578125
  0
VERTEX
  8
4
 10
64.31397247314453
 20
-271.7764892578125
  0
SEQEND
  8
4
  0
POLYLINE
  8
4
  6
CONTINUOUS
 66
     1
 70
     0
 40
0.0
 41
0.0
  0
VERTEX
  8
4
 10
63.75147247314453
 20
-269.9639892578125
  0
VERTEX
  8
4
 10
63.58000093113014
 20
-270.0193064089105
  0
VERTEX
  8
4
 10
63.43882168516475
 20
-270.1317379644612
  0
VERTEX
  8
4
 10
63.34609907400115
 20
-270.2866253190134
  0
VERTEX
  8
4
 10
63.31397247314453
 20
-270.4639892578125
  0
VERTEX
  8
4
 10
63.34609907400115
 20
-270.6413531966116
  0
VERTEX
  8
4
 10
63.43882168516475
 20
-270.7962405511638
  0
VERTEX
  8
4
 10
63.58000093113014
 20
-270.9086721067145
  0
VERTEX
  8
4
 10
63.75147247314453
 20
-270.9639892578125
  0
VERTEX
  8
4
 10
64.93897247314453
 20
-270.9639892578125
  0
VERTEX
  8
4
 10
65.08951626919451
 20
-270.8923526806363
  0
VERTEX
  8
4
 10
65.20976806431474
 20
-270.7765429728797
  0
VERTEX
  8
4
 10
65.28729683188669
 20
-270.6286440882763
  0
VERTEX
  8
4
 10
65.31397247314453
 20
-270.4639892578125
  0
VERTEX
  8
4
 10
65.28729683188669
 20
-270.2993344273487
  0
VERTEX
  8
4
 10
65.20976806431474
 20
-270.1514355427453
  0
VERTEX
  8
4
 10
65.08951626919451
 20
-270.0356258349887
  0
VERTEX
  8
4
 10
64.93897247314453
 20
-269.9639892578125
  0
SEQEND
  8
4
  0
POLYLINE
  8
4
  6
CONTINUOUS
 66
     1
 70
     0
 40
0.0
 41
0.0
  0
VERTEX
  8
4
 10
65.31397247314453
 20
-269.5889892578125
  0
VERTEX
  8
4
 10
65.31397247314453
 20
-269.0577392578125
  0
VERTEX
  8
4
 10
65.28993309514402
 20
-268.8721793421959
  0
VERTEX
  8
4
 10
65.18900299072266
 20
-268.7139587402344
  0
VERTEX
  8
4
 10
65.03078238876118
 20
-268.613028635813
  0
VERTEX
  8
4
 10
64.84522247314453
 20
-268.5889892578125
  0
VERTEX
  8
4
 10
63.78272247314453
 20
-268.5889892578125
  0
VERTEX
  8
4
 10
63.59716255752787
 20
-268.613028635813
  0
VERTEX
  8
4
 10
63.43894195556641
 20
-268.7139587402344
  0
VERTEX
  8
4
 10
63.33801185114504
 20
-268.8721793421959
  0
VERTEX
  8
4
 10
63.31397247314453
 20
-269.0577392578125
  0
VERTEX
  8
4
 10
63.31397247314453
 20
-269.5889892578125
  0
VERTEX
  8
4
 10
65.31397247314453
 20
-269.5889892578125
  0
SEQEND
  8
4
  0
POLYLINE
  8
4
  6
CONTINUOUS
 66
     1
 70
     0
 40
0.0
 41
0.0
  0
VERTEX
  8
4
 10
64.31397247314453
 20
-267.2764892578125
  0
VERTEX
  8
4
 10
64.31397247314453
 20
-268.1514892578125
  0
SEQEND
  8
4
  0
POLYLINE
  8
4
  6
CONTINUOUS
 66
     1
 70
     0
 40
0.0
 41
0.0
  0
VERTEX
  8
4
 10
63.75147247314453
 20
-266.8389892578125
  0
VERTEX
  8
4
 10
64.93897247314453
 20
-266.8389892578125
  0
VERTEX
  8
4
 10
65.08951626919451
 20
-266.7673526806363
  0
VERTEX
  8
4
 10
65.20976806431474
 20
-266.6515429728797
  0
VERTEX
  8
4
 10
65.28729683188669
 20
-266.5036440882763
  0
VERTEX
  8
4
 10
65.31397247314453
 20
-266.3389892578125
  0
VERTEX
  8
4
 10
65.28729683188669
 20
-266.1743344273487
  0
VERTEX
  8
4
 10
65.20976806431474
 20
-266.0264355427453
  0
VERTEX
  8
4
 10
65.08951626919451
 20
-265.9106258349887
  0
VERTEX
  8
4
 10
64.93897247314453
 20
-265.8389892578125
  0
VERTEX
  8
4
 10
63.75147247314453
 20
-265.8389892578125
  0
VERTEX
  8
4
 10
63.58000093113014
 20
-265.8943064089105
  0
VERTEX
  8
4
 10
63.43882168516475
 20
-266.0067379644612
  0
VERTEX
  8
4
 10
63.34609907400115
 20
-266.1616253190134
  0
VERTEX
  8
4
 10
63.31397247314453
 20
-266.3389892578125
  0
VERTEX
  8
4
 10
63.34609907400115
 20
-266.5163531966116
  0
VERTEX
  8
4
 10
63.43882168516475
 20
-266.6712405511638
  0
VERTEX
  8
4
 10
63.58000093113014
 20
-266.7836721067145
  0
VERTEX
  8
4
 10
63.75147247314453
 20
-266.8389892578125
  0
SEQEND
  8
4
  0
POLYLINE
  8
4
  6
CONTINUOUS
 66
     1
 70
     0
 40
0.0
 41
0.0
  0
VERTEX
  8
4
 10
63.31397247314453
 20
-265.4639892578125
  0
VERTEX
  8
4
 10
64.93897247314453
 20
-265.4639892578125
  0
VERTEX
  8
4
 10
65.08951626919451
 20
-265.3923526806363
  0
VERTEX
  8
4
 10
65.20976806431474
 20
-265.2765429728797
  0
VERTEX
  8
4
 10
65.28729683188669
 20
-265.1286440882763
  0
VERTEX
  8
4
 10
65.31397247314453
 20
-264.9639892578125
  0
VERTEX
  8
4
 10
65.28729683188669
 20
-264.7993344273487
  0
VERTEX
  8
4
 10
65.20976806431474
 20
-264.6514355427453
  0
VERTEX
  8
4
 10
65.08951626919451
 20
-264.5356258349887
  0
VERTEX
  8
4
 10
64.93897247314453
 20
-264.4639892578125
  0
VERTEX
  8
4
 10
63.31397247314453
 20
-264.4639892578125
  0
SEQEND
  8
4
  0
POLYLINE
  8
4
  6
CONTINUOUS
 66
     1
 70
     0
 40
0.0
 41
0.0
  0
VERTEX
  8
4
 10
63.31397247314453
 20
-264.0889892578125
  0
VERTEX
  8
4
 10
63.31397247314453
 20
-263.0889892578125
  0
SEQEND
  8
4
  0
POLYLINE
  8
4
  6
CONTINUOUS
 66
     1
 70
     0
 40
0.0
 41
0.0
  0
VERTEX
  8
4
 10
63.31397247314453
 20
-263.5889892578125
  0
VERTEX
  8
4
 10
65.31397247314453
 20
-263.5889892578125
  0
SEQEND
  8
4
  0
ENDBLK
  8
4
  0
BLOCK
  8
13
  2
COMP25
 70
    64
 10
0.0
 20
0.0
  0
POLYLINE
  8
13
  6
CONTINUOUS
 66
     1
 70
     0
 40
0.0
 41
0.0
  0
VERTEX
  8
13
 10
39.71084976196289
 20
-275.1671142578125
  0
VERTEX
  8
13
 10
39.49651033444494
 20
-275.236260696685
  0
VERTEX
  8
13
 10
39.32003627698816
 20
-275.3768001411233
  0
VERTEX
  8
13
 10
39.20413301303365
 20
-275.5704093343137
  0
VERTEX
  8
13
 10
39.16397476196289
 20
-275.7921142578125
  0
VERTEX
  8
13
 10
39.20413301303365
 20
-276.0138191813113
  0
VERTEX
  8
13
 10
39.32003627698816
 20
-276.2074283745017
  0
VERTEX
  8
13
 10
39.49651033444494
 20
-276.3479678189401
  0
VERTEX
  8
13
 10
39.71084976196289
 20
-276.4171142578125
  0
VERTEX
  8
13
 10
41.19522476196289
 20
-276.4171142578125
  0
VERTEX
  8
13
 10
41.3834045070253
 20
-276.3275685363423
  0
VERTEX
  8
13
 10
41.53371925092566
 20
-276.1828064016466
  0
VERTEX
  8
13
 10
41.63063021039061
 20
-275.9979327958922
  0
VERTEX
  8
13
 10
41.66397476196289
 20
-275.7921142578125
  0
VERTEX
  8
13
 10
41.63063021039061
 20
-275.5862957197328
  0
VERTEX
  8
13
 10
41.53371925092566
 20
-275.4014221139784
  0
VERTEX
  8
13
 10
41.3834045070253
 20
-275.2566599792827
  0
VERTEX
  8
13
 10
41.19522476196289
 20
-275.1671142578125
  0
SEQEND
  8
13
  0
POLYLINE
  8
13
  6
CONTINUOUS
 66
     1
 70
     0
 40
0.0
 41
0.0
  0
VERTEX
  8
13
 10
39.71084976196289
 20
-274.6983642578125
  0
VERTEX
  8
13
 10
41.19522476196289
 20
-274.6983642578125
  0
VERTEX
  8
13
 10
41.3834045070253
 20
-274.6088185363423
  0
VERTEX
  8
13
 10
41.53371925092566
 20
-274.4640564016466
  0
VERTEX
  8
13
 10
41.63063021039061
 20
-274.2791827958922
  0
VERTEX
  8
13
 10
41.66397476196289
 20
-274.0733642578125
  0
VERTEX
  8
13
 10
41.63063021039061
 20
-273.8675457197328
  0
VERTEX
  8
13
 10
41.53371925092566
 20
-273.6826721139784
  0
VERTEX
  8
13
 10
41.3834045070253
 20
-273.5379099792827
  0
VERTEX
  8
13
 10
41.19522476196289
 20
-273.4483642578125
  0
VERTEX
  8
13
 10
39.71084976196289
 20
-273.4483642578125
  0
VERTEX
  8
13
 10
39.49651033444494
 20
-273.517510696685
  0
VERTEX
  8
13
 10
39.32003627698816
 20
-273.6580501411233
  0
VERTEX
  8
13
 10
39.20413301303365
 20
-273.8516593343137
  0
VERTEX
  8
13
 10
39.16397476196289
 20
-274.0733642578125
  0
VERTEX
  8
13
 10
39.20413301303365
 20
-274.2950691813113
  0
VERTEX
  8
13
 10
39.32003627698816
 20
-274.4886783745017
  0
VERTEX
  8
13
 10
39.49651033444494
 20
-274.6292178189401
  0
VERTEX
  8
13
 10
39.71084976196289
 20
-274.6983642578125
  0
SEQEND
  8
13
  0
POLYLINE
  8
13
  6
CONTINUOUS
 66
     1
 70
     0
 40
0.0
 41
0.0
  0
VERTEX
  8
13
 10
41.66397476196289
 20
-272.9796142578125
  0
VERTEX
  8
13
 10
39.16397476196289
 20
-272.9796142578125
  0
VERTEX
  8
13
 10
40.80459976196289
 20
-272.3546142578125
  0
VERTEX
  8
13
 10
39.16397476196289
 20
-271.7296142578125
  0
VERTEX
  8
13
 10
41.66397476196289
 20
-271.7296142578125
  0
SEQEND
  8
13
  0
POLYLINE
  8
13
  6
CONTINUOUS
 66
     1
 70
     0
 40
0.0
 41
0.0
  0
VERTEX
  8
13
 10
41.58584976196289
 20
-270.7921142578125
  0
VERTEX
  8
13
 10
41.35147476196289
 20
-270.7921142578125
  0
VERTEX
  8
13
 10
41.35147476196289
 20
-270.5186767578125
  0
VERTEX
  8
13
 10
41.58584976196289
 20
-270.5186767578125
  0
VERTEX
  8
13
 10
41.58584976196289
 20
-270.7921142578125
  0
SEQEND
  8
13
  0
ENDBLK
  8
13
  0
BLOCK
  8
13
  2
COMP26
 70
    64
 10
0.0
 20
0.0
  0
POLYLINE
  8
13
  6
CONTINUOUS
 66
     1
 70
     0
 40
0.0
 41
0.0
  0
VERTEX
  8
13
 10
34.36397552490234
 20
-275.5765075683594
  0
VERTEX
  8
13
 10
34.36397552490234
 20
-276.6264953613281
  0
VERTEX
  8
13
 10
36.46397399902344
 20
-276.6264953613281
  0
VERTEX
  8
13
 10
36.46397399902344
 20
-275.5765075683594
  0
SEQEND
  8
13
  0
POLYLINE
  8
13
  6
CONTINUOUS
 66
     1
 70
     0
 40
0.0
 41
0.0
  0
VERTEX
  8
13
 10
35.41397476196289
 20
-276.6264953613281
  0
VERTEX
  8
13
 10
35.41397476196289
 20
-275.5765075683594
  0
SEQEND
  8
13
  0
POLYLINE
  8
13
  6
CONTINUOUS
 66
     1
 70
     0
 40
0.0
 41
0.0
  0
VERTEX
  8
13
 10
35.41397476196289
 20
-275.1827392578125
  0
VERTEX
  8
13
 10
35.41397476196289
 20
-274.6577453613281
  0
VERTEX
  8
13
 10
35.3742168553795
 20
-274.4569824863071
  0
VERTEX
  8
13
 10
35.26020288572931
 20
-274.2865238198541
  0
VERTEX
  8
13
 10
35.08973966935767
 20
-274.1725099304111
  0
VERTEX
  8
13
 10
34.88897323608398
 20
-274.1327514648438
  0
VERTEX
  8
13
 10
34.68820779345455
 20
-274.1725097585875
  0
VERTEX
  8
13
 10
34.51774601159209
 20
-274.2865233021098
  0
VERTEX
  8
13
 10
34.40373307363467
 20
-274.4569819601984
  0
VERTEX
  8
13
 10
34.36397552490234
 20
-274.6577453613281
  0
VERTEX
  8
13
 10
34.36397552490234
 20
-275.1827392578125
  0
VERTEX
  8
13
 10
36.46397399902344
 20
-275.1827392578125
  0
SEQEND
  8
13
  0
POLYLINE
  8
13
  6
CONTINUOUS
 66
     1
 70
     0
 40
0.0
 41
0.0
  0
VERTEX
  8
13
 10
36.46397399902344
 20
-274.1327514648438
  0
VERTEX
  8
13
 10
35.41397476196289
 20
-274.6577453613281
  0
SEQEND
  8
13
  0
POLYLINE
  8
13
  6
CONTINUOUS
 66
     1
 70
     0
 40
0.0
 41
0.0
  0
VERTEX
  8
13
 10
35.41397476196289
 20
-273.7389831542969
  0
VERTEX
  8
13
 10
35.41397476196289
 20
-273.2139892578125
  0
VERTEX
  8
13
 10
35.3742168553795
 20
-273.0132263827915
  0
VERTEX
  8
13
 10
35.26020288572931
 20
-272.8427677163385
  0
VERTEX
  8
13
 10
35.08973966935767
 20
-272.7287538268955
  0
VERTEX
  8
13
 10
34.88897323608398
 20
-272.6889953613281
  0
VERTEX
  8
13
 10
34.68820779345455
 20
-272.7287536550718
  0
VERTEX
  8
13
 10
34.51774601159209
 20
-272.8427671985942
  0
VERTEX
  8
13
 10
34.40373307363467
 20
-273.0132258566828
  0
VERTEX
  8
13
 10
34.36397552490234
 20
-273.2139892578125
  0
VERTEX
  8
13
 10
34.36397552490234
 20
-273.7389831542969
  0
VERTEX
  8
13
 10
36.46397399902344
 20
-273.7389831542969
  0
SEQEND
  8
13
  0
POLYLINE
  8
13
  6
CONTINUOUS
 66
     1
 70
     0
 40
0.0
 41
0.0
  0
VERTEX
  8
13
 10
36.46397399902344
 20
-272.6889953613281
  0
VERTEX
  8
13
 10
35.41397476196289
 20
-273.2139892578125
  0
SEQEND
  8
13
  0
POLYLINE
  8
13
  6
CONTINUOUS
 66
     1
 70
     0
 40
0.0
 41
0.0
  0
VERTEX
  8
13
 10
34.82334899902344
 20
-272.2952270507813
  0
VERTEX
  8
13
 10
36.07022476196289
 20
-272.2952270507813
  0
VERTEX
  8
13
 10
36.22829492524879
 20
-272.2200092252344
  0
VERTEX
  8
13
 10
36.35455909029178
 20
-272.0984100956407
  0
VERTEX
  8
13
 10
36.4359644666724
 20
-271.9431179070275
  0
VERTEX
  8
13
 10
36.46397399902344
 20
-271.7702331542969
  0
VERTEX
  8
13
 10
36.4359644666724
 20
-271.5973484015663
  0
VERTEX
  8
13
 10
36.35455909029178
 20
-271.4420562129531
  0
VERTEX
  8
13
 10
36.22829492524879
 20
-271.3204570833593
  0
VERTEX
  8
13
 10
36.07022476196289
 20
-271.2452392578125
  0
VERTEX
  8
13
 10
34.82334899902344
 20
-271.2452392578125
  0
VERTEX
  8
13
 10
34.64330959534826
 20
-271.3033083272926
  0
VERTEX
  8
13
 10
34.49507159467085
 20
-271.4213576216956
  0
VERTEX
  8
13
 10
34.39770993454507
 20
-271.5839943282135
  0
VERTEX
  8
13
 10
34.36397552490234
 20
-271.7702331542969
  0
VERTEX
  8
13
 10
34.3977076094029
 20
-271.9564616135826
  0
VERTEX
  8
13
 10
34.49506452692883
 20
-272.1190891638127
  0
VERTEX
  8
13
 10
34.64330209841185
 20
-272.23714115574
  0
VERTEX
  8
13
 10
34.82334899902344
 20
-272.2952270507813
  0
SEQEND
  8
13
  0
POLYLINE
  8
13
  6
CONTINUOUS
 66
     1
 70
     0
 40
0.0
 41
0.0
  0
VERTEX
  8
13
 10
35.41397476196289
 20
-270.8514709472656
  0
VERTEX
  8
13
 10
35.41397476196289
 20
-270.3264770507813
  0
VERTEX
  8
13
 10
35.3742168553795
 20
-270.1257141757603
  0
VERTEX
  8
13
 10
35.26020288572931
 20
-269.9552555093072
  0
VERTEX
  8
13
 10
35.08973966935767
 20
-269.8412416198643
  0
VERTEX
  8
13
 10
34.88897323608398
 20
-269.8014831542969
  0
VERTEX
  8
13
 10
34.68820779345455
 20
-269.8412414480406
  0
VERTEX
  8
13
 10
34.51774601159209
 20
-269.9552549915629
  0
VERTEX
  8
13
 10
34.40373307363467
 20
-270.1257136496515
  0
VERTEX
  8
13
 10
34.36397552490234
 20
-270.3264770507813
  0
VERTEX
  8
13
 10
34.36397552490234
 20
-270.8514709472656
  0
VERTEX
  8
13
 10
36.46397399902344
 20
-270.8514709472656
  0
SEQEND
  8
13
  0
POLYLINE
  8
13
  6
CONTINUOUS
 66
     1
 70
     0
 40
0.0
 41
0.0
  0
VERTEX
  8
13
 10
36.46397399902344
 20
-269.8014831542969
  0
VERTEX
  8
13
 10
35.41397476196289
 20
-270.3264770507813
  0
SEQEND
  8
13
  0
ENDBLK
  8
13
  0
BLOCK
  8
13
  2
COMP27
 70
    64
 10
0.0
 20
0.0
  0
POLYLINE
  8
13
  6
CONTINUOUS
 66
     1
 70
     0
 40
0.0
 41
0.0
  0
VERTEX
  8
13
 10
31.41397476196289
 20
-275.5577392578125
  0
VERTEX
  8
13
 10
31.41397476196289
 20
-274.9327392578125
  0
VERTEX
  8
13
 10
31.3666420158385
 20
-274.693738315256
  0
VERTEX
  8
13
 10
31.23090744018555
 20
-274.4908065795898
  0
VERTEX
  8
13
 10
31.02797570451934
 20
-274.3550720039369
  0
VERTEX
  8
13
 10
30.78897476196289
 20
-274.3077392578125
  0
VERTEX
  8
13
 10
30.54997381940644
 20
-274.3550720039369
  0
VERTEX
  8
13
 10
30.34704208374023
 20
-274.4908065795898
  0
VERTEX
  8
13
 10
30.21130750808728
 20
-274.693738315256
  0
VERTEX
  8
13
 10
30.16397476196289
 20
-274.9327392578125
  0
VERTEX
  8
13
 10
30.16397476196289
 20
-275.5577392578125
  0
VERTEX
  8
13
 10
32.66397476196289
 20
-275.5577392578125
  0
SEQEND
  8
13
  0
POLYLINE
  8
13
  6
CONTINUOUS
 66
     1
 70
     0
 40
0.0
 41
0.0
  0
VERTEX
  8
13
 10
32.66397476196289
 20
-274.3077392578125
  0
VERTEX
  8
13
 10
31.41397476196289
 20
-274.9327392578125
  0
SEQEND
  8
13
  0
POLYLINE
  8
13
  6
CONTINUOUS
 66
     1
 70
     0
 40
0.0
 41
0.0
  0
VERTEX
  8
13
 10
30.16397476196289
 20
-273.8389892578125
  0
VERTEX
  8
13
 10
32.19522476196289
 20
-273.8389892578125
  0
VERTEX
  8
13
 10
32.3834045070253
 20
-273.7494435363423
  0
VERTEX
  8
13
 10
32.53371925092566
 20
-273.6046814016466
  0
VERTEX
  8
13
 10
32.63063021039061
 20
-273.4198077958922
  0
VERTEX
  8
13
 10
32.66397476196289
 20
-273.2139892578125
  0
VERTEX
  8
13
 10
32.63063021039061
 20
-273.0081707197328
  0
VERTEX
  8
13
 10
32.53371925092566
 20
-272.8232971139784
  0
VERTEX
  8
13
 10
32.3834045070253
 20
-272.6785349792827
  0
VERTEX
  8
13
 10
32.19522476196289
 20
-272.5889892578125
  0
VERTEX
  8
13
 10
30.16397476196289
 20
-272.5889892578125
  0
SEQEND
  8
13
  0
POLYLINE
  8
13
  6
CONTINUOUS
 66
     1
 70
     0
 40
0.0
 41
0.0
  0
VERTEX
  8
13
 10
32.66397476196289
 20
-272.1202392578125
  0
VERTEX
  8
13
 10
30.16397476196289
 20
-272.1202392578125
  0
VERTEX
  8
13
 10
32.66397476196289
 20
-270.8702392578125
  0
VERTEX
  8
13
 10
30.16397476196289
 20
-270.8702392578125
  0
SEQEND
  8
13
  0
ENDBLK
  8
13
  0
BLOCK
  8
13
  2
COMP28
 70
    64
 10
0.0
 20
0.0
  0
POLYLINE
  8
13
  6
CONTINUOUS
 66
     1
 70
     0
 40
0.0
 41
0.0
  0
VERTEX
  8
13
 10
31.41397094726563
 20
-268.7640075683594
  0
VERTEX
  8
13
 10
29.41397094726563
 20
-268.7640075683594
  0
VERTEX
  8
13
 10
30.00772094726563
 20
-269.1077575683594
  0
SEQEND
  8
13
  0
ENDBLK
  8
13
  0
BLOCK
  8
13
  2
COMP29
 70
    64
 10
0.0
 20
0.0
  0
POLYLINE
  8
13
  6
CONTINUOUS
 66
     1
 70
     0
 40
0.0
 41
0.0
  0
VERTEX
  8
13
 10
34.78897094726563
 20
-269.2640075683594
  0
VERTEX
  8
13
 10
34.41397094726563
 20
-268.9515075683594
  0
VERTEX
  8
13
 10
34.41397094726563
 20
-268.5765075683594
  0
VERTEX
  8
13
 10
34.78897094726563
 20
-268.2640075683594
  0
VERTEX
  8
13
 10
35.28897094726563
 20
-268.2640075683594
  0
VERTEX
  8
13
 10
36.16397094726563
 20
-269.2640075683594
  0
VERTEX
  8
13
 10
36.41397094726563
 20
-269.2640075683594
  0
VERTEX
  8
13
 10
36.41397094726563
 20
-268.2640075683594
  0
SEQEND
  8
13
  0
ENDBLK
  8
13
  0
BLOCK
  8
13
  2
COMP30
 70
    64
 10
0.0
 20
0.0
  0
POLYLINE
  8
13
  6
CONTINUOUS
 66
     1
 70
     0
 40
0.0
 41
0.0
  0
VERTEX
  8
13
 10
39.78897476196289
 20
-269.2640075683594
  0
VERTEX
  8
13
 10
39.41397476196289
 20
-268.9515075683594
  0
VERTEX
  8
13
 10
39.41397476196289
 20
-268.5765075683594
  0
VERTEX
  8
13
 10
39.78897476196289
 20
-268.2640075683594
  0
VERTEX
  8
13
 10
40.10147476196289
 20
-268.2640075683594
  0
VERTEX
  8
13
 10
40.41397476196289
 20
-268.6390075683594
  0
VERTEX
  8
13
 10
40.41397476196289
 20
-269.0140075683594
  0
SEQEND
  8
13
  0
POLYLINE
  8
13
  6
CONTINUOUS
 66
     1
 70
     0
 40
0.0
 41
0.0
  0
VERTEX
  8
13
 10
40.41397476196289
 20
-268.6390075683594
  0
VERTEX
  8
13
 10
40.78897476196289
 20
-268.2640075683594
  0
VERTEX
  8
13
 10
41.10147476196289
 20
-268.2640075683594
  0
VERTEX
  8
13
 10
41.41397476196289
 20
-268.5765075683594
  0
VERTEX
  8
13
 10
41.41397476196289
 20
-268.9515075683594
  0
VERTEX
  8
13
 10
41.10147476196289
 20
-269.2640075683594
  0
SEQEND
  8
13
  0
ENDBLK
  8
13
  0
BLOCK
  8
12
  2
COMP31
 70
    64
 10
0.0
 20
0.0
  0
POLYLINE
  8
12
  6
CONTINUOUS
 66
     1
 70
     0
 40
0.0
 41
0.0
  0
VERTEX
  8
12
 10
16.97085571289063
 20
-276.9639892578125
  0
VERTEX
  8
12
 10
17.59585571289063
 20
-274.4639892578125
  0
VERTEX
  8
12
 10
18.22085571289063
 20
-276.9639892578125
  0
SEQEND
  8
12
  0
POLYLINE
  8
12
  6
CONTINUOUS
 66
     1
 70
     0
 40
0.0
 41
0.0
  0
VERTEX
  8
12
 10
18.02554321289063
 20
-276.1827392578125
  0
VERTEX
  8
12
 10
17.16616821289063
 20
-276.1827392578125
  0
SEQEND
  8
12
  0
POLYLINE
  8
12
  6
CONTINUOUS
 66
     1
 70
     0
 40
0.0
 41
0.0
  0
VERTEX
  8
12
 10
19.15835571289063
 20
-276.8858642578125
  0
VERTEX
  8
12
 10
19.15835571289063
 20
-276.6514892578125
  0
VERTEX
  8
12
 10
19.43179321289063
 20
-276.6514892578125
  0
VERTEX
  8
12
 10
19.43179321289063
 20
-276.8858642578125
  0
VERTEX
  8
12
 10
19.15835571289063
 20
-276.8858642578125
  0
SEQEND
  8
12
  0
POLYLINE
  8
12
  6
CONTINUOUS
 66
     1
 70
     0
 40
0.0
 41
0.0
  0
VERTEX
  8
12
 10
21.65835571289063
 20
-275.0108642578125
  0
VERTEX
  8
12
 10
21.58920927401818
 20
-274.7965248302946
  0
VERTEX
  8
12
 10
21.44866982957979
 20
-274.6200507728378
  0
VERTEX
  8
12
 10
21.25506063638945
 20
-274.5041475088833
  0
VERTEX
  8
12
 10
21.03335571289063
 20
-274.4639892578125
  0
VERTEX
  8
12
 10
20.8116507893918
 20
-274.5041475088833
  0
VERTEX
  8
12
 10
20.61804159620146
 20
-274.6200507728378
  0
VERTEX
  8
12
 10
20.47750215176307
 20
-274.7965248302946
  0
VERTEX
  8
12
 10
20.40835571289063
 20
-275.0108642578125
  0
VERTEX
  8
12
 10
20.40835571289063
 20
-276.4952392578125
  0
VERTEX
  8
12
 10
20.49790143436088
 20
-276.6834190028749
  0
VERTEX
  8
12
 10
20.64266356905657
 20
-276.8337337467753
  0
VERTEX
  8
12
 10
20.82753717481091
 20
-276.9306447062402
  0
VERTEX
  8
12
 10
21.03335571289063
 20
-276.9639892578125
  0
VERTEX
  8
12
 10
21.23917425097034
 20
-276.9306447062402
  0
VERTEX
  8
12
 10
21.42404785672468
 20
-276.8337337467753
  0
VERTEX
  8
12
 10
21.56880999142037
 20
-276.6834190028749
  0
VERTEX
  8
12
 10
21.65835571289063
 20
-276.4952392578125
  0
SEQEND
  8
12
  0
POLYLINE
  8
12
  6
CONTINUOUS
 66
     1
 70
     0
 40
0.0
 41
0.0
  0
VERTEX
  8
12
 10
21.65835571289063
 20
-276.9639892578125
  0
VERTEX
  8
12
 10
21.65835571289063
 20
-275.7530517578125
  0
VERTEX
  8
12
 10
21.03335571289063
 20
-275.7530517578125
  0
SEQEND
  8
12
  0
POLYLINE
  8
12
  6
CONTINUOUS
 66
     1
 70
     0
 40
0.0
 41
0.0
  0
VERTEX
  8
12
 10
22.59585571289063
 20
-276.8858642578125
  0
VERTEX
  8
12
 10
22.59585571289063
 20
-276.6514892578125
  0
VERTEX
  8
12
 10
22.86929321289063
 20
-276.6514892578125
  0
VERTEX
  8
12
 10
22.86929321289063
 20
-276.8858642578125
  0
VERTEX
  8
12
 10
22.59585571289063
 20
-276.8858642578125
  0
SEQEND
  8
12
  0
ENDBLK
  8
12
  0
BLOCK
  8
12
  2
COMP32
 70
    64
 10
0.0
 20
0.0
  0
POLYLINE
  8
12
  6
CONTINUOUS
 66
     1
 70
     0
 40
0.0
 41
0.0
  0
VERTEX
  8
12
 10
19.48648071289063
 20
-273.2139892578125
  0
VERTEX
  8
12
 10
19.48648071289063
 20
-271.2139892578125
  0
VERTEX
  8
12
 10
19.14273071289063
 20
-271.8077392578125
  0
SEQEND
  8
12
  0
POLYLINE
  8
12
  6
CONTINUOUS
 66
     1
 70
     0
 40
0.0
 41
0.0
  0
VERTEX
  8
12
 10
20.86148071289063
 20
-273.2139892578125
  0
VERTEX
  8
12
 10
20.86148071289063
 20
-271.2139892578125
  0
VERTEX
  8
12
 10
20.51773071289063
 20
-271.8077392578125
  0
SEQEND
  8
12
  0
ENDBLK
  8
12
  0
BLOCK
  8
12
  2
COMP33
 70
    64
 10
0.0
 20
0.0
  0
POLYLINE
  8
12
  6
CONTINUOUS
 66
     1
 70
     0
 40
0.0
 41
0.0
  0
VERTEX
  8
12
 10
11.86646938323975
 20
-273.2139892578125
  0
VERTEX
  8
12
 10
11.86646938323975
 20
-271.2139892578125
  0
VERTEX
  8
12
 10
11.52271938323975
 20
-271.8077392578125
  0
SEQEND
  8
12
  0
POLYLINE
  8
12
  6
CONTINUOUS
 66
     1
 70
     0
 40
0.0
 41
0.0
  0
VERTEX
  8
12
 10
12.80396938323975
 20
-271.5889892578125
  0
VERTEX
  8
12
 10
12.80396938323975
 20
-272.8389892578125
  0
VERTEX
  8
12
 10
12.84366733593333
 20
-272.9845999927581
  0
VERTEX
  8
12
 10
12.93389933754445
 20
-273.1059090008607
  0
VERTEX
  8
12
 10
13.0619855826462
 20
-273.1861277799305
  0
VERTEX
  8
12
 10
13.21021938323975
 20
-273.2139892578125
  0
VERTEX
  8
12
 10
13.3584531838333
 20
-273.1861277799305
  0
VERTEX
  8
12
 10
13.48653942893504
 20
-273.1059090008607
  0
VERTEX
  8
12
 10
13.57677143054616
 20
-272.9845999927581
  0
VERTEX
  8
12
 10
13.61646938323975
 20
-272.8389892578125
  0
VERTEX
  8
12
 10
13.61646938323975
 20
-271.5889892578125
  0
VERTEX
  8
12
 10
13.57677143054616
 20
-271.4433785228669
  0
VERTEX
  8
12
 10
13.48653942893504
 20
-271.3220695147643
  0
VERTEX
  8
12
 10
13.3584531838333
 20
-271.2418507356945
  0
VERTEX
  8
12
 10
13.21021938323975
 20
-271.2139892578125
  0
VERTEX
  8
12
 10
13.0619855826462
 20
-271.2418507356945
  0
VERTEX
  8
12
 10
12.93389933754445
 20
-271.3220695147643
  0
VERTEX
  8
12
 10
12.84366733593333
 20
-271.4433785228669
  0
VERTEX
  8
12
 10
12.80396938323975
 20
-271.5889892578125
  0
SEQEND
  8
12
  0
ENDBLK
  8
12
  0
BLOCK
  8
12
  2
COMP34
 70
    64
 10
0.0
 20
0.0
  0
POLYLINE
  8
12
  6
CONTINUOUS
 66
     1
 70
     0
 40
0.0
 41
0.0
  0
VERTEX
  8
12
 10
13.17896938323975
 20
-274.4639892578125
  0
VERTEX
  8
12
 10
11.92896938323975
 20
-274.4639892578125
  0
VERTEX
  8
12
 10
11.92896938323975
 20
-276.9639892578125
  0
VERTEX
  8
12
 10
13.17896938323975
 20
-276.9639892578125
  0
SEQEND
  8
12
  0
POLYLINE
  8
12
  6
CONTINUOUS
 66
     1
 70
     0
 40
0.0
 41
0.0
  0
VERTEX
  8
12
 10
11.92896938323975
 20
-275.7139892578125
  0
VERTEX
  8
12
 10
13.17896938323975
 20
-275.7139892578125
  0
SEQEND
  8
12
  0
ENDBLK
  8
12
  0
BLOCK
  8
12
  2
COMP35
 70
    64
 10
0.0
 20
0.0
  0
POLYLINE
  8
12
  6
CONTINUOUS
 66
     1
 70
     0
 40
0.0
 41
0.0
  0
VERTEX
  8
12
 10
5.121474266052246
 20
-271.2139892578125
  0
VERTEX
  8
12
 10
4.746474266052246
 20
-271.2139892578125
  0
VERTEX
  8
12
 10
4.433974266052246
 20
-271.5264892578125
  0
VERTEX
  8
12
 10
4.433974266052246
 20
-272.0889892578125
  0
VERTEX
  8
12
 10
4.746474266052246
 20
-272.4014892578125
  0
VERTEX
  8
12
 10
5.121474266052246
 20
-272.4014892578125
  0
VERTEX
  8
12
 10
5.308974266052246
 20
-272.3389892578125
  0
VERTEX
  8
12
 10
5.433974266052246
 20
-272.0889892578125
  0
VERTEX
  8
12
 10
5.433974266052246
 20
-271.5264892578125
  0
VERTEX
  8
12
 10
5.121474266052246
 20
-271.2139892578125
  0
SEQEND
  8
12
  0
POLYLINE
  8
12
  6
CONTINUOUS
 66
     1
 70
     0
 40
0.0
 41
0.0
  0
VERTEX
  8
12
 10
5.308974266052246
 20
-272.3389892578125
  0
VERTEX
  8
12
 10
5.058974266052246
 20
-272.9014892578125
  0
VERTEX
  8
12
 10
4.683974266052246
 20
-273.2139892578125
  0
SEQEND
  8
12
  0
ENDBLK
  8
12
  0
BLOCK
  8
12
  2
COMP36
 70
    64
 10
0.0
 20
0.0
  0
POLYLINE
  8
12
  6
CONTINUOUS
 66
     1
 70
     0
 40
0.0
 41
0.0
  0
VERTEX
  8
12
 10
4.308974266052246
 20
-276.9639892578125
  0
VERTEX
  8
12
 10
5.012099266052246
 20
-276.9639892578125
  0
VERTEX
  8
12
 10
5.226438693570204
 20
-276.8948428189401
  0
VERTEX
  8
12
 10
5.402912751026981
 20
-276.7543033745017
  0
VERTEX
  8
12
 10
5.518816014981487
 20
-276.5606941813113
  0
VERTEX
  8
12
 10
5.558974266052246
 20
-276.3389892578125
  0
VERTEX
  8
12
 10
5.518816014981487
 20
-276.1172843343137
  0
VERTEX
  8
12
 10
5.402912751026981
 20
-275.9236751411233
  0
VERTEX
  8
12
 10
5.226438693570204
 20
-275.783135696685
  0
VERTEX
  8
12
 10
5.012099266052246
 20
-275.7139892578125
  0
VERTEX
  8
12
 10
5.226438693570204
 20
-275.6448428189401
  0
VERTEX
  8
12
 10
5.402912751026981
 20
-275.5043033745017
  0
VERTEX
  8
12
 10
5.518816014981487
 20
-275.3106941813113
  0
VERTEX
  8
12
 10
5.558974266052246
 20
-275.0889892578125
  0
VERTEX
  8
12
 10
5.518816014981487
 20
-274.8672843343137
  0
VERTEX
  8
12
 10
5.402912751026981
 20
-274.6736751411233
  0
VERTEX
  8
12
 10
5.226438693570204
 20
-274.533135696685
  0
VERTEX
  8
12
 10
5.012099266052246
 20
-274.4639892578125
  0
VERTEX
  8
12
 10
4.308974266052246
 20
-274.4639892578125
  0
VERTEX
  8
12
 10
4.308974266052246
 20
-276.9639892578125
  0
SEQEND
  8
12
  0
POLYLINE
  8
12
  6
CONTINUOUS
 66
     1
 70
     0
 40
0.0
 41
0.0
  0
VERTEX
  8
12
 10
4.308974266052246
 20
-275.7139892578125
  0
VERTEX
  8
12
 10
5.012099266052246
 20
-275.7139892578125
  0
SEQEND
  8
12
  0
ENDBLK
  8
12
  0
BLOCK
  8
12
  2
COMP37
 70
    64
 10
0.0
 20
0.0
  0
POLYLINE
  8
12
  6
CONTINUOUS
 66
     1
 70
     0
 40
0.0
 41
0.0
  0
VERTEX
  8
12
 10
-56.02602005004883
 20
-273.2139892578125
  0
VERTEX
  8
12
 10
-56.02602005004883
 20
-271.2139892578125
  0
VERTEX
  8
12
 10
-56.36977005004883
 20
-271.8077392578125
  0
SEQEND
  8
12
  0
ENDBLK
  8
12
  0
BLOCK
  8
12
  2
COMP38
 70
    64
 10
0.0
 20
0.0
  0
POLYLINE
  8
12
  6
CONTINUOUS
 66
     1
 70
     0
 40
0.0
 41
0.0
  0
VERTEX
  8
12
 10
-55.37685775756836
 20
-275.7224731445313
  0
VERTEX
  8
12
 10
-56.62685775756836
 20
-275.7224731445313
  0
SEQEND
  8
12
  0
POLYLINE
  8
12
  6
CONTINUOUS
 66
     1
 70
     0
 40
0.0
 41
0.0
  0
VERTEX
  8
12
 10
-56.00185775756836
 20
-276.3474731445313
  0
VERTEX
  8
12
 10
-56.00185775756836
 20
-275.0974731445313
  0
SEQEND
  8
12
  0
ENDBLK
  8
12
  0
BLOCK
  8
12
  2
COMP39
 70
    64
 10
0.0
 20
0.0
  0
POLYLINE
  8
12
  6
CONTINUOUS
 66
     1
 70
     0
 40
0.0
 41
0.0
  0
VERTEX
  8
12
 10
-54.66525268554688
 20
-274.9639892578125
  0
VERTEX
  8
12
 10
-54.26681518554688
 20
-274.9639892578125
  0
VERTEX
  8
12
 10
-54.12764524883438
 20
-274.9459597243121
  0
VERTEX
  8
12
 10
-54.00897979736328
 20
-274.8702621459961
  0
VERTEX
  8
12
 10
-53.93328221904726
 20
-274.751596694525
  0
VERTEX
  8
12
 10
-53.91525268554688
 20
-274.6124267578125
  0
VERTEX
  8
12
 10
-53.91525268554688
 20
-273.8155517578125
  0
VERTEX
  8
12
 10
-53.93328221904726
 20
-273.6763818211
  0
VERTEX
  8
12
 10
-54.00897979736328
 20
-273.5577163696289
  0
VERTEX
  8
12
 10
-54.12764524883438
 20
-273.4820187913129
  0
VERTEX
  8
12
 10
-54.26681518554688
 20
-273.4639892578125
  0
VERTEX
  8
12
 10
-54.66525268554688
 20
-273.4639892578125
  0
VERTEX
  8
12
 10
-54.66525268554688
 20
-274.9639892578125
  0
SEQEND
  8
12
  0
POLYLINE
  8
12
  6
CONTINUOUS
 66
     1
 70
     0
 40
0.0
 41
0.0
  0
VERTEX
  8
12
 10
-52.88400268554688
 20
-273.7921142578125
  0
VERTEX
  8
12
 10
-52.92549054887035
 20
-273.6635106013017
  0
VERTEX
  8
12
 10
-53.00981421553338
 20
-273.5576261668277
  0
VERTEX
  8
12
 10
-53.12597973144757
 20
-273.488084208455
  0
VERTEX
  8
12
 10
-53.25900268554688
 20
-273.4639892578125
  0
VERTEX
  8
12
 10
-53.39202563964619
 20
-273.488084208455
  0
VERTEX
  8
12
 10
-53.50819115556038
 20
-273.5576261668277
  0
VERTEX
  8
12
 10
-53.5925148222234
 20
-273.6635106013017
  0
VERTEX
  8
12
 10
-53.63400268554688
 20
-273.7921142578125
  0
VERTEX
  8
12
 10
-53.63400268554688
 20
-274.6827392578125
  0
VERTEX
  8
12
 10
-53.58027525266473
 20
-274.7956471048499
  0
VERTEX
  8
12
 10
-53.49341797184731
 20
-274.8858359511902
  0
VERTEX
  8
12
 10
-53.38249380839469
 20
-274.9439825268692
  0
VERTEX
  8
12
 10
-53.25900268554688
 20
-274.9639892578125
  0
VERTEX
  8
12
 10
-53.13551156269906
 20
-274.9439825268692
  0
VERTEX
  8
12
 10
-53.02458739924644
 20
-274.8858359511902
  0
VERTEX
  8
12
 10
-52.93773011842902
 20
-274.7956471048499
  0
VERTEX
  8
12
 10
-52.88400268554688
 20
-274.6827392578125
  0
SEQEND
  8
12
  0
POLYLINE
  8
12
  6
CONTINUOUS
 66
     1
 70
     0
 40
0.0
 41
0.0
  0
VERTEX
  8
12
 10
-52.60275268554688
 20
-273.7452392578125
  0
VERTEX
  8
12
 10
-52.36837768554688
 20
-273.4639892578125
  0
VERTEX
  8
12
 10
-52.08712768554688
 20
-273.4639892578125
  0
VERTEX
  8
12
 10
-51.85275268554688
 20
-273.7452392578125
  0
VERTEX
  8
12
 10
-51.85275268554688
 20
-274.1202392578125
  0
VERTEX
  8
12
 10
-52.60275268554688
 20
-274.7764892578125
  0
VERTEX
  8
12
 10
-52.60275268554688
 20
-274.9639892578125
  0
VERTEX
  8
12
 10
-51.85275268554688
 20
-274.9639892578125
  0
SEQEND
  8
12
  0
POLYLINE
  8
12
  6
CONTINUOUS
 66
     1
 70
     0
 40
0.0
 41
0.0
  0
VERTEX
  8
12
 10
-51.19650268554688
 20
-273.4639892578125
  0
VERTEX
  8
12
 10
-51.57150268554688
 20
-274.4952392578125
  0
VERTEX
  8
12
 10
-50.82150268554688
 20
-274.4952392578125
  0
SEQEND
  8
12
  0
POLYLINE
  8
12
  6
CONTINUOUS
 66
     1
 70
     0
 40
0.0
 41
0.0
  0
VERTEX
  8
12
 10
-51.05587768554688
 20
-274.9639892578125
  0
VERTEX
  8
12
 10
-51.05587768554688
 20
-273.9796142578125
  0
SEQEND
  8
12
  0
POLYLINE
  8
12
  6
CONTINUOUS
 66
     1
 70
     0
 40
0.0
 41
0.0
  0
VERTEX
  8
12
 10
-49.79025268554688
 20
-273.4639892578125
  0
VERTEX
  8
12
 10
-50.16525268554688
 20
-274.9639892578125
  0
VERTEX
  8
12
 10
-50.54025268554688
 20
-273.4639892578125
  0
SEQEND
  8
12
  0
ENDBLK
  8
12
  0
BLOCK
  8
12
  2
COMP40
 70
    64
 10
0.0
 20
0.0
  0
POLYLINE
  8
12
  6
CONTINUOUS
 66
     1
 70
     0
 40
0.0
 41
0.0
  0
VERTEX
  8
12
 10
-48.90602493286133
 20
-271.5889892578125
  0
VERTEX
  8
12
 10
-48.59352493286133
 20
-271.2139892578125
  0
VERTEX
  8
12
 10
-48.21852493286133
 20
-271.2139892578125
  0
VERTEX
  8
12
 10
-47.90602493286133
 20
-271.5889892578125
  0
VERTEX
  8
12
 10
-47.90602493286133
 20
-272.0889892578125
  0
VERTEX
  8
12
 10
-48.90602493286133
 20
-272.9639892578125
  0
VERTEX
  8
12
 10
-48.90602493286133
 20
-273.2139892578125
  0
VERTEX
  8
12
 10
-47.90602493286133
 20
-273.2139892578125
  0
SEQEND
  8
12
  0
ENDBLK
  8
12
  0
BLOCK
  8
12
  2
COMP41
 70
    64
 10
0.0
 20
0.0
  0
POLYLINE
  8
12
  6
CONTINUOUS
 66
     1
 70
     0
 40
0.0
 41
0.0
  0
VERTEX
  8
12
 10
-47.7718620300293
 20
-275.7224731445313
  0
VERTEX
  8
12
 10
-48.8656120300293
 20
-275.7224731445313
  0
SEQEND
  8
12
  0
ENDBLK
  8
12
  0
BLOCK
  8
12
  2
COMP42
 70
    64
 10
0.0
 20
0.0
  0
POLYLINE
  8
12
  6
CONTINUOUS
 66
     1
 70
     0
 40
0.0
 41
0.0
  0
VERTEX
  8
12
 10
-41.96063232421875
 20
-275.0707397460938
  0
VERTEX
  8
12
 10
-42.02977876309119
 20
-274.8564003185758
  0
VERTEX
  8
12
 10
-42.17031820752958
 20
-274.679926261119
  0
VERTEX
  8
12
 10
-42.36392740071993
 20
-274.5640229971645
  0
VERTEX
  8
12
 10
-42.58563232421875
 20
-274.5238647460938
  0
VERTEX
  8
12
 10
-42.80733724771757
 20
-274.5640229971645
  0
VERTEX
  8
12
 10
-43.00094644090792
 20
-274.679926261119
  0
VERTEX
  8
12
 10
-43.14148588534631
 20
-274.8564003185758
  0
VERTEX
  8
12
 10
-43.21063232421875
 20
-275.0707397460938
  0
VERTEX
  8
12
 10
-43.21063232421875
 20
-276.5551147460938
  0
VERTEX
  8
12
 10
-43.1210866027485
 20
-276.7432944911562
  0
VERTEX
  8
12
 10
-42.97632446805281
 20
-276.8936092350565
  0
VERTEX
  8
12
 10
-42.79145086229847
 20
-276.9905201945215
  0
VERTEX
  8
12
 10
-42.58563232421875
 20
-277.0238647460938
  0
VERTEX
  8
12
 10
-42.37981378613903
 20
-276.9905201945215
  0
VERTEX
  8
12
 10
-42.19494018038469
 20
-276.8936092350565
  0
VERTEX
  8
12
 10
-42.050178045689
 20
-276.7432944911562
  0
VERTEX
  8
12
 10
-41.96063232421875
 20
-276.5551147460938
  0
SEQEND
  8
12
  0
POLYLINE
  8
12
  6
CONTINUOUS
 66
     1
 70
     0
 40
0.0
 41
0.0
  0
VERTEX
  8
12
 10
-41.96063232421875
 20
-277.0238647460938
  0
VERTEX
  8
12
 10
-41.96063232421875
 20
-275.8129272460938
  0
VERTEX
  8
12
 10
-42.58563232421875
 20
-275.8129272460938
  0
SEQEND
  8
12
  0
POLYLINE
  8
12
  6
CONTINUOUS
 66
     1
 70
     0
 40
0.0
 41
0.0
  0
VERTEX
  8
12
 10
-41.49188232421875
 20
-277.0238647460938
  0
VERTEX
  8
12
 10
-41.49188232421875
 20
-274.5238647460938
  0
VERTEX
  8
12
 10
-40.24188232421875
 20
-277.0238647460938
  0
VERTEX
  8
12
 10
-40.24188232421875
 20
-274.5238647460938
  0
SEQEND
  8
12
  0
POLYLINE
  8
12
  6
CONTINUOUS
 66
     1
 70
     0
 40
0.0
 41
0.0
  0
VERTEX
  8
12
 10
-39.77313232421875
 20
-277.0238647460938
  0
VERTEX
  8
12
 10
-39.10906982421875
 20
-277.0238647460938
  0
VERTEX
  8
12
 10
-38.87711992969793
 20
-276.9938155235931
  0
VERTEX
  8
12
 10
-38.67934417724609
 20
-276.8676528930664
  0
VERTEX
  8
12
 10
-38.55318154671939
 20
-276.6698771406146
  0
VERTEX
  8
12
 10
-38.52313232421875
 20
-276.4379272460938
  0
VERTEX
  8
12
 10
-38.52313232421875
 20
-275.1098022460938
  0
VERTEX
  8
12
 10
-38.55318154671939
 20
-274.8778523515729
  0
VERTEX
  8
12
 10
-38.67934417724609
 20
-274.6800765991211
  0
VERTEX
  8
12
 10
-38.87711992969793
 20
-274.5539139685944
  0
VERTEX
  8
12
 10
-39.10906982421875
 20
-274.5238647460938
  0
VERTEX
  8
12
 10
-39.77313232421875
 20
-274.5238647460938
  0
VERTEX
  8
12
 10
-39.77313232421875
 20
-277.0238647460938
  0
SEQEND
  8
12
  0
ENDBLK
  8
12
  0
BLOCK
  8
12
  2
COMP43
 70
    64
 10
0.0
 20
0.0
  0
POLYLINE
  8
12
  6
CONTINUOUS
 66
     1
 70
     0
 40
0.0
 41
0.0
  0
VERTEX
  8
12
 10
-41.28602981567383
 20
-271.5889892578125
  0
VERTEX
  8
12
 10
-40.97352981567383
 20
-271.2139892578125
  0
VERTEX
  8
12
 10
-40.59852981567383
 20
-271.2139892578125
  0
VERTEX
  8
12
 10
-40.28602981567383
 20
-271.5889892578125
  0
VERTEX
  8
12
 10
-40.28602981567383
 20
-271.9014892578125
  0
VERTEX
  8
12
 10
-40.66102981567383
 20
-272.2139892578125
  0
VERTEX
  8
12
 10
-41.03602981567383
 20
-272.2139892578125
  0
SEQEND
  8
12
  0
POLYLINE
  8
12
  6
CONTINUOUS
 66
     1
 70
     0
 40
0.0
 41
0.0
  0
VERTEX
  8
12
 10
-40.66102981567383
 20
-272.2139892578125
  0
VERTEX
  8
12
 10
-40.28602981567383
 20
-272.5889892578125
  0
VERTEX
  8
12
 10
-40.28602981567383
 20
-272.9014892578125
  0
VERTEX
  8
12
 10
-40.59852981567383
 20
-273.2139892578125
  0
VERTEX
  8
12
 10
-40.97352981567383
 20
-273.2139892578125
  0
VERTEX
  8
12
 10
-41.28602981567383
 20
-272.9014892578125
  0
SEQEND
  8
12
  0
ENDBLK
  8
12
  0
BLOCK
  8
12
  2
COMP44
 70
    64
 10
0.0
 20
0.0
  0
POLYLINE
  8
12
  6
CONTINUOUS
 66
     1
 70
     0
 40
0.0
 41
0.0
  0
VERTEX
  8
12
 10
-33.16603469848633
 20
-271.2139892578125
  0
VERTEX
  8
12
 10
-33.66603469848633
 20
-272.5889892578125
  0
VERTEX
  8
12
 10
-32.66603469848633
 20
-272.5889892578125
  0
SEQEND
  8
12
  0
POLYLINE
  8
12
  6
CONTINUOUS
 66
     1
 70
     0
 40
0.0
 41
0.0
  0
VERTEX
  8
12
 10
-32.97853469848633
 20
-273.2139892578125
  0
VERTEX
  8
12
 10
-32.97853469848633
 20
-271.9014892578125
  0
SEQEND
  8
12
  0
ENDBLK
  8
12
  0
BLOCK
  8
12
  2
COMP45
 70
    64
 10
0.0
 20
0.0
  0
POLYLINE
  8
12
  6
CONTINUOUS
 66
     1
 70
     0
 40
0.0
 41
0.0
  0
VERTEX
  8
12
 10
-33.79103469848633
 20
-276.9639892578125
  0
VERTEX
  8
12
 10
-33.16603469848633
 20
-274.4639892578125
  0
VERTEX
  8
12
 10
-32.54103469848633
 20
-276.9639892578125
  0
SEQEND
  8
12
  0
POLYLINE
  8
12
  6
CONTINUOUS
 66
     1
 70
     0
 40
0.0
 41
0.0
  0
VERTEX
  8
12
 10
-32.73634719848633
 20
-276.1827392578125
  0
VERTEX
  8
12
 10
-33.59572219848633
 20
-276.1827392578125
  0
SEQEND
  8
12
  0
ENDBLK
  8
12
  0
BLOCK
  8
12
  2
COMP46
 70
    64
 10
0.0
 20
0.0
  0
POLYLINE
  8
12
  6
CONTINUOUS
 66
     1
 70
     0
 40
0.0
 41
0.0
  0
VERTEX
  8
12
 10
-24.92102432250977
 20
-274.4639892578125
  0
VERTEX
  8
12
 10
-26.17102432250977
 20
-274.4639892578125
  0
VERTEX
  8
12
 10
-26.17102432250977
 20
-276.9639892578125
  0
SEQEND
  8
12
  0
POLYLINE
  8
12
  6
CONTINUOUS
 66
     1
 70
     0
 40
0.0
 41
0.0
  0
VERTEX
  8
12
 10
-26.17102432250977
 20
-275.7139892578125
  0
VERTEX
  8
12
 10
-25.07727432250977
 20
-275.7139892578125
  0
SEQEND
  8
12
  0
ENDBLK
  8
12
  0
BLOCK
  8
12
  2
COMP47
 70
    64
 10
0.0
 20
0.0
  0
POLYLINE
  8
12
  6
CONTINUOUS
 66
     1
 70
     0
 40
0.0
 41
0.0
  0
VERTEX
  8
12
 10
-25.10852432250977
 20
-271.2764892578125
  0
VERTEX
  8
12
 10
-25.92102432250977
 20
-271.2764892578125
  0
VERTEX
  8
12
 10
-26.04602432250977
 20
-272.1514892578125
  0
VERTEX
  8
12
 10
-25.73352432250977
 20
-272.0264892578125
  0
VERTEX
  8
12
 10
-25.35852432250977
 20
-272.0264892578125
  0
VERTEX
  8
12
 10
-25.04602432250977
 20
-272.2764892578125
  0
VERTEX
  8
12
 10
-25.04602432250977
 20
-272.9014892578125
  0
VERTEX
  8
12
 10
-25.35852432250977
 20
-273.2139892578125
  0
VERTEX
  8
12
 10
-25.73352432250977
 20
-273.2139892578125
  0
VERTEX
  8
12
 10
-26.04602432250977
 20
-272.9014892578125
  0
SEQEND
  8
12
  0
ENDBLK
  8
12
  0
BLOCK
  8
12
  2
COMP48
 70
    64
 10
0.0
 20
0.0
  0
POLYLINE
  8
12
  6
CONTINUOUS
 66
     1
 70
     0
 40
0.0
 41
0.0
  0
VERTEX
  8
12
 10
-18.426025390625
 20
-272.3389892578125
  0
VERTEX
  8
12
 10
-18.113525390625
 20
-272.0264892578125
  0
VERTEX
  8
12
 10
-17.738525390625
 20
-272.0264892578125
  0
VERTEX
  8
12
 10
-17.426025390625
 20
-272.3389892578125
  0
VERTEX
  8
12
 10
-17.426025390625
 20
-272.9014892578125
  0
VERTEX
  8
12
 10
-17.738525390625
 20
-273.2139892578125
  0
VERTEX
  8
12
 10
-18.113525390625
 20
-273.2139892578125
  0
VERTEX
  8
12
 10
-18.426025390625
 20
-272.9014892578125
  0
VERTEX
  8
12
 10
-18.426025390625
 20
-271.5264892578125
  0
VERTEX
  8
12
 10
-18.113525390625
 20
-271.2139892578125
  0
VERTEX
  8
12
 10
-17.738525390625
 20
-271.2139892578125
  0
VERTEX
  8
12
 10
-17.426025390625
 20
-271.5264892578125
  0
SEQEND
  8
12
  0
ENDBLK
  8
12
  0
BLOCK
  8
12
  2
COMP49
 70
    64
 10
0.0
 20
0.0
  0
POLYLINE
  8
12
  6
CONTINUOUS
 66
     1
 70
     0
 40
0.0
 41
0.0
  0
VERTEX
  8
12
 10
-17.301025390625
 20
-275.0108642578125
  0
VERTEX
  8
12
 10
-17.37017182949745
 20
-274.7965248302946
  0
VERTEX
  8
12
 10
-17.51071127393583
 20
-274.6200507728378
  0
VERTEX
  8
12
 10
-17.70432046712618
 20
-274.5041475088833
  0
VERTEX
  8
12
 10
-17.926025390625
 20
-274.4639892578125
  0
VERTEX
  8
12
 10
-18.14773031412382
 20
-274.5041475088833
  0
VERTEX
  8
12
 10
-18.34133950731417
 20
-274.6200507728378
  0
VERTEX
  8
12
 10
-18.48187895175255
 20
-274.7965248302946
  0
VERTEX
  8
12
 10
-18.551025390625
 20
-275.0108642578125
  0
VERTEX
  8
12
 10
-18.551025390625
 20
-276.4952392578125
  0
VERTEX
  8
12
 10
-18.46147966915475
 20
-276.6834190028749
  0
VERTEX
  8
12
 10
-18.31671753445906
 20
-276.8337337467753
  0
VERTEX
  8
12
 10
-18.13184392870472
 20
-276.9306447062402
  0
VERTEX
  8
12
 10
-17.926025390625
 20
-276.9639892578125
  0
VERTEX
  8
12
 10
-17.72020685254528
 20
-276.9306447062402
  0
VERTEX
  8
12
 10
-17.53533324679094
 20
-276.8337337467753
  0
VERTEX
  8
12
 10
-17.39057111209525
 20
-276.6834190028749
  0
VERTEX
  8
12
 10
-17.301025390625
 20
-276.4952392578125
  0
SEQEND
  8
12
  0
POLYLINE
  8
12
  6
CONTINUOUS
 66
     1
 70
     0
 40
0.0
 41
0.0
  0
VERTEX
  8
12
 10
-17.301025390625
 20
-276.9639892578125
  0
VERTEX
  8
12
 10
-17.301025390625
 20
-275.7530517578125
  0
VERTEX
  8
12
 10
-17.926025390625
 20
-275.7530517578125
  0
SEQEND
  8
12
  0
ENDBLK
  8
12
  0
BLOCK
  8
12
  2
COMP50
 70
    64
 10
0.0
 20
0.0
  0
POLYLINE
  8
12
  6
CONTINUOUS
 66
     1
 70
     0
 40
0.0
 41
0.0
  0
VERTEX
  8
12
 10
-10.80603122711182
 20
-271.7764892578125
  0
VERTEX
  8
12
 10
-10.80603122711182
 20
-271.2764892578125
  0
VERTEX
  8
12
 10
-9.806031227111816
 20
-271.2764892578125
  0
VERTEX
  8
12
 10
-10.43103122711182
 20
-273.2139892578125
  0
SEQEND
  8
12
  0
ENDBLK
  8
12
  0
BLOCK
  8
12
  2
COMP51
 70
    64
 10
0.0
 20
0.0
  0
POLYLINE
  8
12
  6
CONTINUOUS
 66
     1
 70
     0
 40
0.0
 41
0.0
  0
VERTEX
  8
12
 10
-9.681031227111816
 20
-275.0108642578125
  0
VERTEX
  8
12
 10
-9.750177665984264
 20
-274.7965248302946
  0
VERTEX
  8
12
 10
-9.890717110422649
 20
-274.6200507728378
  0
VERTEX
  8
12
 10
-10.08432630361299
 20
-274.5041475088833
  0
VERTEX
  8
12
 10
-10.30603122711182
 20
-274.4639892578125
  0
VERTEX
  8
12
 10
-10.52773615061064
 20
-274.5041475088833
  0
VERTEX
  8
12
 10
-10.72134534380098
 20
-274.6200507728378
  0
VERTEX
  8
12
 10
-10.86188478823937
 20
-274.7965248302946
  0
VERTEX
  8
12
 10
-10.93103122711182
 20
-275.0108642578125
  0
VERTEX
  8
12
 10
-10.93103122711182
 20
-276.4952392578125
  0
VERTEX
  8
12
 10
-10.84148550564157
 20
-276.6834190028749
  0
VERTEX
  8
12
 10
-10.69672337094588
 20
-276.8337337467753
  0
VERTEX
  8
12
 10
-10.51184976519154
 20
-276.9306447062402
  0
VERTEX
  8
12
 10
-10.30603122711182
 20
-276.9639892578125
  0
VERTEX
  8
12
 10
-10.1002126890321
 20
-276.9306447062402
  0
VERTEX
  8
12
 10
-9.915339083277756
 20
-276.8337337467753
  0
VERTEX
  8
12
 10
-9.770576948582066
 20
-276.6834190028749
  0
VERTEX
  8
12
 10
-9.681031227111816
 20
-276.4952392578125
  0
SEQEND
  8
12
  0
ENDBLK
  8
12
  0
BLOCK
  8
12
  2
COMP52
 70
    64
 10
0.0
 20
0.0
  0
POLYLINE
  8
12
  6
CONTINUOUS
 66
     1
 70
     0
 40
0.0
 41
0.0
  0
VERTEX
  8
12
 10
-2.498520851135254
 20
-271.2139892578125
  0
VERTEX
  8
12
 10
-2.248520851135254
 20
-271.4639892578125
  0
VERTEX
  8
12
 10
-2.248520851135254
 20
-271.9639892578125
  0
VERTEX
  8
12
 10
-2.498520851135254
 20
-272.1514892578125
  0
VERTEX
  8
12
 10
-2.873520851135254
 20
-272.1514892578125
  0
VERTEX
  8
12
 10
-3.123520851135254
 20
-271.9639892578125
  0
VERTEX
  8
12
 10
-3.123520851135254
 20
-271.4639892578125
  0
VERTEX
  8
12
 10
-2.873520851135254
 20
-271.2139892578125
  0
VERTEX
  8
12
 10
-2.498520851135254
 20
-271.2139892578125
  0
SEQEND
  8
12
  0
POLYLINE
  8
12
  6
CONTINUOUS
 66
     1
 70
     0
 40
0.0
 41
0.0
  0
VERTEX
  8
12
 10
-2.873520851135254
 20
-272.1514892578125
  0
VERTEX
  8
12
 10
-3.186020851135254
 20
-272.4014892578125
  0
VERTEX
  8
12
 10
-3.186020851135254
 20
-272.9014892578125
  0
VERTEX
  8
12
 10
-2.873520851135254
 20
-273.2139892578125
  0
VERTEX
  8
12
 10
-2.498520851135254
 20
-273.2139892578125
  0
VERTEX
  8
12
 10
-2.186020851135254
 20
-272.9014892578125
  0
VERTEX
  8
12
 10
-2.186020851135254
 20
-272.4014892578125
  0
VERTEX
  8
12
 10
-2.498520851135254
 20
-272.1514892578125
  0
SEQEND
  8
12
  0
ENDBLK
  8
12
  0
BLOCK
  8
12
  2
COMP53
 70
    64
 10
0.0
 20
0.0
  0
POLYLINE
  8
12
  6
CONTINUOUS
 66
     1
 70
     0
 40
0.0
 41
0.0
  0
VERTEX
  8
12
 10
-3.311020851135254
 20
-276.9639892578125
  0
VERTEX
  8
12
 10
-2.646958351135254
 20
-276.9639892578125
  0
VERTEX
  8
12
 10
-2.415008456614433
 20
-276.9339400353119
  0
VERTEX
  8
12
 10
-2.217232704162598
 20
-276.8077774047852
  0
VERTEX
  8
12
 10
-2.091070073635894
 20
-276.6100016523333
  0
VERTEX
  8
12
 10
-2.061020851135254
 20
-276.3780517578125
  0
VERTEX
  8
12
 10
-2.061020851135254
 20
-275.0499267578125
  0
VERTEX
  8
12
 10
-2.091070073635894
 20
-274.8179768632917
  0
VERTEX
  8
12
 10
-2.217232704162598
 20
-274.6202011108398
  0
VERTEX
  8
12
 10
-2.415008456614433
 20
-274.4940384803131
  0
VERTEX
  8
12
 10
-2.646958351135254
 20
-274.4639892578125
  0
VERTEX
  8
12
 10
-3.311020851135254
 20
-274.4639892578125
  0
VERTEX
  8
12
 10
-3.311020851135254
 20
-276.9639892578125
  0
SEQEND
  8
12
  0
ENDBLK
  8
12
  0
BLOCK
  8
4
  2
COMP54
 70
    64
 10
0.0
 20
0.0
  0
POLYLINE
  8
4
  6
CONTINUOUS
 66
     1
 70
     0
 40
0.0
 41
0.0
  0
VERTEX
  8
4
 10
128.4616851806641
 20
-237.3908538818359
  0
VERTEX
  8
4
 10
129.2585601806641
 20
-237.3908538818359
 42
0.4666666666666667
  0
VERTEX
  8
4
 10
129.9616851806641
 20
-236.6877288818359
  0
VERTEX
  8
4
 10
129.9616851806641
 20
-235.0939788818359
 42
0.4666666666666667
  0
VERTEX
  8
4
 10
129.2585601806641
 20
-234.3908538818359
  0
VERTEX
  8
4
 10
128.4616851806641
 20
-234.3908538818359
  0
VERTEX
  8
4
 10
128.4616851806641
 20
-237.3908538818359
  0
SEQEND
  8
4
  0
POLYLINE
  8
4
  6
CONTINUOUS
 66
     1
 70
     0
 40
0.0
 41
0.0
  0
VERTEX
  8
4
 10
130.9929351806641
 20
-234.3908538818359
  0
VERTEX
  8
4
 10
131.5554351806641
 20
-234.3908538818359
  0
SEQEND
  8
4
  0
POLYLINE
  8
4
  6
CONTINUOUS
 66
     1
 70
     0
 40
0.0
 41
0.0
  0
VERTEX
  8
4
 10
130.9929351806641
 20
-237.3908538818359
  0
VERTEX
  8
4
 10
131.5554351806641
 20
-237.3908538818359
  0
SEQEND
  8
4
  0
POLYLINE
  8
4
  6
CONTINUOUS
 66
     1
 70
     0
 40
0.0
 41
0.0
  0
VERTEX
  8
4
 10
131.2741851806641
 20
-237.3908538818359
  0
VERTEX
  8
4
 10
131.2741851806641
 20
-234.3908538818359
  0
SEQEND
  8
4
  0
POLYLINE
  8
4
  6
CONTINUOUS
 66
     1
 70
     0
 40
0.0
 41
0.0
  0
VERTEX
  8
4
 10
132.5866851806641
 20
-235.8908538818359
  0
VERTEX
  8
4
 10
133.3366851806641
 20
-235.8908538818359
 42
0.4142135623731064
  0
VERTEX
  8
4
 10
134.0866851806641
 20
-235.1408538818359
 42
0.4142135623731064
  0
VERTEX
  8
4
 10
133.3366851806641
 20
-234.3908538818359
  0
VERTEX
  8
4
 10
132.5866851806641
 20
-234.3908538818359
  0
VERTEX
  8
4
 10
132.5866851806641
 20
-237.3908538818359
  0
SEQEND
  8
4
  0
POLYLINE
  8
4
  6
CONTINUOUS
 66
     1
 70
     0
 40
0.0
 41
0.0
  0
VERTEX
  8
4
 10
134.6491851806641
 20
-234.9533538818359
  0
VERTEX
  8
4
 10
135.1179351806641
 20
-234.3908538818359
  0
VERTEX
  8
4
 10
135.6804351806641
 20
-234.3908538818359
  0
VERTEX
  8
4
 10
136.1491851806641
 20
-234.9533538818359
  0
VERTEX
  8
4
 10
136.1491851806641
 20
-235.7033538818359
  0
VERTEX
  8
4
 10
134.6491851806641
 20
-237.0158538818359
  0
VERTEX
  8
4
 10
134.6491851806641
 20
-237.3908538818359
  0
VERTEX
  8
4
 10
136.1491851806641
 20
-237.3908538818359
  0
SEQEND
  8
4
  0
POLYLINE
  8
4
  6
CONTINUOUS
 66
     1
 70
     0
 40
0.0
 41
0.0
  0
VERTEX
  8
4
 10
136.8054351806641
 20
-234.9533538818359
  0
VERTEX
  8
4
 10
136.8054351806641
 20
-236.8283538818359
 42
0.9230769230769231
  0
VERTEX
  8
4
 10
138.0241851806641
 20
-236.8283538818359
  0
VERTEX
  8
4
 10
138.0241851806641
 20
-234.9533538818359
 42
0.9230769230769231
  0
VERTEX
  8
4
 10
136.8054351806641
 20
-234.9533538818359
  0
SEQEND
  8
4
  0
POLYLINE
  8
4
  6
CONTINUOUS
 66
     1
 70
     0
 40
0.0
 41
0.0
  0
VERTEX
  8
4
 10
139.5241851806641
 20
-237.3908538818359
  0
VERTEX
  8
4
 10
139.5241851806641
 20
-234.3908538818359
  0
VERTEX
  8
4
 10
139.0085601806641
 20
-235.2814788818359
  0
SEQEND
  8
4
  0
ENDBLK
  8
4
  0
BLOCK
  8
4
  2
COMP55
 70
    64
 10
0.0
 20
0.0
  0
POLYLINE
  8
4
  6
CONTINUOUS
 66
     1
 70
     0
 40
0.0
 41
0.0
  0
VERTEX
  8
4
 10
76.83596801757813
 20
-196.6275634765625
  0
VERTEX
  8
4
 10
77.67971801757813
 20
-196.6275634765625
 42
0.8749999999999999
  0
VERTEX
  8
4
 10
77.67971801757813
 20
-195.1275634765625
 42
0.8749999999999999
  0
VERTEX
  8
4
 10
77.67971801757813
 20
-193.6275634765625
  0
VERTEX
  8
4
 10
76.83596801757813
 20
-193.6275634765625
  0
VERTEX
  8
4
 10
76.83596801757813
 20
-196.6275634765625
  0
SEQEND
  8
4
  0
POLYLINE
  8
4
  6
CONTINUOUS
 66
     1
 70
     0
 40
0.0
 41
0.0
  0
VERTEX
  8
4
 10
76.83596801757813
 20
-195.1275634765625
  0
VERTEX
  8
4
 10
77.67971801757813
 20
-195.1275634765625
  0
SEQEND
  8
4
  0
POLYLINE
  8
4
  6
CONTINUOUS
 66
     1
 70
     0
 40
0.0
 41
0.0
  0
VERTEX
  8
4
 10
78.89846801757813
 20
-196.6275634765625
  0
VERTEX
  8
4
 10
79.64846801757813
 20
-193.6275634765625
  0
VERTEX
  8
4
 10
80.39846801757813
 20
-196.6275634765625
  0
SEQEND
  8
4
  0
POLYLINE
  8
4
  6
CONTINUOUS
 66
     1
 70
     0
 40
0.0
 41
0.0
  0
VERTEX
  8
4
 10
80.16409301757813
 20
-195.6900634765625
  0
VERTEX
  8
4
 10
79.13284301757813
 20
-195.6900634765625
  0
SEQEND
  8
4
  0
POLYLINE
  8
4
  6
CONTINUOUS
 66
     1
 70
     0
 40
0.0
 41
0.0
  0
VERTEX
  8
4
 10
80.96096801757813
 20
-193.6275634765625
  0
VERTEX
  8
4
 10
82.46096801757813
 20
-193.6275634765625
  0
SEQEND
  8
4
  0
POLYLINE
  8
4
  6
CONTINUOUS
 66
     1
 70
     0
 40
0.0
 41
0.0
  0
VERTEX
  8
4
 10
81.71096801757813
 20
-193.6275634765625
  0
VERTEX
  8
4
 10
81.71096801757813
 20
-196.6275634765625
  0
SEQEND
  8
4
  0
POLYLINE
  8
4
  6
CONTINUOUS
 66
     1
 70
     0
 40
0.0
 41
0.0
  0
VERTEX
  8
4
 10
83.02346801757813
 20
-193.6275634765625
  0
VERTEX
  8
4
 10
84.52346801757813
 20
-193.6275634765625
  0
SEQEND
  8
4
  0
POLYLINE
  8
4
  6
CONTINUOUS
 66
     1
 70
     0
 40
0.0
 41
0.0
  0
VERTEX
  8
4
 10
83.77346801757813
 20
-193.6275634765625
  0
VERTEX
  8
4
 10
83.77346801757813
 20
-196.6275634765625
  0
SEQEND
  8
4
  0
ENDBLK
  8
4
  0
BLOCK
  8
4
  2
COMP56
 70
    64
 10
0.0
 20
0.0
  0
POLYLINE
  8
4
  6
CONTINUOUS
 66
     1
 70
     0
 40
0.0
 41
0.0
  0
VERTEX
  8
4
 10
55.38908767700195
 20
-175.1633605957031
  0
VERTEX
  8
4
 10
55.38908767700195
 20
-177.6008605957031
 42
0.75
  0
VERTEX
  8
4
 10
56.88908767700195
 20
-177.6008605957031
  0
VERTEX
  8
4
 10
56.88908767700195
 20
-175.1633605957031
  0
SEQEND
  8
4
  0
POLYLINE
  8
4
  6
CONTINUOUS
 66
     1
 70
     0
 40
0.0
 41
0.0
  0
VERTEX
  8
4
 10
57.45158767700195
 20
-175.7258605957031
  0
VERTEX
  8
4
 10
57.92033767700195
 20
-175.1633605957031
  0
VERTEX
  8
4
 10
58.48283767700195
 20
-175.1633605957031
  0
VERTEX
  8
4
 10
58.95158767700195
 20
-175.7258605957031
  0
VERTEX
  8
4
 10
58.95158767700195
 20
-176.4758605957031
  0
VERTEX
  8
4
 10
57.45158767700195
 20
-177.7883605957031
  0
VERTEX
  8
4
 10
57.45158767700195
 20
-178.1633605957031
  0
VERTEX
  8
4
 10
58.95158767700195
 20
-178.1633605957031
  0
SEQEND
  8
4
  0
POLYLINE
  8
4
  6
CONTINUOUS
 66
     1
 70
     0
 40
0.0
 41
0.0
  0
VERTEX
  8
4
 10
59.60783767700195
 20
-175.7258605957031
  0
VERTEX
  8
4
 10
59.60783767700195
 20
-177.6008605957031
 42
0.9230769230769231
  0
VERTEX
  8
4
 10
60.82658767700195
 20
-177.6008605957031
  0
VERTEX
  8
4
 10
60.82658767700195
 20
-175.7258605957031
 42
0.9230769230769231
  0
VERTEX
  8
4
 10
59.60783767700195
 20
-175.7258605957031
  0
SEQEND
  8
4
  0
POLYLINE
  8
4
  6
CONTINUOUS
 66
     1
 70
     0
 40
0.0
 41
0.0
  0
VERTEX
  8
4
 10
61.57658767700195
 20
-175.7258605957031
  0
VERTEX
  8
4
 10
62.04533767700195
 20
-175.1633605957031
  0
VERTEX
  8
4
 10
62.60783767700195
 20
-175.1633605957031
  0
VERTEX
  8
4
 10
63.07658767700195
 20
-175.7258605957031
  0
VERTEX
  8
4
 10
63.07658767700195
 20
-176.4758605957031
  0
VERTEX
  8
4
 10
61.57658767700195
 20
-177.7883605957031
  0
VERTEX
  8
4
 10
61.57658767700195
 20
-178.1633605957031
  0
VERTEX
  8
4
 10
63.07658767700195
 20
-178.1633605957031
  0
SEQEND
  8
4
  0
ENDBLK
  8
4
  0
BLOCK
  8
4
  2
COMP57
 70
    64
 10
0.0
 20
0.0
  0
POLYLINE
  8
4
  6
CONTINUOUS
 66
     1
 70
     0
 40
0.0
 41
0.0
  0
VERTEX
  8
4
 10
-3.554330110549927
 20
-195.758056640625
  0
VERTEX
  8
4
 10
-3.554330110549927
 20
-198.195556640625
 42
0.75
  0
VERTEX
  8
4
 10
-2.054330110549927
 20
-198.195556640625
  0
VERTEX
  8
4
 10
-2.054330110549927
 20
-195.758056640625
  0
SEQEND
  8
4
  0
POLYLINE
  8
4
  6
CONTINUOUS
 66
     1
 70
     0
 40
0.0
 41
0.0
  0
VERTEX
  8
4
 10
-1.491830110549927
 20
-196.320556640625
  0
VERTEX
  8
4
 10
-1.023080110549927
 20
-195.758056640625
  0
VERTEX
  8
4
 10
-0.4605801105499268
 20
-195.758056640625
  0
VERTEX
  8
4
 10
0.008169889450073242
 20
-196.320556640625
  0
VERTEX
  8
4
 10
0.008169889450073242
 20
-196.789306640625
  0
VERTEX
  8
4
 10
-0.5543301105499268
 20
-197.258056640625
  0
VERTEX
  8
4
 10
-1.116830110549927
 20
-197.258056640625
  0
SEQEND
  8
4
  0
POLYLINE
  8
4
  6
CONTINUOUS
 66
     1
 70
     0
 40
0.0
 41
0.0
  0
VERTEX
  8
4
 10
-0.5543301105499268
 20
-197.258056640625
  0
VERTEX
  8
4
 10
0.008169889450073242
 20
-197.820556640625
  0
VERTEX
  8
4
 10
0.008169889450073242
 20
-198.289306640625
  0
VERTEX
  8
4
 10
-0.4605801105499268
 20
-198.758056640625
  0
VERTEX
  8
4
 10
-1.023080110549927
 20
-198.758056640625
  0
VERTEX
  8
4
 10
-1.491830110549927
 20
-198.289306640625
  0
SEQEND
  8
4
  0
POLYLINE
  8
4
  6
CONTINUOUS
 66
     1
 70
     0
 40
0.0
 41
0.0
  0
VERTEX
  8
4
 10
0.6644198894500732
 20
-196.320556640625
  0
VERTEX
  8
4
 10
0.6644198894500732
 20
-198.195556640625
 42
0.9230769230769231
  0
VERTEX
  8
4
 10
1.883169889450073
 20
-198.195556640625
  0
VERTEX
  8
4
 10
1.883169889450073
 20
-196.320556640625
 42
0.9230769230769231
  0
VERTEX
  8
4
 10
0.6644198894500732
 20
-196.320556640625
  0
SEQEND
  8
4
  0
POLYLINE
  8
4
  6
CONTINUOUS
 66
     1
 70
     0
 40
0.0
 41
0.0
  0
VERTEX
  8
4
 10
3.383169889450073
 20
-198.758056640625
  0
VERTEX
  8
4
 10
3.383169889450073
 20
-195.758056640625
  0
VERTEX
  8
4
 10
2.867544889450073
 20
-196.648681640625
  0
SEQEND
  8
4
  0
ENDBLK
  8
4
  0
BLOCK
  8
4
  2
COMP58
 70
    64
 10
0.0
 20
0.0
  0
POLYLINE
  8
4
  6
CONTINUOUS
 66
     1
 70
     0
 40
0.0
 41
0.0
  0
VERTEX
  8
4
 10
6.282924652099609
 20
-218.9093170166016
  0
VERTEX
  8
4
 10
7.782924652099609
 20
-218.9093170166016
  0
SEQEND
  8
4
  0
POLYLINE
  8
4
  6
CONTINUOUS
 66
     1
 70
     0
 40
0.0
 41
0.0
  0
VERTEX
  8
4
 10
7.032924652099609
 20
-218.9093170166016
  0
VERTEX
  8
4
 10
7.032924652099609
 20
-221.9093170166016
  0
SEQEND
  8
4
  0
POLYLINE
  8
4
  6
CONTINUOUS
 66
     1
 70
     0
 40
0.0
 41
0.0
  0
VERTEX
  8
4
 10
8.345424652099609
 20
-220.4093170166016
  0
VERTEX
  8
4
 10
9.095424652099609
 20
-220.4093170166016
 42
0.4142135623730997
  0
VERTEX
  8
4
 10
9.845424652099609
 20
-219.6593170166016
 42
0.4142135623731037
  0
VERTEX
  8
4
 10
9.095424652099609
 20
-218.9093170166016
  0
VERTEX
  8
4
 10
8.345424652099609
 20
-218.9093170166016
  0
VERTEX
  8
4
 10
8.345424652099609
 20
-221.9093170166016
  0
SEQEND
  8
4
  0
POLYLINE
  8
4
  6
CONTINUOUS
 66
     1
 70
     0
 40
0.0
 41
0.0
  0
VERTEX
  8
4
 10
9.845424652099609
 20
-221.9093170166016
  0
VERTEX
  8
4
 10
9.095424652099609
 20
-220.4093170166016
  0
SEQEND
  8
4
  0
POLYLINE
  8
4
  6
CONTINUOUS
 66
     1
 70
     0
 40
0.0
 41
0.0
  0
VERTEX
  8
4
 10
11.15792465209961
 20
-221.9093170166016
  0
VERTEX
  8
4
 10
11.15792465209961
 20
-218.9093170166016
  0
VERTEX
  8
4
 10
10.64229965209961
 20
-219.7999420166016
  0
SEQEND
  8
4
  0
ENDBLK
  8
4
  0
BLOCK
  8
4
  2
COMP59
 70
    64
 10
0.0
 20
0.0
  0
POLYLINE
  8
4
  6
CONTINUOUS
 66
     1
 70
     0
 40
0.0
 41
0.0
  0
VERTEX
  8
4
 10
6.282924652099609
 20
-233.6806793212891
  0
VERTEX
  8
4
 10
7.782924652099609
 20
-233.6806793212891
  0
SEQEND
  8
4
  0
POLYLINE
  8
4
  6
CONTINUOUS
 66
     1
 70
     0
 40
0.0
 41
0.0
  0
VERTEX
  8
4
 10
7.032924652099609
 20
-233.6806793212891
  0
VERTEX
  8
4
 10
7.032924652099609
 20
-236.6806793212891
  0
SEQEND
  8
4
  0
POLYLINE
  8
4
  6
CONTINUOUS
 66
     1
 70
     0
 40
0.0
 41
0.0
  0
VERTEX
  8
4
 10
8.345424652099609
 20
-235.1806793212891
  0
VERTEX
  8
4
 10
9.095424652099609
 20
-235.1806793212891
 42
0.4142135623730997
  0
VERTEX
  8
4
 10
9.845424652099609
 20
-234.4306793212891
 42
0.4142135623731037
  0
VERTEX
  8
4
 10
9.095424652099609
 20
-233.6806793212891
  0
VERTEX
  8
4
 10
8.345424652099609
 20
-233.6806793212891
  0
VERTEX
  8
4
 10
8.345424652099609
 20
-236.6806793212891
  0
SEQEND
  8
4
  0
POLYLINE
  8
4
  6
CONTINUOUS
 66
     1
 70
     0
 40
0.0
 41
0.0
  0
VERTEX
  8
4
 10
9.845424652099609
 20
-236.6806793212891
  0
VERTEX
  8
4
 10
9.095424652099609
 20
-235.1806793212891
  0
SEQEND
  8
4
  0
POLYLINE
  8
4
  6
CONTINUOUS
 66
     1
 70
     0
 40
0.0
 41
0.0
  0
VERTEX
  8
4
 10
10.40792465209961
 20
-234.2431793212891
  0
VERTEX
  8
4
 10
10.87667465209961
 20
-233.6806793212891
  0
VERTEX
  8
4
 10
11.43917465209961
 20
-233.6806793212891
  0
VERTEX
  8
4
 10
11.90792465209961
 20
-234.2431793212891
  0
VERTEX
  8
4
 10
11.90792465209961
 20
-234.7119293212891
  0
VERTEX
  8
4
 10
11.34542465209961
 20
-235.1806793212891
  0
VERTEX
  8
4
 10
10.78292465209961
 20
-235.1806793212891
  0
SEQEND
  8
4
  0
POLYLINE
  8
4
  6
CONTINUOUS
 66
     1
 70
     0
 40
0.0
 41
0.0
  0
VERTEX
  8
4
 10
11.34542465209961
 20
-235.1806793212891
  0
VERTEX
  8
4
 10
11.90792465209961
 20
-235.7431793212891
  0
VERTEX
  8
4
 10
11.90792465209961
 20
-236.2119293212891
  0
VERTEX
  8
4
 10
11.43917465209961
 20
-236.6806793212891
  0
VERTEX
  8
4
 10
10.87667465209961
 20
-236.6806793212891
  0
VERTEX
  8
4
 10
10.40792465209961
 20
-236.2119293212891
  0
SEQEND
  8
4
  0
ENDBLK
  8
4
  0
BLOCK
  8
4
  2
COMP60
 70
    64
 10
0.0
 20
0.0
  0
POLYLINE
  8
4
  6
CONTINUOUS
 66
     1
 70
     0
 40
0.0
 41
0.0
  0
VERTEX
  8
4
 10
-64.27293395996094
 20
-256.1306762695313
  0
VERTEX
  8
4
 10
-64.27293395996094
 20
-257.6306762695313
  0
VERTEX
  8
4
 10
-61.27293395996094
 20
-257.6306762695313
  0
SEQEND
  8
4
  0
POLYLINE
  8
4
  6
CONTINUOUS
 66
     1
 70
     0
 40
0.0
 41
0.0
  0
VERTEX
  8
4
 10
-62.77293395996094
 20
-257.6306762695313
  0
VERTEX
  8
4
 10
-62.77293395996094
 20
-256.3181762695313
  0
SEQEND
  8
4
  0
POLYLINE
  8
4
  6
CONTINUOUS
 66
     1
 70
     0
 40
0.0
 41
0.0
  0
VERTEX
  8
4
 10
-63.71043395996094
 20
-255.5681762695313
  0
VERTEX
  8
4
 10
-64.27293395996094
 20
-255.0994262695313
  0
VERTEX
  8
4
 10
-64.27293395996094
 20
-254.5369262695313
  0
VERTEX
  8
4
 10
-63.71043395996094
 20
-254.0681762695313
  0
VERTEX
  8
4
 10
-63.24168395996094
 20
-254.0681762695313
  0
VERTEX
  8
4
 10
-62.77293395996094
 20
-254.6306762695313
  0
VERTEX
  8
4
 10
-62.77293395996094
 20
-255.1931762695313
  0
SEQEND
  8
4
  0
POLYLINE
  8
4
  6
CONTINUOUS
 66
     1
 70
     0
 40
0.0
 41
0.0
  0
VERTEX
  8
4
 10
-62.77293395996094
 20
-254.6306762695313
  0
VERTEX
  8
4
 10
-62.21043395996094
 20
-254.0681762695313
  0
VERTEX
  8
4
 10
-61.74168395996094
 20
-254.0681762695313
  0
VERTEX
  8
4
 10
-61.27293395996094
 20
-254.5369262695313
  0
VERTEX
  8
4
 10
-61.27293395996094
 20
-255.0994262695313
  0
VERTEX
  8
4
 10
-61.74168395996094
 20
-255.5681762695313
  0
SEQEND
  8
4
  0
POLYLINE
  8
4
  6
CONTINUOUS
 66
     1
 70
     0
 40
0.0
 41
0.0
  0
VERTEX
  8
4
 10
-63.71043395996094
 20
-253.4119262695313
  0
VERTEX
  8
4
 10
-61.83543395996094
 20
-253.4119262695313
 42
0.9230769230769231
  0
VERTEX
  8
4
 10
-61.83543395996094
 20
-252.1931762695313
  0
VERTEX
  8
4
 10
-63.71043395996094
 20
-252.1931762695313
 42
0.9230769230769231
  0
VERTEX
  8
4
 10
-63.71043395996094
 20
-253.4119262695313
  0
SEQEND
  8
4
  0
POLYLINE
  8
4
  6
CONTINUOUS
 66
     1
 70
     0
 40
0.0
 41
0.0
  0
VERTEX
  8
4
 10
-61.27293395996094
 20
-250.6931762695313
  0
VERTEX
  8
4
 10
-64.27293395996094
 20
-250.6931762695313
  0
VERTEX
  8
4
 10
-63.38230895996094
 20
-251.2088012695313
  0
SEQEND
  8
4
  0
ENDBLK
  8
4
  0
BLOCK
  8
4
  2
COMP61
 70
    64
 10
0.0
 20
0.0
  0
POLYLINE
  8
4
  6
CONTINUOUS
 66
     1
 70
     0
 40
0.0
 41
0.0
  0
VERTEX
  8
4
 10
-34.73345947265625
 20
-220.6310272216797
  0
VERTEX
  8
4
 10
-34.73345947265625
 20
-217.6310272216797
  0
VERTEX
  8
4
 10
-33.98345947265625
 20
-219.5997772216797
  0
VERTEX
  8
4
 10
-33.23345947265625
 20
-217.6310272216797
  0
VERTEX
  8
4
 10
-33.23345947265625
 20
-220.6310272216797
  0
SEQEND
  8
4
  0
POLYLINE
  8
4
  6
CONTINUOUS
 66
     1
 70
     0
 40
0.0
 41
0.0
  0
VERTEX
  8
4
 10
-32.67095947265625
 20
-218.2872772216797
  0
VERTEX
  8
4
 10
-32.67095947265625
 20
-220.0685272216797
 42
0.75
  0
VERTEX
  8
4
 10
-31.17095947265625
 20
-220.0685272216797
  0
VERTEX
  8
4
 10
-31.17095947265625
 20
-218.2872772216797
 42
0.8749999999999999
  0
VERTEX
  8
4
 10
-32.67095947265625
 20
-218.2872772216797
  0
SEQEND
  8
4
  0
POLYLINE
  8
4
  6
CONTINUOUS
 66
     1
 70
     0
 40
0.0
 41
0.0
  0
VERTEX
  8
4
 10
-30.60845947265625
 20
-220.6310272216797
  0
VERTEX
  8
4
 10
-29.81158447265625
 20
-220.6310272216797
 42
0.4666666666666667
  0
VERTEX
  8
4
 10
-29.10845947265625
 20
-219.9279022216797
  0
VERTEX
  8
4
 10
-29.10845947265625
 20
-218.3341522216797
 42
0.4666666666666667
  0
VERTEX
  8
4
 10
-29.81158447265625
 20
-217.6310272216797
  0
VERTEX
  8
4
 10
-30.60845947265625
 20
-217.6310272216797
  0
VERTEX
  8
4
 10
-30.60845947265625
 20
-220.6310272216797
  0
SEQEND
  8
4
  0
POLYLINE
  8
4
  6
CONTINUOUS
 66
     1
 70
     0
 40
0.0
 41
0.0
  0
VERTEX
  8
4
 10
-28.54595947265625
 20
-218.1935272216797
  0
VERTEX
  8
4
 10
-28.07720947265625
 20
-217.6310272216797
  0
VERTEX
  8
4
 10
-27.51470947265625
 20
-217.6310272216797
  0
VERTEX
  8
4
 10
-27.04595947265625
 20
-218.1935272216797
  0
VERTEX
  8
4
 10
-27.04595947265625
 20
-218.6622772216797
  0
VERTEX
  8
4
 10
-27.60845947265625
 20
-219.1310272216797
  0
VERTEX
  8
4
 10
-28.17095947265625
 20
-219.1310272216797
  0
SEQEND
  8
4
  0
POLYLINE
  8
4
  6
CONTINUOUS
 66
     1
 70
     0
 40
0.0
 41
0.0
  0
VERTEX
  8
4
 10
-27.60845947265625
 20
-219.1310272216797
  0
VERTEX
  8
4
 10
-27.04595947265625
 20
-219.6935272216797
  0
VERTEX
  8
4
 10
-27.04595947265625
 20
-220.1622772216797
  0
VERTEX
  8
4
 10
-27.51470947265625
 20
-220.6310272216797
  0
VERTEX
  8
4
 10
-28.07720947265625
 20
-220.6310272216797
  0
VERTEX
  8
4
 10
-28.54595947265625
 20
-220.1622772216797
  0
SEQEND
  8
4
  0
POLYLINE
  8
4
  6
CONTINUOUS
 66
     1
 70
     0
 40
0.0
 41
0.0
  0
VERTEX
  8
4
 10
-26.38970947265625
 20
-218.1935272216797
  0
VERTEX
  8
4
 10
-26.38970947265625
 20
-220.0685272216797
 42
0.9230769230769231
  0
VERTEX
  8
4
 10
-25.17095947265625
 20
-220.0685272216797
  0
VERTEX
  8
4
 10
-25.17095947265625
 20
-218.1935272216797
 42
0.9230769230769231
  0
VERTEX
  8
4
 10
-26.38970947265625
 20
-218.1935272216797
  0
SEQEND
  8
4
  0
POLYLINE
  8
4
  6
CONTINUOUS
 66
     1
 70
     0
 40
0.0
 41
0.0
  0
VERTEX
  8
4
 10
-23.67095947265625
 20
-220.6310272216797
  0
VERTEX
  8
4
 10
-23.67095947265625
 20
-217.6310272216797
  0
VERTEX
  8
4
 10
-24.18658447265625
 20
-218.5216522216797
  0
SEQEND
  8
4
  0
ENDBLK
  8
4
  0
BLOCK
  8
4
  2
COMP62
 70
    64
 10
0.0
 20
0.0
  0
POLYLINE
  8
4
  6
CONTINUOUS
 66
     1
 70
     0
 40
0.0
 41
0.0
  0
VERTEX
  8
4
 10
-46.52214050292969
 20
-182.1402740478516
  0
VERTEX
  8
4
 10
-46.52214050292969
 20
-179.1402740478516
  0
VERTEX
  8
4
 10
-45.77214050292969
 20
-181.1090240478516
  0
VERTEX
  8
4
 10
-45.02214050292969
 20
-179.1402740478516
  0
VERTEX
  8
4
 10
-45.02214050292969
 20
-182.1402740478516
  0
SEQEND
  8
4
  0
POLYLINE
  8
4
  6
CONTINUOUS
 66
     1
 70
     0
 40
0.0
 41
0.0
  0
VERTEX
  8
4
 10
-44.45964050292969
 20
-179.7965240478516
  0
VERTEX
  8
4
 10
-44.45964050292969
 20
-181.5777740478516
 42
0.75
  0
VERTEX
  8
4
 10
-42.95964050292969
 20
-181.5777740478516
  0
VERTEX
  8
4
 10
-42.95964050292969
 20
-179.7965240478516
 42
0.8749999999999999
  0
VERTEX
  8
4
 10
-44.45964050292969
 20
-179.7965240478516
  0
SEQEND
  8
4
  0
POLYLINE
  8
4
  6
CONTINUOUS
 66
     1
 70
     0
 40
0.0
 41
0.0
  0
VERTEX
  8
4
 10
-42.39714050292969
 20
-182.1402740478516
  0
VERTEX
  8
4
 10
-41.60026550292969
 20
-182.1402740478516
 42
0.4666666666666667
  0
VERTEX
  8
4
 10
-40.89714050292969
 20
-181.4371490478516
  0
VERTEX
  8
4
 10
-40.89714050292969
 20
-179.8433990478516
 42
0.4666666666666667
  0
VERTEX
  8
4
 10
-41.60026550292969
 20
-179.1402740478516
  0
VERTEX
  8
4
 10
-42.39714050292969
 20
-179.1402740478516
  0
VERTEX
  8
4
 10
-42.39714050292969
 20
-182.1402740478516
  0
SEQEND
  8
4
  0
POLYLINE
  8
4
  6
CONTINUOUS
 66
     1
 70
     0
 40
0.0
 41
0.0
  0
VERTEX
  8
4
 10
-40.33464050292969
 20
-179.7027740478516
  0
VERTEX
  8
4
 10
-39.86589050292969
 20
-179.1402740478516
  0
VERTEX
  8
4
 10
-39.30339050292969
 20
-179.1402740478516
  0
VERTEX
  8
4
 10
-38.83464050292969
 20
-179.7027740478516
  0
VERTEX
  8
4
 10
-38.83464050292969
 20
-180.1715240478516
  0
VERTEX
  8
4
 10
-39.39714050292969
 20
-180.6402740478516
  0
VERTEX
  8
4
 10
-39.95964050292969
 20
-180.6402740478516
  0
SEQEND
  8
4
  0
POLYLINE
  8
4
  6
CONTINUOUS
 66
     1
 70
     0
 40
0.0
 41
0.0
  0
VERTEX
  8
4
 10
-39.39714050292969
 20
-180.6402740478516
  0
VERTEX
  8
4
 10
-38.83464050292969
 20
-181.2027740478516
  0
VERTEX
  8
4
 10
-38.83464050292969
 20
-181.6715240478516
  0
VERTEX
  8
4
 10
-39.30339050292969
 20
-182.1402740478516
  0
VERTEX
  8
4
 10
-39.86589050292969
 20
-182.1402740478516
  0
VERTEX
  8
4
 10
-40.33464050292969
 20
-181.6715240478516
  0
SEQEND
  8
4
  0
POLYLINE
  8
4
  6
CONTINUOUS
 66
     1
 70
     0
 40
0.0
 41
0.0
  0
VERTEX
  8
4
 10
-38.17839050292969
 20
-179.7027740478516
  0
VERTEX
  8
4
 10
-38.17839050292969
 20
-181.5777740478516
 42
0.9230769230769231
  0
VERTEX
  8
4
 10
-36.95964050292969
 20
-181.5777740478516
  0
VERTEX
  8
4
 10
-36.95964050292969
 20
-179.7027740478516
 42
0.9230769230769231
  0
VERTEX
  8
4
 10
-38.17839050292969
 20
-179.7027740478516
  0
SEQEND
  8
4
  0
POLYLINE
  8
4
  6
CONTINUOUS
 66
     1
 70
     0
 40
0.0
 41
0.0
  0
VERTEX
  8
4
 10
-36.20964050292969
 20
-179.7027740478516
  0
VERTEX
  8
4
 10
-35.74089050292969
 20
-179.1402740478516
  0
VERTEX
  8
4
 10
-35.17839050292969
 20
-179.1402740478516
  0
VERTEX
  8
4
 10
-34.70964050292969
 20
-179.7027740478516
  0
VERTEX
  8
4
 10
-34.70964050292969
 20
-180.4527740478516
  0
VERTEX
  8
4
 10
-36.20964050292969
 20
-181.7652740478516
  0
VERTEX
  8
4
 10
-36.20964050292969
 20
-182.1402740478516
  0
VERTEX
  8
4
 10
-34.70964050292969
 20
-182.1402740478516
  0
SEQEND
  8
4
  0
ENDBLK
  8
4
  0
ENDSEC
  0
SECTION
  2
ENTITIES
  0
LINE
  8
1
  6
CONTINUOUS
 10
-73.96602553655933
 20
-277.7139988167341
 11
-73.96602553655933
 21
-147.7139988167341
  0
LINE
  8
1
  6
CONTINUOUS
 10
-73.96602553655933
 20
-147.7139988167341
 11
146.0339744634407
 21
-147.7139988167341
  0
LINE
  8
1
  6
CONTINUOUS
 10
146.0339744634407
 20
-277.7139988167341
 11
146.0339744634407
 21
-147.7139988167341
  0
CIRCLE
  8
1
  6
CONTINUOUS
 10
142.0339744634407
 20
-151.7139988167341
 40
2.0
  0
CIRCLE
  8
1
  6
CONTINUOUS
 10
-69.96602553655933
 20
-151.7139988167341
 40
2.0
  0
CIRCLE
  8
1
  6
CONTINUOUS
 10
-69.96602553655933
 20
-273.7139988167341
 40
2.0
  0
CIRCLE
  8
1
  6
CONTINUOUS
 10
142.0339744634407
 20
-273.7139988167341
 40
2.0
  0
LINE
  8
12
  6
CONTINUOUS
 10
-60.63602553655927
 20
-258.7139988167341
 11
24.78397446344069
 21
-258.7139988167341
  0
LINE
  8
12
  6
CONTINUOUS
 10
-60.63602553655927
 20
-270.7139988167341
 11
24.78397446344069
 21
-270.7139988167341
  0
LINE
  8
13
  6
CONTINUOUS
 10
27.91397446344067
 20
-258.7139988167341
 11
42.91397446344067
 21
-258.7139988167341
  0
LINE
  8
13
  6
CONTINUOUS
 10
27.91397446344067
 20
-266.8139988167341
 11
42.91397446344067
 21
-266.8139988167341
  0
LINE
  8
13
  6
CONTINUOUS
 10
27.91397446344067
 20
-266.8139988167341
 11
27.91397446344067
 21
-258.7139988167341
  0
LINE
  8
13
  6
CONTINUOUS
 10
42.91397446344067
 20
-266.8139988167341
 11
42.91397446344067
 21
-258.7139988167341
  0
LINE
  8
3
  6
CONTINUOUS
 10
-53.96602553655933
 20
-163.2139988167341
 11
-53.96602553655933
 21
-152.2139988167341
  0
LINE
  8
3
  6
CONTINUOUS
 10
103.0339744634407
 20
-152.7139988167341
 11
109.0339744634407
 21
-152.7139988167341
  0
LINE
  8
3
  6
CONTINUOUS
 10
103.0339744634407
 20
-158.7139988167341
 11
109.0339744634407
 21
-158.7139988167341
  0
LINE
  8
3
  6
CONTINUOUS
 10
109.0339744634407
 20
-158.7139988167341
 11
109.0339744634407
 21
-152.7139988167341
  0
LINE
  8
3
  6
CONTINUOUS
 10
103.0339744634407
 20
-158.7139988167341
 11
103.0339744634407
 21
-152.7139988167341
  0
LINE
  8
3
  6
CONTINUOUS
 10
93.03397446344067
 20
-158.7139988167341
 11
99.03397446344067
 21
-158.7139988167341
  0
LINE
  8
3
  6
CONTINUOUS
 10
99.03397446344067
 20
-158.7139988167341
 11
99.03397446344067
 21
-152.7139988167341
  0
LINE
  8
3
  6
CONTINUOUS
 10
93.03397446344067
 20
-152.7139988167341
 11
99.03397446344067
 21
-152.7139988167341
  0
LINE
  8
3
  6
CONTINUOUS
 10
93.03397446344067
 20
-158.7139988167341
 11
93.03397446344067
 21
-152.7139988167341
  0
LINE
  8
3
  6
CONTINUOUS
 10
83.03397446344067
 20
-158.7139988167341
 11
89.03397446344067
 21
-158.7139988167341
  0
LINE
  8
3
  6
CONTINUOUS
 10
89.03397446344067
 20
-158.7139988167341
 11
89.03397446344067
 21
-152.7139988167341
  0
LINE
  8
3
  6
CONTINUOUS
 10
83.03397446344067
 20
-158.7139988167341
 11
83.03397446344067
 21
-152.7139988167341
  0
LINE
  8
3
  6
CONTINUOUS
 10
73.03397446344067
 20
-158.7139988167341
 11
79.03397446344067
 21
-158.7139988167341
  0
LINE
  8
3
  6
CONTINUOUS
 10
79.03397446344067
 20
-158.7139988167341
 11
79.03397446344067
 21
-152.7139988167341
  0
LINE
  8
3
  6
CONTINUOUS
 10
73.03397446344067
 20
-158.7139988167341
 11
73.03397446344067
 21
-152.7139988167341
  0
LINE
  8
3
  6
CONTINUOUS
 10
73.03397446344067
 20
-152.7139988167341
 11
79.03397446344067
 21
-152.7139988167341
  0
LINE
  8
3
  6
CONTINUOUS
 10
83.03397446344067
 20
-152.7139988167341
 11
89.03397446344067
 21
-152.7139988167341
  0
LINE
  8
3
  6
CONTINUOUS
 10
63.03397446344067
 20
-158.7139988167341
 11
69.03397446344067
 21
-158.7139988167341
  0
LINE
  8
3
  6
CONTINUOUS
 10
69.03397446344067
 20
-158.7139988167341
 11
69.03397446344067
 21
-152.7139988167341
  0
LINE
  8
3
  6
CONTINUOUS
 10
63.03397446344067
 20
-158.7139988167341
 11
63.03397446344067
 21
-152.7139988167341
  0
LINE
  8
3
  6
CONTINUOUS
 10
53.03397446344067
 20
-158.7139988167341
 11
59.03397446344067
 21
-158.7139988167341
  0
LINE
  8
3
  6
CONTINUOUS
 10
59.03397446344067
 20
-158.7139988167341
 11
59.03397446344067
 21
-152.7139988167341
  0
LINE
  8
3
  6
CONTINUOUS
 10
53.03397446344067
 20
-152.7139988167341
 11
59.03397446344067
 21
-152.7139988167341
  0
LINE
  8
3
  6
CONTINUOUS
 10
63.03397446344067
 20
-152.7139988167341
 11
69.03397446344067
 21
-152.7139988167341
  0
LINE
  8
3
  6
CONTINUOUS
 10
53.03397446344067
 20
-158.7139988167341
 11
53.03397446344067
 21
-152.7139988167341
  0
LINE
  8
3
  6
CENTER
 10
90.27813234401954
 20
-147.7139988167341
 11
81.41462184780508
 21
-147.7139988167341
  0
LINE
  8
12
  6
CONTINUOUS
 10
-56.03775429104856
 20
-274.7139988167341
 11
-56.03775429104856
 21
-274.2139988167341
  0
LINE
  8
12
  6
CONTINUOUS
 10
-56.03775429104856
 20
-274.2139988167341
 11
-55.03775429104856
 21
-274.2139988167341
  0
LINE
  8
12
  6
CONTINUOUS
 10
-49.22100984453093
 20
-274.2139988167341
 11
-48.49029498585985
 21
-274.2139988167341
  0
LINE
  8
12
  6
CONTINUOUS
 10
-48.41775429104855
 20
-274.1565023746516
 11
-48.41775429104855
 21
-274.4788765770065
  0
LINE
  8
12
  6
CONTINUOUS
 10
-49.22100984453093
 20
-274.2139988167341
 11
-48.49029498585985
 21
-274.2139988167341
  0
LINE
  8
12
  6
CONTINUOUS
 10
-48.41775429104855
 20
-274.1565023746516
 11
-48.41775429104855
 21
-274.7139988167341
  0
LINE
  8
12
  6
CONTINUOUS
 10
-56.03775429104856
 20
-274.2139988167341
 11
-55.03775429104856
 21
-274.2139988167341
  0
LINE
  8
12
  6
CONTINUOUS
 10
-56.03775429104856
 20
-274.7139988167341
 11
-56.03775429104856
 21
-274.2139988167341
  0
LINE
  8
14
  6
CONTINUOUS
 10
39.03397369384766
 20
-155.7139988167341
 11
47.03397369384766
 21
-155.7139988167341
  0
CIRCLE
  8
14
  6
CONTINUOUS
 10
43.03397369384766
 20
-151.7139988167341
 40
2.0
  0
CIRCLE
  8
14
  6
CONTINUOUS
 10
27.03397369384766
 20
-273.7139988167341
 40
2.0
  0
LINE
  8
14
  6
CENTER
 10
31.41397446344067
 20
-276.7331926357782
 11
31.41397446344067
 21
-270.1190582088503
  0
LINE
  8
14
  6
CONTINUOUS
 10
-72.96602553655933
 20
-175.2139988167341
 11
-72.96602553655933
 21
-158.2139988167341
  0
LINE
  8
14
  6
CONTINUOUS
 10
-71.46602553655933
 20
-156.7139988167341
 11
-64.46602553655933
 21
-156.7139988167341
  0
LINE
  8
14
  6
CONTINUOUS
 10
-62.96602553655933
 20
-175.2139988167341
 11
-62.96602553655933
 21
-158.2139988167341
  0
LINE
  8
14
  6
CONTINUOUS
 10
-71.46602553655933
 20
-176.7139988167341
 11
-64.46602553655933
 21
-176.7139988167341
  0
ARC
  8
14
  6
CONTINUOUS
 10
-64.46602553655933
 20
-158.2139988167341
 40
1.5
 50
0.0
 51
90.0
  0
ARC
  8
14
  6
CONTINUOUS
 10
-64.46602553655933
 20
-175.2139988167341
 40
1.5
 50
270.0
 51
0.0
  0
ARC
  8
14
  6
CONTINUOUS
 10
-71.46602553655933
 20
-175.2139988167341
 40
1.5
 50
180.0
 51
270.0
  0
ARC
  8
14
  6
CONTINUOUS
 10
-71.46602553655933
 20
-158.2139988167341
 40
1.5
 50
90.0
 51
180.0
  0
LINE
  8
14
  6
CONTINUOUS
 10
47.03397369384766
 20
-147.7139988167341
 11
47.03397369384766
 21
-155.7139988167341
  0
LINE
  8
14
  6
CONTINUOUS
 10
39.03397369384766
 20
-147.7139988167341
 11
39.03397369384766
 21
-155.7139988167341
  0
LINE
  8
1
  6
CONTINUOUS
 10
-65.96602553655933
 20
-155.7139988167341
 11
-65.96602553655933
 21
-147.7139988167341
  0
LINE
  8
1
  6
CONTINUOUS
 10
138.0339744634407
 20
-155.7139988167341
 11
138.0339744634407
 21
-147.7139988167341
  0
LINE
  8
1
  6
CONTINUOUS
 10
138.0339744634407
 20
-155.7139988167341
 11
146.0339744634407
 21
-155.7139988167341
  0
LINE
  8
1
  6
CONTINUOUS
 10
138.0339744634407
 20
-269.7139988167341
 11
146.0339744634407
 21
-269.7139988167341
  0
LINE
  8
1
  6
CONTINUOUS
 10
-73.96602553655933
 20
-155.7139988167341
 11
-65.96602553655933
 21
-155.7139988167341
  0
LINE
  8
1
  6
CONTINUOUS
 10
-73.96602553655933
 20
-269.7139988167341
 11
-65.96602553655933
 21
-269.7139988167341
  0
LINE
  8
1
  6
CONTINUOUS
 10
138.0339744634407
 20
-277.7139988167341
 11
138.0339744634407
 21
-269.7139988167341
  0
LINE
  8
1
  6
CONTINUOUS
 10
-65.96602553655933
 20
-277.7139988167341
 11
-65.96602553655933
 21
-269.7139988167341
  0
LINE
  8
14
  6
CONTINUOUS
 10
31.03397369384766
 20
-269.7139988167341
 11
31.03397369384766
 21
-277.7139988167341
  0
CIRCLE
  8
10
  6
CONTINUOUS
 10
20.1739744634407
 20
-264.7139988167341
 40
3.15
  0
ARC
  8
10
  6
CONTINUOUS
 10
20.1739744634407
 20
-264.7139988167341
 40
1.75
 50
0.0
 51
8.213210701738184
  0
ARC
  8
10
  6
CONTINUOUS
 10
20.1739744634407
 20
-264.7139988167341
 40
1.75
 50
81.78678929826191
 51
98.21321070173811
  0
ARC
  8
10
  6
CONTINUOUS
 10
20.1739744634407
 20
-264.7139988167341
 40
1.75
 50
171.7867892982618
 51
188.2132107017382
  0
ARC
  8
10
  6
CONTINUOUS
 10
20.1739744634407
 20
-264.7139988167341
 40
1.75
 50
261.7867892982619
 51
278.2132107017381
  0
ARC
  8
10
  6
CONTINUOUS
 10
20.1739744634407
 20
-264.7139988167341
 40
1.75
 50
351.7867892982618
 51
0.0
  0
LINE
  8
10
  6
CONTINUOUS
 10
18.44192365587182
 20
-264.4639988167341
 11
19.3239744634407
 21
-264.4639988167341
  0
LINE
  8
10
  6
CONTINUOUS
 10
21.0239744634407
 20
-264.4639988167341
 11
21.90602527100958
 21
-264.4639988167341
  0
LINE
  8
10
  6
CONTINUOUS
 10
18.44192365587182
 20
-264.9639988167341
 11
19.3239744634407
 21
-264.9639988167341
  0
LINE
  8
10
  6
CONTINUOUS
 10
21.0239744634407
 20
-264.9639988167341
 11
21.90602527100958
 21
-264.9639988167341
  0
LINE
  8
10
  6
CONTINUOUS
 10
20.4239744634407
 20
-266.446049624303
 11
20.4239744634407
 21
-265.5639988167341
  0
LINE
  8
10
  6
CONTINUOUS
 10
20.4239744634407
 20
-263.8639988167341
 11
20.4239744634407
 21
-262.9819480091652
  0
LINE
  8
10
  6
CONTINUOUS
 10
19.9239744634407
 20
-266.446049624303
 11
19.9239744634407
 21
-265.5639988167341
  0
LINE
  8
10
  6
CONTINUOUS
 10
19.9239744634407
 20
-263.8639988167341
 11
19.9239744634407
 21
-262.9819480091652
  0
ARC
  8
10
  6
CONTINUOUS
 10
21.0239744634407
 20
-263.8639988167341
 40
0.6
 50
180.0
 51
270.0
  0
ARC
  8
10
  6
CONTINUOUS
 10
19.3239744634407
 20
-263.8639988167341
 40
0.6
 50
270.0
 51
0.0
  0
ARC
  8
10
  6
CONTINUOUS
 10
19.3239744634407
 20
-265.5639988167341
 40
0.6
 50
0.0
 51
90.0
  0
ARC
  8
10
  6
CONTINUOUS
 10
21.0239744634407
 20
-265.5639988167341
 40
0.6
 50
90.0
 51
180.0
  0
CIRCLE
  8
10
  6
CONTINUOUS
 10
12.5539744634407
 20
-264.7139988167341
 40
3.15
  0
ARC
  8
10
  6
CONTINUOUS
 10
12.5539744634407
 20
-264.7139988167341
 40
1.75
 50
0.0
 51
8.213210701738191
  0
ARC
  8
10
  6
CONTINUOUS
 10
12.5539744634407
 20
-264.7139988167341
 40
1.75
 50
81.78678929826191
 51
98.21321070173811
  0
ARC
  8
10
  6
CONTINUOUS
 10
12.5539744634407
 20
-264.7139988167341
 40
1.75
 50
171.7867892982618
 51
188.2132107017382
  0
ARC
  8
10
  6
CONTINUOUS
 10
12.5539744634407
 20
-264.7139988167341
 40
1.75
 50
261.7867892982619
 51
278.2132107017381
  0
ARC
  8
10
  6
CONTINUOUS
 10
12.5539744634407
 20
-264.7139988167341
 40
1.75
 50
351.7867892982618
 51
0.0
  0
LINE
  8
10
  6
CONTINUOUS
 10
10.82192365587182
 20
-264.4639988167341
 11
11.7039744634407
 21
-264.4639988167341
  0
LINE
  8
10
  6
CONTINUOUS
 10
13.4039744634407
 20
-264.4639988167341
 11
14.28602527100957
 21
-264.4639988167341
  0
LINE
  8
10
  6
CONTINUOUS
 10
10.82192365587182
 20
-264.9639988167341
 11
11.7039744634407
 21
-264.9639988167341
  0
LINE
  8
10
  6
CONTINUOUS
 10
13.4039744634407
 20
-264.9639988167341
 11
14.28602527100957
 21
-264.9639988167341
  0
LINE
  8
10
  6
CONTINUOUS
 10
12.8039744634407
 20
-266.446049624303
 11
12.8039744634407
 21
-265.5639988167341
  0
LINE
  8
10
  6
CONTINUOUS
 10
12.8039744634407
 20
-263.8639988167341
 11
12.8039744634407
 21
-262.9819480091652
  0
LINE
  8
10
  6
CONTINUOUS
 10
12.3039744634407
 20
-266.446049624303
 11
12.3039744634407
 21
-265.5639988167341
  0
LINE
  8
10
  6
CONTINUOUS
 10
12.3039744634407
 20
-263.8639988167341
 11
12.3039744634407
 21
-262.9819480091652
  0
ARC
  8
10
  6
CONTINUOUS
 10
13.4039744634407
 20
-263.8639988167341
 40
0.6
 50
180.0
 51
270.0
  0
ARC
  8
10
  6
CONTINUOUS
 10
11.7039744634407
 20
-263.8639988167341
 40
0.6
 50
270.0
 51
0.0
  0
ARC
  8
10
  6
CONTINUOUS
 10
11.7039744634407
 20
-265.5639988167341
 40
0.6
 50
0.0
 51
90.0
  0
ARC
  8
10
  6
CONTINUOUS
 10
13.4039744634407
 20
-265.5639988167341
 40
0.6
 50
90.0
 51
180.0
  0
CIRCLE
  8
10
  6
CONTINUOUS
 10
4.933974463440691
 20
-264.7139988167341
 40
3.15
  0
ARC
  8
10
  6
CONTINUOUS
 10
4.933974463440691
 20
-264.7139988167341
 40
1.75
 50
0.0
 51
8.213210701738191
  0
ARC
  8
10
  6
CONTINUOUS
 10
4.933974463440691
 20
-264.7139988167341
 40
1.75
 50
81.78678929826191
 51
98.21321070173811
  0
ARC
  8
10
  6
CONTINUOUS
 10
4.933974463440691
 20
-264.7139988167341
 40
1.75
 50
171.7867892982618
 51
188.2132107017382
  0
ARC
  8
10
  6
CONTINUOUS
 10
4.933974463440691
 20
-264.7139988167341
 40
1.75
 50
261.7867892982619
 51
278.2132107017381
  0
ARC
  8
10
  6
CONTINUOUS
 10
4.933974463440691
 20
-264.7139988167341
 40
1.75
 50
351.7867892982618
 51
0.0
  0
LINE
  8
10
  6
CONTINUOUS
 10
3.201923655871814
 20
-264.4639988167341
 11
4.083974463440692
 21
-264.4639988167341
  0
LINE
  8
10
  6
CONTINUOUS
 10
5.783974463440691
 20
-264.4639988167341
 11
6.666025271009568
 21
-264.4639988167341
  0
LINE
  8
10
  6
CONTINUOUS
 10
3.201923655871814
 20
-264.9639988167341
 11
4.083974463440692
 21
-264.9639988167341
  0
LINE
  8
10
  6
CONTINUOUS
 10
5.783974463440691
 20
-264.9639988167341
 11
6.666025271009568
 21
-264.9639988167341
  0
LINE
  8
10
  6
CONTINUOUS
 10
5.183974463440691
 20
-266.446049624303
 11
5.183974463440691
 21
-265.5639988167341
  0
LINE
  8
10
  6
CONTINUOUS
 10
5.183974463440691
 20
-263.8639988167341
 11
5.183974463440691
 21
-262.9819480091652
  0
LINE
  8
10
  6
CONTINUOUS
 10
4.683974463440691
 20
-266.446049624303
 11
4.683974463440691
 21
-265.5639988167341
  0
LINE
  8
10
  6
CONTINUOUS
 10
4.683974463440691
 20
-263.8639988167341
 11
4.683974463440691
 21
-262.9819480091652
  0
ARC
  8
10
  6
CONTINUOUS
 10
5.783974463440691
 20
-263.8639988167341
 40
0.6
 50
180.0
 51
270.0
  0
ARC
  8
10
  6
CONTINUOUS
 10
4.083974463440692
 20
-263.8639988167341
 40
0.6
 50
270.0
 51
0.0
  0
ARC
  8
10
  6
CONTINUOUS
 10
4.083974463440692
 20
-265.5639988167341
 40
0.6
 50
0.0
 51
90.0
  0
ARC
  8
10
  6
CONTINUOUS
 10
5.783974463440691
 20
-265.5639988167341
 40
0.6
 50
90.0
 51
180.0
  0
CIRCLE
  8
10
  6
CONTINUOUS
 10
-2.686025536559313
 20
-264.7139988167341
 40
3.15
  0
ARC
  8
10
  6
CONTINUOUS
 10
-2.686025536559313
 20
-264.7139988167341
 40
1.75
 50
0.0
 51
8.21321070173819
  0
ARC
  8
10
  6
CONTINUOUS
 10
-2.686025536559313
 20
-264.7139988167341
 40
1.75
 50
81.78678929826191
 51
98.21321070173811
  0
ARC
  8
10
  6
CONTINUOUS
 10
-2.686025536559313
 20
-264.7139988167341
 40
1.75
 50
171.7867892982618
 51
188.2132107017382
  0
ARC
  8
10
  6
CONTINUOUS
 10
-2.686025536559313
 20
-264.7139988167341
 40
1.75
 50
261.7867892982619
 51
278.2132107017381
  0
ARC
  8
10
  6
CONTINUOUS
 10
-2.686025536559313
 20
-264.7139988167341
 40
1.75
 50
351.7867892982618
 51
0.0
  0
LINE
  8
10
  6
CONTINUOUS
 10
-4.41807634412819
 20
-264.4639988167341
 11
-3.536025536559313
 21
-264.4639988167341
  0
LINE
  8
10
  6
CONTINUOUS
 10
-1.836025536559313
 20
-264.4639988167341
 11
-0.9539747289904361
 21
-264.4639988167341
  0
LINE
  8
10
  6
CONTINUOUS
 10
-4.41807634412819
 20
-264.9639988167341
 11
-3.536025536559313
 21
-264.9639988167341
  0
LINE
  8
10
  6
CONTINUOUS
 10
-1.836025536559313
 20
-264.9639988167341
 11
-0.9539747289904361
 21
-264.9639988167341
  0
LINE
  8
10
  6
CONTINUOUS
 10
-2.436025536559313
 20
-266.446049624303
 11
-2.436025536559313
 21
-265.5639988167341
  0
LINE
  8
10
  6
CONTINUOUS
 10
-2.436025536559313
 20
-263.8639988167341
 11
-2.436025536559313
 21
-262.9819480091652
  0
LINE
  8
10
  6
CONTINUOUS
 10
-2.936025536559313
 20
-266.446049624303
 11
-2.936025536559313
 21
-265.5639988167341
  0
LINE
  8
10
  6
CONTINUOUS
 10
-2.936025536559313
 20
-263.8639988167341
 11
-2.936025536559313
 21
-262.9819480091652
  0
ARC
  8
10
  6
CONTINUOUS
 10
-1.836025536559313
 20
-263.8639988167341
 40
0.6
 50
180.0
 51
270.0
  0
ARC
  8
10
  6
CONTINUOUS
 10
-3.536025536559313
 20
-263.8639988167341
 40
0.6
 50
270.0
 51
0.0
  0
ARC
  8
10
  6
CONTINUOUS
 10
-3.536025536559313
 20
-265.5639988167341
 40
0.6
 50
0.0
 51
90.0
  0
ARC
  8
10
  6
CONTINUOUS
 10
-1.836025536559313
 20
-265.5639988167341
 40
0.6
 50
90.0
 51
180.0
  0
CIRCLE
  8
10
  6
CONTINUOUS
 10
-10.30602553655929
 20
-264.7139988167341
 40
3.15
  0
ARC
  8
10
  6
CONTINUOUS
 10
-10.30602553655929
 20
-264.7139988167341
 40
1.75
 50
0.0
 51
8.213210701738191
  0
ARC
  8
10
  6
CONTINUOUS
 10
-10.30602553655929
 20
-264.7139988167341
 40
1.75
 50
81.78678929826191
 51
98.21321070173811
  0
ARC
  8
10
  6
CONTINUOUS
 10
-10.30602553655929
 20
-264.7139988167341
 40
1.75
 50
171.7867892982618
 51
188.2132107017382
  0
ARC
  8
10
  6
CONTINUOUS
 10
-10.30602553655929
 20
-264.7139988167341
 40
1.75
 50
261.7867892982619
 51
278.2132107017381
  0
ARC
  8
10
  6
CONTINUOUS
 10
-10.30602553655929
 20
-264.7139988167341
 40
1.75
 50
351.7867892982618
 51
0.0
  0
LINE
  8
10
  6
CONTINUOUS
 10
-12.03807634412817
 20
-264.4639988167341
 11
-11.15602553655929
 21
-264.4639988167341
  0
LINE
  8
10
  6
CONTINUOUS
 10
-9.45602553655929
 20
-264.4639988167341
 11
-8.573974728990413
 21
-264.4639988167341
  0
LINE
  8
10
  6
CONTINUOUS
 10
-12.03807634412817
 20
-264.9639988167341
 11
-11.15602553655929
 21
-264.9639988167341
  0
LINE
  8
10
  6
CONTINUOUS
 10
-9.45602553655929
 20
-264.9639988167341
 11
-8.573974728990413
 21
-264.9639988167341
  0
LINE
  8
10
  6
CONTINUOUS
 10
-10.05602553655929
 20
-266.446049624303
 11
-10.05602553655929
 21
-265.5639988167341
  0
LINE
  8
10
  6
CONTINUOUS
 10
-10.05602553655929
 20
-263.8639988167341
 11
-10.05602553655929
 21
-262.9819480091652
  0
LINE
  8
10
  6
CONTINUOUS
 10
-10.55602553655929
 20
-266.446049624303
 11
-10.55602553655929
 21
-265.5639988167341
  0
LINE
  8
10
  6
CONTINUOUS
 10
-10.55602553655929
 20
-263.8639988167341
 11
-10.55602553655929
 21
-262.9819480091652
  0
ARC
  8
10
  6
CONTINUOUS
 10
-9.45602553655929
 20
-263.8639988167341
 40
0.6
 50
180.0
 51
270.0
  0
ARC
  8
10
  6
CONTINUOUS
 10
-11.15602553655929
 20
-263.8639988167341
 40
0.6
 50
270.0
 51
0.0
  0
ARC
  8
10
  6
CONTINUOUS
 10
-11.15602553655929
 20
-265.5639988167341
 40
0.6
 50
0.0
 51
90.0
  0
ARC
  8
10
  6
CONTINUOUS
 10
-9.45602553655929
 20
-265.5639988167341
 40
0.6
 50
90.0
 51
180.0
  0
CIRCLE
  8
10
  6
CONTINUOUS
 10
-17.92602553655929
 20
-264.7139988167341
 40
3.15
  0
ARC
  8
10
  6
CONTINUOUS
 10
-17.92602553655929
 20
-264.7139988167341
 40
1.75
 50
0.0
 51
8.213210701738184
  0
ARC
  8
10
  6
CONTINUOUS
 10
-17.92602553655929
 20
-264.7139988167341
 40
1.75
 50
81.78678929826191
 51
98.21321070173811
  0
ARC
  8
10
  6
CONTINUOUS
 10
-17.92602553655929
 20
-264.7139988167341
 40
1.75
 50
171.7867892982618
 51
188.2132107017382
  0
ARC
  8
10
  6
CONTINUOUS
 10
-17.92602553655929
 20
-264.7139988167341
 40
1.75
 50
261.7867892982619
 51
278.2132107017381
  0
ARC
  8
10
  6
CONTINUOUS
 10
-17.92602553655929
 20
-264.7139988167341
 40
1.75
 50
351.7867892982618
 51
0.0
  0
LINE
  8
10
  6
CONTINUOUS
 10
-19.65807634412817
 20
-264.4639988167341
 11
-18.7760255365593
 21
-264.4639988167341
  0
LINE
  8
10
  6
CONTINUOUS
 10
-17.07602553655929
 20
-264.4639988167341
 11
-16.19397472899042
 21
-264.4639988167341
  0
LINE
  8
10
  6
CONTINUOUS
 10
-19.65807634412817
 20
-264.9639988167341
 11
-18.7760255365593
 21
-264.9639988167341
  0
LINE
  8
10
  6
CONTINUOUS
 10
-17.07602553655929
 20
-264.9639988167341
 11
-16.19397472899042
 21
-264.9639988167341
  0
LINE
  8
10
  6
CONTINUOUS
 10
-17.67602553655929
 20
-266.446049624303
 11
-17.67602553655929
 21
-265.5639988167341
  0
LINE
  8
10
  6
CONTINUOUS
 10
-17.67602553655929
 20
-263.8639988167341
 11
-17.67602553655929
 21
-262.9819480091652
  0
LINE
  8
10
  6
CONTINUOUS
 10
-18.17602553655929
 20
-266.446049624303
 11
-18.17602553655929
 21
-265.5639988167341
  0
LINE
  8
10
  6
CONTINUOUS
 10
-18.17602553655929
 20
-263.8639988167341
 11
-18.17602553655929
 21
-262.9819480091652
  0
ARC
  8
10
  6
CONTINUOUS
 10
-17.07602553655929
 20
-263.8639988167341
 40
0.6
 50
180.0
 51
270.0
  0
ARC
  8
10
  6
CONTINUOUS
 10
-18.7760255365593
 20
-263.8639988167341
 40
0.6
 50
270.0
 51
0.0
  0
ARC
  8
10
  6
CONTINUOUS
 10
-18.7760255365593
 20
-265.5639988167341
 40
0.6
 50
0.0
 51
90.0
  0
ARC
  8
10
  6
CONTINUOUS
 10
-17.07602553655929
 20
-265.5639988167341
 40
0.6
 50
90.0
 51
180.0
  0
CIRCLE
  8
10
  6
CONTINUOUS
 10
-25.5460255365593
 20
-264.7139988167341
 40
3.15
  0
ARC
  8
10
  6
CONTINUOUS
 10
-25.5460255365593
 20
-264.7139988167341
 40
1.75
 50
0.0
 51
8.213210701738184
  0
ARC
  8
10
  6
CONTINUOUS
 10
-25.5460255365593
 20
-264.7139988167341
 40
1.75
 50
81.78678929826191
 51
98.21321070173811
  0
ARC
  8
10
  6
CONTINUOUS
 10
-25.5460255365593
 20
-264.7139988167341
 40
1.75
 50
171.7867892982618
 51
188.2132107017382
  0
ARC
  8
10
  6
CONTINUOUS
 10
-25.5460255365593
 20
-264.7139988167341
 40
1.75
 50
261.7867892982619
 51
278.2132107017381
  0
ARC
  8
10
  6
CONTINUOUS
 10
-25.5460255365593
 20
-264.7139988167341
 40
1.75
 50
351.7867892982618
 51
0.0
  0
LINE
  8
10
  6
CONTINUOUS
 10
-27.27807634412818
 20
-264.4639988167341
 11
-26.3960255365593
 21
-264.4639988167341
  0
LINE
  8
10
  6
CONTINUOUS
 10
-24.6960255365593
 20
-264.4639988167341
 11
-23.81397472899042
 21
-264.4639988167341
  0
LINE
  8
10
  6
CONTINUOUS
 10
-27.27807634412818
 20
-264.9639988167341
 11
-26.3960255365593
 21
-264.9639988167341
  0
LINE
  8
10
  6
CONTINUOUS
 10
-24.6960255365593
 20
-264.9639988167341
 11
-23.81397472899042
 21
-264.9639988167341
  0
LINE
  8
10
  6
CONTINUOUS
 10
-25.2960255365593
 20
-266.446049624303
 11
-25.2960255365593
 21
-265.5639988167341
  0
LINE
  8
10
  6
CONTINUOUS
 10
-25.2960255365593
 20
-263.8639988167341
 11
-25.2960255365593
 21
-262.9819480091652
  0
LINE
  8
10
  6
CONTINUOUS
 10
-25.7960255365593
 20
-266.446049624303
 11
-25.7960255365593
 21
-265.5639988167341
  0
LINE
  8
10
  6
CONTINUOUS
 10
-25.7960255365593
 20
-263.8639988167341
 11
-25.7960255365593
 21
-262.9819480091652
  0
ARC
  8
10
  6
CONTINUOUS
 10
-24.6960255365593
 20
-263.8639988167341
 40
0.6
 50
180.0
 51
270.0
  0
ARC
  8
10
  6
CONTINUOUS
 10
-26.3960255365593
 20
-263.8639988167341
 40
0.6
 50
270.0
 51
0.0
  0
ARC
  8
10
  6
CONTINUOUS
 10
-26.3960255365593
 20
-265.5639988167341
 40
0.6
 50
0.0
 51
90.0
  0
ARC
  8
10
  6
CONTINUOUS
 10
-24.6960255365593
 20
-265.5639988167341
 40
0.6
 50
90.0
 51
180.0
  0
CIRCLE
  8
10
  6
CONTINUOUS
 10
-33.1660255365593
 20
-264.7139988167341
 40
3.15
  0
ARC
  8
10
  6
CONTINUOUS
 10
-33.1660255365593
 20
-264.7139988167341
 40
1.75
 50
0.0
 51
8.213210701738184
  0
ARC
  8
10
  6
CONTINUOUS
 10
-33.1660255365593
 20
-264.7139988167341
 40
1.75
 50
81.78678929826191
 51
98.21321070173811
  0
ARC
  8
10
  6
CONTINUOUS
 10
-33.1660255365593
 20
-264.7139988167341
 40
1.75
 50
171.7867892982618
 51
188.2132107017382
  0
ARC
  8
10
  6
CONTINUOUS
 10
-33.1660255365593
 20
-264.7139988167341
 40
1.75
 50
261.7867892982619
 51
278.2132107017381
  0
ARC
  8
10
  6
CONTINUOUS
 10
-33.1660255365593
 20
-264.7139988167341
 40
1.75
 50
351.7867892982618
 51
0.0
  0
LINE
  8
10
  6
CONTINUOUS
 10
-34.89807634412818
 20
-264.4639988167341
 11
-34.0160255365593
 21
-264.4639988167341
  0
LINE
  8
10
  6
CONTINUOUS
 10
-32.3160255365593
 20
-264.4639988167341
 11
-31.43397472899043
 21
-264.4639988167341
  0
LINE
  8
10
  6
CONTINUOUS
 10
-34.89807634412818
 20
-264.9639988167341
 11
-34.0160255365593
 21
-264.9639988167341
  0
LINE
  8
10
  6
CONTINUOUS
 10
-32.3160255365593
 20
-264.9639988167341
 11
-31.43397472899043
 21
-264.9639988167341
  0
LINE
  8
10
  6
CONTINUOUS
 10
-32.9160255365593
 20
-266.446049624303
 11
-32.9160255365593
 21
-265.5639988167341
  0
LINE
  8
10
  6
CONTINUOUS
 10
-32.9160255365593
 20
-263.8639988167341
 11
-32.9160255365593
 21
-262.9819480091652
  0
LINE
  8
10
  6
CONTINUOUS
 10
-33.4160255365593
 20
-266.446049624303
 11
-33.4160255365593
 21
-265.5639988167341
  0
LINE
  8
10
  6
CONTINUOUS
 10
-33.4160255365593
 20
-263.8639988167341
 11
-33.4160255365593
 21
-262.9819480091652
  0
ARC
  8
10
  6
CONTINUOUS
 10
-32.3160255365593
 20
-263.8639988167341
 40
0.6
 50
180.0
 51
270.0
  0
ARC
  8
10
  6
CONTINUOUS
 10
-34.0160255365593
 20
-263.8639988167341
 40
0.6
 50
270.0
 51
0.0
  0
ARC
  8
10
  6
CONTINUOUS
 10
-34.0160255365593
 20
-265.5639988167341
 40
0.6
 50
0.0
 51
90.0
  0
ARC
  8
10
  6
CONTINUOUS
 10
-32.3160255365593
 20
-265.5639988167341
 40
0.6
 50
90.0
 51
180.0
  0
CIRCLE
  8
10
  6
CONTINUOUS
 10
-40.78602553655931
 20
-264.7139988167341
 40
3.15
  0
ARC
  8
10
  6
CONTINUOUS
 10
-40.78602553655931
 20
-264.7139988167341
 40
1.75
 50
0.0
 51
8.2132107017382
  0
ARC
  8
10
  6
CONTINUOUS
 10
-40.78602553655931
 20
-264.7139988167341
 40
1.75
 50
81.78678929826191
 51
98.21321070173811
  0
ARC
  8
10
  6
CONTINUOUS
 10
-40.78602553655931
 20
-264.7139988167341
 40
1.75
 50
171.7867892982618
 51
188.2132107017382
  0
ARC
  8
10
  6
CONTINUOUS
 10
-40.78602553655931
 20
-264.7139988167341
 40
1.75
 50
261.7867892982619
 51
278.2132107017381
  0
ARC
  8
10
  6
CONTINUOUS
 10
-40.78602553655931
 20
-264.7139988167341
 40
1.75
 50
351.7867892982618
 51
0.0
  0
LINE
  8
10
  6
CONTINUOUS
 10
-42.51807634412818
 20
-264.4639988167341
 11
-41.63602553655931
 21
-264.4639988167341
  0
LINE
  8
10
  6
CONTINUOUS
 10
-39.93602553655931
 20
-264.4639988167341
 11
-39.05397472899043
 21
-264.4639988167341
  0
LINE
  8
10
  6
CONTINUOUS
 10
-42.51807634412818
 20
-264.9639988167341
 11
-41.63602553655931
 21
-264.9639988167341
  0
LINE
  8
10
  6
CONTINUOUS
 10
-39.93602553655931
 20
-264.9639988167341
 11
-39.05397472899043
 21
-264.9639988167341
  0
LINE
  8
10
  6
CONTINUOUS
 10
-40.53602553655931
 20
-266.446049624303
 11
-40.53602553655931
 21
-265.5639988167341
  0
LINE
  8
10
  6
CONTINUOUS
 10
-40.53602553655931
 20
-263.8639988167341
 11
-40.53602553655931
 21
-262.9819480091652
  0
LINE
  8
10
  6
CONTINUOUS
 10
-41.03602553655931
 20
-266.446049624303
 11
-41.03602553655931
 21
-265.5639988167341
  0
LINE
  8
10
  6
CONTINUOUS
 10
-41.03602553655931
 20
-263.8639988167341
 11
-41.03602553655931
 21
-262.9819480091652
  0
ARC
  8
10
  6
CONTINUOUS
 10
-39.93602553655931
 20
-263.8639988167341
 40
0.6
 50
180.0
 51
270.0
  0
ARC
  8
10
  6
CONTINUOUS
 10
-41.63602553655931
 20
-263.8639988167341
 40
0.6
 50
270.0
 51
0.0
  0
ARC
  8
10
  6
CONTINUOUS
 10
-41.63602553655931
 20
-265.5639988167341
 40
0.6
 50
0.0
 51
90.0
  0
ARC
  8
10
  6
CONTINUOUS
 10
-39.93602553655931
 20
-265.5639988167341
 40
0.6
 50
90.0
 51
180.0
  0
CIRCLE
  8
10
  6
CONTINUOUS
 10
-48.40602553655931
 20
-264.7139988167341
 40
3.15
  0
ARC
  8
10
  6
CONTINUOUS
 10
-48.40602553655931
 20
-264.7139988167341
 40
1.75
 50
0.0
 51
8.2132107017382
  0
ARC
  8
10
  6
CONTINUOUS
 10
-48.40602553655931
 20
-264.7139988167341
 40
1.75
 50
81.78678929826191
 51
98.21321070173811
  0
ARC
  8
10
  6
CONTINUOUS
 10
-48.40602553655931
 20
-264.7139988167341
 40
1.75
 50
171.7867892982618
 51
188.2132107017382
  0
ARC
  8
10
  6
CONTINUOUS
 10
-48.40602553655931
 20
-264.7139988167341
 40
1.75
 50
261.7867892982619
 51
278.2132107017381
  0
ARC
  8
10
  6
CONTINUOUS
 10
-48.40602553655931
 20
-264.7139988167341
 40
1.75
 50
351.7867892982618
 51
0.0
  0
LINE
  8
10
  6
CONTINUOUS
 10
-50.13807634412819
 20
-264.4639988167341
 11
-49.25602553655931
 21
-264.4639988167341
  0
LINE
  8
10
  6
CONTINUOUS
 10
-47.55602553655931
 20
-264.4639988167341
 11
-46.67397472899044
 21
-264.4639988167341
  0
LINE
  8
10
  6
CONTINUOUS
 10
-50.13807634412819
 20
-264.9639988167341
 11
-49.25602553655931
 21
-264.9639988167341
  0
LINE
  8
10
  6
CONTINUOUS
 10
-47.55602553655931
 20
-264.9639988167341
 11
-46.67397472899044
 21
-264.9639988167341
  0
LINE
  8
10
  6
CONTINUOUS
 10
-48.15602553655931
 20
-266.446049624303
 11
-48.15602553655931
 21
-265.5639988167341
  0
LINE
  8
10
  6
CONTINUOUS
 10
-48.15602553655931
 20
-263.8639988167341
 11
-48.15602553655931
 21
-262.9819480091652
  0
LINE
  8
10
  6
CONTINUOUS
 10
-48.65602553655931
 20
-266.446049624303
 11
-48.65602553655931
 21
-265.5639988167341
  0
LINE
  8
10
  6
CONTINUOUS
 10
-48.65602553655931
 20
-263.8639988167341
 11
-48.65602553655931
 21
-262.9819480091652
  0
ARC
  8
10
  6
CONTINUOUS
 10
-47.55602553655931
 20
-263.8639988167341
 40
0.6
 50
180.0
 51
270.0
  0
ARC
  8
10
  6
CONTINUOUS
 10
-49.25602553655931
 20
-263.8639988167341
 40
0.6
 50
270.0
 51
0.0
  0
ARC
  8
10
  6
CONTINUOUS
 10
-49.25602553655931
 20
-265.5639988167341
 40
0.6
 50
0.0
 51
90.0
  0
ARC
  8
10
  6
CONTINUOUS
 10
-47.55602553655931
 20
-265.5639988167341
 40
0.6
 50
90.0
 51
180.0
  0
CIRCLE
  8
10
  6
CONTINUOUS
 10
-56.02602553655932
 20
-264.7139988167341
 40
3.15
  0
ARC
  8
10
  6
CONTINUOUS
 10
-56.02602553655932
 20
-264.7139988167341
 40
1.75
 50
0.0
 51
8.2132107017382
  0
ARC
  8
10
  6
CONTINUOUS
 10
-56.02602553655932
 20
-264.7139988167341
 40
1.75
 50
81.78678929826191
 51
98.21321070173811
  0
ARC
  8
10
  6
CONTINUOUS
 10
-56.02602553655932
 20
-264.7139988167341
 40
1.75
 50
171.7867892982618
 51
188.2132107017382
  0
ARC
  8
10
  6
CONTINUOUS
 10
-56.02602553655932
 20
-264.7139988167341
 40
1.75
 50
261.7867892982619
 51
278.2132107017381
  0
ARC
  8
10
  6
CONTINUOUS
 10
-56.02602553655932
 20
-264.7139988167341
 40
1.75
 50
351.7867892982618
 51
0.0
  0
LINE
  8
10
  6
CONTINUOUS
 10
-57.75807634412819
 20
-264.4639988167341
 11
-56.87602553655932
 21
-264.4639988167341
  0
LINE
  8
10
  6
CONTINUOUS
 10
-55.17602553655932
 20
-264.4639988167341
 11
-54.29397472899044
 21
-264.4639988167341
  0
LINE
  8
10
  6
CONTINUOUS
 10
-57.75807634412819
 20
-264.9639988167341
 11
-56.87602553655932
 21
-264.9639988167341
  0
LINE
  8
10
  6
CONTINUOUS
 10
-55.17602553655932
 20
-264.9639988167341
 11
-54.29397472899044
 21
-264.9639988167341
  0
LINE
  8
10
  6
CONTINUOUS
 10
-55.77602553655932
 20
-266.446049624303
 11
-55.77602553655932
 21
-265.5639988167341
  0
LINE
  8
10
  6
CONTINUOUS
 10
-55.77602553655932
 20
-263.8639988167341
 11
-55.77602553655932
 21
-262.9819480091652
  0
LINE
  8
10
  6
CONTINUOUS
 10
-56.27602553655932
 20
-266.446049624303
 11
-56.27602553655932
 21
-265.5639988167341
  0
LINE
  8
10
  6
CONTINUOUS
 10
-56.27602553655932
 20
-263.8639988167341
 11
-56.27602553655932
 21
-262.9819480091652
  0
ARC
  8
10
  6
CONTINUOUS
 10
-55.17602553655932
 20
-263.8639988167341
 40
0.6
 50
180.0
 51
270.0
  0
ARC
  8
10
  6
CONTINUOUS
 10
-56.87602553655932
 20
-263.8639988167341
 40
0.6
 50
270.0
 51
0.0
  0
ARC
  8
10
  6
CONTINUOUS
 10
-56.87602553655932
 20
-265.5639988167341
 40
0.6
 50
0.0
 51
90.0
  0
ARC
  8
10
  6
CONTINUOUS
 10
-55.17602553655932
 20
-265.5639988167341
 40
0.6
 50
90.0
 51
180.0
  0
LINE
  8
12
  6
CONTINUOUS
 10
-60.63602553655927
 20
-270.7139988167341
 11
-60.63602553655927
 21
-258.7139988167341
  0
LINE
  8
12
  6
CONTINUOUS
 10
24.78397446344069
 20
-270.7139988167341
 11
24.78397446344069
 21
-258.7139988167341
  0
LINE
  8
14
  6
CONTINUOUS
 10
17.0139744634407
 20
-270.7139988167341
 11
17.0139744634407
 21
-258.7139988167341
  0
LINE
  8
14
  6
CONTINUOUS
 10
15.71397446344069
 20
-270.7139988167341
 11
15.7139744634407
 21
-258.7139988167341
  0
LINE
  8
14
  6
CONTINUOUS
 10
9.393974463440699
 20
-270.7139988167341
 11
9.393974463440696
 21
-258.7139988167341
  0
LINE
  8
14
  6
CONTINUOUS
 10
8.093974463440688
 20
-270.7139988167341
 11
8.093974463440691
 21
-258.7139988167341
  0
LINE
  8
14
  6
CONTINUOUS
 10
1.773974463440695
 20
-270.7139988167341
 11
1.773974463440691
 21
-258.7139988167341
  0
LINE
  8
14
  6
CONTINUOUS
 10
0.4739744634406833
 20
-270.7139988167341
 11
0.4739744634406868
 21
-258.7139988167341
  0
LINE
  8
14
  6
CONTINUOUS
 10
-5.84602553655931
 20
-270.7139988167341
 11
-5.846025536559314
 21
-258.7139988167341
  0
LINE
  8
14
  6
CONTINUOUS
 10
-7.146025536559293
 20
-270.7139988167341
 11
-7.146025536559289
 21
-258.7139988167341
  0
LINE
  8
14
  6
CONTINUOUS
 10
-13.46602553655929
 20
-270.7139988167341
 11
-13.46602553655929
 21
-258.7139988167341
  0
LINE
  8
14
  6
CONTINUOUS
 10
-14.7660255365593
 20
-270.7139988167341
 11
-14.76602553655929
 21
-258.7139988167341
  0
LINE
  8
14
  6
CONTINUOUS
 10
-21.08602553655929
 20
-270.7139988167341
 11
-21.08602553655929
 21
-258.7139988167341
  0
LINE
  8
14
  6
CONTINUOUS
 10
-22.3860255365593
 20
-270.7139988167341
 11
-22.3860255365593
 21
-258.7139988167341
  0
LINE
  8
14
  6
CONTINUOUS
 10
-28.7060255365593
 20
-270.7139988167341
 11
-28.7060255365593
 21
-258.7139988167341
  0
LINE
  8
14
  6
CONTINUOUS
 10
-30.0060255365593
 20
-270.7139988167341
 11
-30.0060255365593
 21
-258.7139988167341
  0
LINE
  8
14
  6
CONTINUOUS
 10
-36.3260255365593
 20
-270.7139988167341
 11
-36.3260255365593
 21
-258.7139988167341
  0
LINE
  8
14
  6
CONTINUOUS
 10
-37.62602553655931
 20
-270.7139988167341
 11
-37.62602553655931
 21
-258.7139988167341
  0
LINE
  8
14
  6
CONTINUOUS
 10
-43.9460255365593
 20
-270.7139988167341
 11
-43.9460255365593
 21
-258.7139988167341
  0
LINE
  8
14
  6
CONTINUOUS
 10
-45.24602553655932
 20
-270.7139988167341
 11
-45.24602553655932
 21
-258.7139988167341
  0
LINE
  8
14
  6
CONTINUOUS
 10
-51.56602553655931
 20
-270.7139988167341
 11
-51.56602553655931
 21
-258.7139988167341
  0
LINE
  8
14
  6
CONTINUOUS
 10
-52.86602553655932
 20
-270.7139988167341
 11
-52.86602553655932
 21
-258.7139988167341
  0
LINE
  8
14
  6
CONTINUOUS
 10
-59.18602553655931
 20
-270.7139988167341
 11
-59.18602553655931
 21
-258.7139988167341
  0
LINE
  8
14
  6
CONTINUOUS
 10
23.3339744634407
 20
-270.7139988167341
 11
23.3339744634407
 21
-258.7139988167341
  0
LINE
  8
14
  6
CONTINUOUS
 10
-59.18602553655931
 20
-260.2139988167341
 11
-52.86602553655932
 21
-260.2139988167341
  0
LINE
  8
14
  6
CONTINUOUS
 10
-59.18602553655931
 20
-269.2139988167341
 11
-52.86602553655932
 21
-269.2139988167341
  0
LINE
  8
14
  6
CONTINUOUS
 10
-51.56602553655931
 20
-260.2139988167341
 11
-45.24602553655932
 21
-260.2139988167341
  0
LINE
  8
14
  6
CONTINUOUS
 10
-51.56602553655931
 20
-269.2139988167341
 11
-45.24602553655932
 21
-269.2139988167341
  0
LINE
  8
14
  6
CONTINUOUS
 10
-43.9460255365593
 20
-260.2139988167341
 11
-37.62602553655931
 21
-260.2139988167341
  0
LINE
  8
14
  6
CONTINUOUS
 10
-43.9460255365593
 20
-269.2139988167341
 11
-37.62602553655931
 21
-269.2139988167341
  0
LINE
  8
14
  6
CONTINUOUS
 10
-36.3260255365593
 20
-260.2139988167341
 11
-30.0060255365593
 21
-260.2139988167341
  0
LINE
  8
14
  6
CONTINUOUS
 10
-36.3260255365593
 20
-269.2139988167341
 11
-30.0060255365593
 21
-269.2139988167341
  0
LINE
  8
14
  6
CONTINUOUS
 10
-28.7060255365593
 20
-260.2139988167341
 11
-22.3860255365593
 21
-260.2139988167341
  0
LINE
  8
14
  6
CONTINUOUS
 10
-28.7060255365593
 20
-269.2139988167341
 11
-22.3860255365593
 21
-269.2139988167341
  0
LINE
  8
14
  6
CONTINUOUS
 10
-21.08602553655929
 20
-260.2139988167341
 11
-14.76602553655929
 21
-260.2139988167341
  0
LINE
  8
14
  6
CONTINUOUS
 10
-21.08602553655929
 20
-269.2139988167341
 11
-14.7660255365593
 21
-269.2139988167341
  0
LINE
  8
14
  6
CONTINUOUS
 10
-13.46602553655929
 20
-260.2139988167341
 11
-7.146025536559289
 21
-260.2139988167341
  0
LINE
  8
14
  6
CONTINUOUS
 10
-13.46602553655929
 20
-269.2139988167341
 11
-7.146025536559293
 21
-269.2139988167341
  0
LINE
  8
14
  6
CONTINUOUS
 10
-5.846025536559314
 20
-260.2139988167341
 11
0.4739744634406864
 21
-260.2139988167341
  0
LINE
  8
14
  6
CONTINUOUS
 10
-5.84602553655931
 20
-269.2139988167341
 11
0.4739744634406837
 21
-269.2139988167341
  0
LINE
  8
14
  6
CONTINUOUS
 10
1.773974463440692
 20
-260.2139988167341
 11
8.093974463440691
 21
-260.2139988167341
  0
LINE
  8
14
  6
CONTINUOUS
 10
1.773974463440694
 20
-269.2139988167341
 11
8.093974463440688
 21
-269.2139988167341
  0
LINE
  8
14
  6
CONTINUOUS
 10
9.393974463440696
 20
-260.2139988167341
 11
15.7139744634407
 21
-260.2139988167341
  0
LINE
  8
14
  6
CONTINUOUS
 10
9.393974463440699
 20
-269.2139988167341
 11
15.71397446344069
 21
-269.2139988167341
  0
LINE
  8
14
  6
CONTINUOUS
 10
17.0139744634407
 20
-260.2139988167341
 11
23.3339744634407
 21
-260.2139988167341
  0
LINE
  8
14
  6
CONTINUOUS
 10
17.0139744634407
 20
-269.2139988167341
 11
23.3339744634407
 21
-269.2139988167341
  0
LINE
  8
14
  6
CONTINUOUS
 10
-17.96602553655933
 20
-160.7139988167341
 11
-9.966025536559329
 21
-160.7139988167341
  0
LINE
  8
14
  6
CONTINUOUS
 10
-9.966025536559329
 20
-160.7139988167341
 11
-9.966025536559329
 21
-154.7139988167341
  0
LINE
  8
14
  6
CONTINUOUS
 10
-17.96602553655933
 20
-154.7139988167341
 11
-9.966025536559329
 21
-154.7139988167341
  0
LINE
  8
14
  6
CONTINUOUS
 10
-17.96602553655933
 20
-160.7139988167341
 11
-17.96602553655933
 21
-154.7139988167341
  0
CIRCLE
  8
14
  6
CONTINUOUS
 10
30.41397446344067
 20
-262.7639988167341
 40
1.5
  0
CIRCLE
  8
14
  6
CONTINUOUS
 10
35.41397446344067
 20
-262.7639988167341
 40
1.5
  0
CIRCLE
  8
14
  6
CONTINUOUS
 10
40.41397446344067
 20
-262.7639988167341
 40
1.5
  0
LINE
  8
14
  6
CONTINUOUS
 10
39.00810561769571
 20
-263.2870024386754
 11
41.56984330918561
 21
-261.8079824929005
  0
LINE
  8
14
  6
CONTINUOUS
 10
39.25810561769561
 20
-263.7200151405677
 11
41.81984330918577
 21
-262.2409951947927
  0
LINE
  8
14
  6
CONTINUOUS
 10
34.00810561769558
 20
-263.2870024386755
 11
36.56984330918575
 21
-261.8079824929005
  0
LINE
  8
14
  6
CONTINUOUS
 10
34.25810561769561
 20
-263.7200151405677
 11
36.81984330918577
 21
-262.2409951947927
  0
LINE
  8
14
  6
CONTINUOUS
 10
29.00810561769558
 20
-263.2870024386755
 11
31.56984330918575
 21
-261.8079824929005
  0
LINE
  8
14
  6
CONTINUOUS
 10
29.25810561769586
 20
-263.7200151405676
 11
31.8198433091855
 21
-262.2409951947928
  0
LINE
  8
14
  6
CONTINUOUS
 10
42.41397446344067
 20
-266.8139988167341
 11
42.41397446344067
 21
-265.8139988167341
  0
LINE
  8
14
  6
CONTINUOUS
 10
38.41397446344067
 20
-265.8139988167341
 11
42.41397446344067
 21
-265.8139988167341
  0
LINE
  8
14
  6
CONTINUOUS
 10
38.41397446344067
 20
-266.8139988167341
 11
38.41397446344067
 21
-265.8139988167341
  0
LINE
  8
14
  6
CONTINUOUS
 10
37.41397446344067
 20
-266.8139988167341
 11
37.41397446344067
 21
-265.8139988167341
  0
LINE
  8
14
  6
CONTINUOUS
 10
33.41397446344067
 20
-265.8139988167341
 11
37.41397446344067
 21
-265.8139988167341
  0
LINE
  8
14
  6
CONTINUOUS
 10
33.41397446344067
 20
-266.8139988167341
 11
33.41397446344067
 21
-265.8139988167341
  0
LINE
  8
14
  6
CONTINUOUS
 10
32.41397446344067
 20
-266.8139988167341
 11
32.41397446344067
 21
-265.8139988167341
  0
LINE
  8
14
  6
CONTINUOUS
 10
28.41397446344067
 20
-265.8139988167341
 11
32.41397446344067
 21
-265.8139988167341
  0
LINE
  8
14
  6
CONTINUOUS
 10
28.41397446344067
 20
-266.8139988167341
 11
28.41397446344067
 21
-265.8139988167341
  0
LINE
  8
14
  6
CONTINUOUS
 10
24.78397446344069
 20
-269.7139988167341
 11
31.03397369384766
 21
-269.7139988167341
  0
LINE
  8
14
  6
CONTINUOUS
 10
23.03397369384766
 20
-270.7139988167341
 11
23.03397369384766
 21
-277.7139988167341
  0
LINE
  8
14
  6
CONTINUOUS
 10
66.31397446344067
 20
-278.4939988167341
 11
134.0539744634407
 21
-278.4939988167341
  0
LINE
  8
14
  6
CONTINUOUS
 10
66.31397446344067
 20
-276.9939988167341
 11
134.0539744634407
 21
-276.9939988167341
  0
LINE
  8
5
  6
CONTINUOUS
 10
66.31397446344067
 20
-262.4939988167341
 11
134.0539744634407
 21
-262.4939988167341
  0
LINE
  8
5
  6
CONTINUOUS
 10
134.0539744634407
 20
-278.4939988167341
 11
134.0539744634407
 21
-262.4939988167341
  0
ARC
  8
14
  6
CONTINUOUS
 10
68.31247446344068
 20
-279.7939988167341
 40
0.5
 50
180.0
 51
270.0
  0
LINE
  8
14
  6
CONTINUOUS
 10
70.75331429166089
 20
-281.0546589885139
 11
71.31899971661008
 21
-280.4889735635647
  0
ARC
  8
14
  6
CONTINUOUS
 10
71.81397446344069
 20
-279.9939988167341
 40
0.7000000000000438
 50
225.0000000000008
 51
90.0
  0
LINE
  8
14
  6
CONTINUOUS
 10
66.31397446344067
 20
-279.2939988167341
 11
71.81397446344069
 21
-279.2939988167341
  0
ARC
  8
14
  6
CONTINUOUS
 10
71.81397446344067
 20
-279.9939988167341
 40
1.499999999999992
 50
225.0000000000008
 51
90.0
  0
LINE
  8
14
  6
CONTINUOUS
 10
67.81247446344068
 20
-279.7939988167341
 11
67.81247446344068
 21
-279.2939988167341
  0
CIRCLE
  8
14
  6
CONTINUOUS
 10
71.61397446344068
 20
-279.9939988167341
 40
0.6
  0
LINE
  8
14
  6
CONTINUOUS
 10
72.81247446344068
 20
-278.8746249962434
 11
72.81247446344068
 21
-278.4939988167341
  0
LINE
  8
14
  6
CONTINUOUS
 10
71.01397446344022
 20
-285.0616389753487
 11
71.01397446344022
 21
-281.2628565707787
  0
ARC
  8
14
  6
CONTINUOUS
 10
64.35408178151168
 20
-300.8481324844048
 40
0.6000000000000095
 50
155.1196192719937
 51
335.1196192719937
  0
LINE
  8
14
  6
CONTINUOUS
 10
63.80976890196877
 20
-300.5956973656838
 11
71.01397446344022
 21
-285.0616389753487
  0
LINE
  8
14
  6
CONTINUOUS
 10
72.21397446344118
 20
-285.3263586581194
 11
64.89839466105461
 21
-301.1005676031259
  0
LINE
  8
14
  6
CONTINUOUS
 10
72.21397446344118
 20
-285.3263586581194
 11
72.21397446344118
 21
-281.439682046214
  0
LINE
  8
14
  6
CONTINUOUS
 10
68.31247446344068
 20
-280.2939988167341
 11
71.09435922117002
 21
-280.2939988167341
  0
LINE
  8
14
  6
CONTINUOUS
 10
66.31397446344067
 20
-271.9439988167341
 11
76.68397446344068
 21
-271.9439988167341
  0
LINE
  8
14
  6
CONTINUOUS
 10
76.68397446344068
 20
-271.9439988167341
 11
76.68397446344068
 21
-262.4939988167341
  0
LINE
  8
14
  6
CONTINUOUS
 10
134.0539744634407
 20
-277.7139988167341
 11
146.0339744634407
 21
-277.7139988167341
  0
LINE
  8
14
  6
CONTINUOUS
 10
-73.96602553655933
 20
-277.7139988167341
 11
66.31397446344067
 21
-277.7139988167341
  0
LINE
  8
14
  6
CONTINUOUS
 10
75.68397446344068
 20
-286.1939988167341
 11
75.68397446344068
 21
-278.4939988167341
  0
ARC
  8
14
  6
CONTINUOUS
 10
76.68397446344068
 20
-286.1939988167341
 40
1.0
 50
180.0
 51
270.0
  0
LINE
  8
5
  6
CONTINUOUS
 10
76.68397446344068
 20
-287.1939988167341
 11
123.6839744634407
 21
-287.1939988167341
  0
LINE
  8
14
  6
CONTINUOUS
 10
124.6839744634407
 20
-286.1939988167341
 11
124.6839744634407
 21
-278.4939988167341
  0
ARC
  8
14
  6
CONTINUOUS
 10
123.6839744634407
 20
-286.1939988167341
 40
1.0
 50
270.0
 51
0.0
  0
LINE
  8
14
  6
CONTINUOUS
 10
79.98397446344067
 20
-276.9939988167341
 11
79.98397446344067
 21
-262.4939988167341
  0
LINE
  8
5
  6
CONTINUOUS
 10
66.31397446344067
 20
-279.2939988167341
 11
66.31397446344067
 21
-278.4939988167341
  0
LINE
  8
5
  6
CONTINUOUS
 10
66.31397446344067
 20
-278.4939988167341
 11
66.31397446344067
 21
-262.4939988167341
  0
ARC
  8
14
  6
CONTINUOUS
 10
132.0554744634407
 20
-279.7939988167341
 40
0.5
 50
270.0
 51
0.0
  0
LINE
  8
14
  6
CONTINUOUS
 10
129.6146346352205
 20
-281.0546589885139
 11
129.0489492102713
 21
-280.4889735635647
  0
ARC
  8
14
  6
CONTINUOUS
 10
128.5539744634407
 20
-279.9939988167341
 40
0.7000000000000438
 50
90.0
 51
314.9999999999984
  0
LINE
  8
14
  6
CONTINUOUS
 10
134.0539744634407
 20
-279.2939988167341
 11
128.5539744634407
 21
-279.2939988167341
  0
ARC
  8
14
  6
CONTINUOUS
 10
128.5539744634407
 20
-279.9939988167341
 40
1.499999999999992
 50
90.0
 51
314.9999999999992
  0
LINE
  8
14
  6
CONTINUOUS
 10
132.5554744634407
 20
-279.7939988167341
 11
132.5554744634407
 21
-279.2939988167341
  0
CIRCLE
  8
14
  6
CONTINUOUS
 10
128.7539744634407
 20
-279.9939988167341
 40
0.6
  0
LINE
  8
14
  6
CONTINUOUS
 10
127.5554744634407
 20
-278.8746249962434
 11
127.5554744634407
 21
-278.4939988167341
  0
LINE
  8
14
  6
CONTINUOUS
 10
129.3539744634412
 20
-285.0616389753487
 11
129.3539744634412
 21
-281.2628565707787
  0
ARC
  8
14
  6
CONTINUOUS
 10
136.0138671453697
 20
-300.8481324844048
 40
0.6000000000000095
 50
204.8803807280068
 51
24.8803807280057
  0
LINE
  8
14
  6
CONTINUOUS
 10
136.5581800249126
 20
-300.5956973656838
 11
129.3539744634412
 21
-285.0616389753487
  0
LINE
  8
14
  6
CONTINUOUS
 10
128.1539744634402
 20
-285.3263586581194
 11
135.4695542658267
 21
-301.1005676031259
  0
LINE
  8
14
  6
CONTINUOUS
 10
128.1539744634402
 20
-285.3263586581194
 11
128.1539744634402
 21
-281.439682046214
  0
LINE
  8
14
  6
CONTINUOUS
 10
132.0554744634407
 20
-280.2939988167341
 11
129.2735897057113
 21
-280.2939988167341
  0
LINE
  8
5
  6
CONTINUOUS
 10
134.0539744634407
 20
-279.2939988167341
 11
134.0539744634407
 21
-278.4939988167341
  0
LINE
  8
14
  6
CONTINUOUS
 10
120.3839744634407
 20
-276.9939988167341
 11
120.3839744634407
 21
-262.4939988167341
  0
LINE
  8
14
  6
CONTINUOUS
 10
123.6839744634407
 20
-271.9439988167341
 11
123.6839744634407
 21
-262.4939988167341
  0
LINE
  8
14
  6
CONTINUOUS
 10
134.0539744634407
 20
-271.9439988167341
 11
123.6839744634407
 21
-271.9439988167341
  0
LINE
  8
3
  6
CONTINUOUS
 10
-53.96602553655933
 20
-152.2139988167341
 11
-18.96602553655933
 21
-152.2139988167341
  0
LINE
  8
3
  6
CONTINUOUS
 10
-18.96602553655933
 20
-163.2139988167341
 11
-18.96602553655933
 21
-152.2139988167341
  0
LINE
  8
3
  6
CONTINUOUS
 10
-53.96602553655933
 20
-163.2139988167341
 11
-18.96602553655933
 21
-163.2139988167341
  0
LINE
  8
3
  6
CONTINUOUS
 10
-25.96602553655933
 20
-163.2139988167341
 11
-25.96602553655933
 21
-152.2139988167341
  0
LINE
  8
3
  6
CONTINUOUS
 10
-32.96602553655933
 20
-163.2139988167341
 11
-32.96602553655933
 21
-152.2139988167341
  0
LINE
  8
3
  6
CONTINUOUS
 10
-39.96602553655933
 20
-163.2139988167341
 11
-39.96602553655933
 21
-152.2139988167341
  0
LINE
  8
3
  6
CONTINUOUS
 10
-46.96602553655933
 20
-163.2139988167341
 11
-46.96602553655933
 21
-152.2139988167341
  0
POLYLINE
  8
10
  6
CONTINUOUS
 66
     1
 70
     0
 40
0.0
 41
0.0
  0
VERTEX
  8
10
 10
-51.55604553222656
 20
-154.5897521972656
  0
VERTEX
  8
10
 10
-52.00911712646484
 20
-157.3081970214844
  0
VERTEX
  8
10
 10
-52.33584213256836
 20
-157.6200714111328
  0
VERTEX
  8
10
 10
-52.77067184448242
 20
-157.0113067626953
  0
VERTEX
  8
10
 10
-52.32641220092773
 20
-154.3457489013672
  0
VERTEX
  8
10
 10
-51.97491073608398
 20
-154.0655059814453
  0
VERTEX
  8
10
 10
-51.55604553222656
 20
-154.5897521972656
  0
SEQEND
  8
10
  0
POLYLINE
  8
10
  6
CONTINUOUS
 66
     1
 70
     0
 40
0.0
 41
0.0
  0
VERTEX
  8
10
 10
-51.5340461730957
 20
-153.7140045166016
  0
VERTEX
  8
10
 10
-48.10547637939453
 20
-153.7140045166016
  0
VERTEX
  8
10
 10
-47.93465423583984
 20
-153.9531555175781
  0
VERTEX
  8
10
 10
-48.63810348510742
 20
-154.5140075683594
  0
VERTEX
  8
10
 10
-51.47027587890625
 20
-154.5140075683594
  0
VERTEX
  8
10
 10
-51.88554763793945
 20
-153.9942474365234
  0
VERTEX
  8
10
 10
-51.5340461730957
 20
-153.7140045166016
  0
SEQEND
  8
10
  0
POLYLINE
  8
10
  6
CONTINUOUS
 66
     1
 70
     0
 40
0.0
 41
0.0
  0
VERTEX
  8
10
 10
-47.69731140136719
 20
-154.2854461669922
  0
VERTEX
  8
10
 10
-48.1606330871582
 20
-157.0653533935547
  0
VERTEX
  8
10
 10
-48.75666046142578
 20
-157.6342926025391
  0
VERTEX
  8
10
 10
-49.00787353515625
 20
-157.2825927734375
  0
VERTEX
  8
10
 10
-48.56048965454102
 20
-154.5982818603516
  0
VERTEX
  8
10
 10
-47.86813354492188
 20
-154.0462799072266
  0
VERTEX
  8
10
 10
-47.69731140136719
 20
-154.2854461669922
  0
SEQEND
  8
10
  0
POLYLINE
  8
10
  6
CONTINUOUS
 66
     1
 70
     0
 40
0.0
 41
0.0
  0
VERTEX
  8
10
 10
-51.84969329833984
 20
-157.3140106201172
  0
VERTEX
  8
10
 10
-49.12588119506836
 20
-157.3140106201172
  0
VERTEX
  8
10
 10
-48.84016799926758
 20
-157.7140045166016
  0
VERTEX
  8
10
 10
-49.25921630859375
 20
-158.1139984130859
  0
VERTEX
  8
10
 10
-51.98302841186523
 20
-158.1139984130859
  0
VERTEX
  8
10
 10
-52.26874160766602
 20
-157.7140045166016
  0
VERTEX
  8
10
 10
-51.84969329833984
 20
-157.3140106201172
  0
SEQEND
  8
10
  0
POLYLINE
  8
10
  6
CONTINUOUS
 66
     1
 70
     0
 40
0.0
 41
0.0
  0
VERTEX
  8
10
 10
-53.41931915283203
 20
-160.9031982421875
  0
VERTEX
  8
10
 10
-53.00490570068359
 20
-158.4167022705078
  0
VERTEX
  8
10
 10
-52.35224914550781
 20
-157.7937164306641
  0
VERTEX
  8
10
 10
-52.1396484375
 20
-158.0913543701172
  0
VERTEX
  8
10
 10
-52.59639739990234
 20
-160.8318634033203
  0
VERTEX
  8
10
 10
-53.16297149658203
 20
-161.2620849609375
  0
VERTEX
  8
10
 10
-53.41931915283203
 20
-160.9031982421875
  0
SEQEND
  8
10
  0
POLYLINE
  8
10
  6
CONTINUOUS
 66
     1
 70
     0
 40
0.0
 41
0.0
  0
VERTEX
  8
10
 10
-52.51559448242188
 20
-160.9140014648438
  0
VERTEX
  8
10
 10
-49.69055938720703
 20
-160.9140014648438
  0
VERTEX
  8
10
 10
-49.1697998046875
 20
-161.4832000732422
  0
VERTEX
  8
10
 10
-49.41159820556641
 20
-161.7140045166016
  0
VERTEX
  8
10
 10
-52.84016799926758
 20
-161.7140045166016
  0
VERTEX
  8
10
 10
-53.09651565551758
 20
-161.3551177978516
  0
VERTEX
  8
10
 10
-52.51559448242188
 20
-160.9140014648438
  0
SEQEND
  8
10
  0
POLYLINE
  8
10
  6
CONTINUOUS
 66
     1
 70
     0
 40
0.0
 41
0.0
  0
VERTEX
  8
10
 10
-49.60117340087891
 20
-160.8423919677734
  0
VERTEX
  8
10
 10
-49.15642166137695
 20
-158.1738739013672
  0
VERTEX
  8
10
 10
-48.77306747436523
 20
-157.8079528808594
  0
VERTEX
  8
10
 10
-48.37684631347656
 20
-158.3626556396484
  0
VERTEX
  8
10
 10
-48.84531784057617
 20
-161.1734619140625
  0
VERTEX
  8
10
 10
-49.08711242675781
 20
-161.4042663574219
  0
VERTEX
  8
10
 10
-49.60117340087891
 20
-160.8423919677734
  0
SEQEND
  8
10
  0
POLYLINE
  8
10
  6
CONTINUOUS
 66
     1
 70
     0
 40
0.0
 41
0.0
  0
VERTEX
  8
10
 10
-48.30596160888672
 20
-161.3419036865234
 42
0.9999999999999999
  0
VERTEX
  8
10
 10
-47.50595855712891
 20
-161.3419036865234
 42
0.9999999999999999
  0
VERTEX
  8
10
 10
-48.30595779418945
 20
-161.3419036865234
  0
SEQEND
  8
10
  0
POLYLINE
  8
10
  6
CONTINUOUS
 66
     1
 70
     0
 40
0.0
 41
0.0
  0
VERTEX
  8
10
 10
-44.55604553222656
 20
-154.5897521972656
  0
VERTEX
  8
10
 10
-45.00911712646484
 20
-157.3081970214844
  0
VERTEX
  8
10
 10
-45.33584213256836
 20
-157.6200714111328
  0
VERTEX
  8
10
 10
-45.77067184448242
 20
-157.0113067626953
  0
VERTEX
  8
10
 10
-45.32641220092773
 20
-154.3457489013672
  0
VERTEX
  8
10
 10
-44.97491073608398
 20
-154.0655059814453
  0
VERTEX
  8
10
 10
-44.55604553222656
 20
-154.5897521972656
  0
SEQEND
  8
10
  0
POLYLINE
  8
10
  6
CONTINUOUS
 66
     1
 70
     0
 40
0.0
 41
0.0
  0
VERTEX
  8
10
 10
-44.5340461730957
 20
-153.7140045166016
  0
VERTEX
  8
10
 10
-41.10547637939453
 20
-153.7140045166016
  0
VERTEX
  8
10
 10
-40.93465423583984
 20
-153.9531555175781
  0
VERTEX
  8
10
 10
-41.63810348510742
 20
-154.5140075683594
  0
VERTEX
  8
10
 10
-44.47027587890625
 20
-154.5140075683594
  0
VERTEX
  8
10
 10
-44.88554763793945
 20
-153.9942474365234
  0
VERTEX
  8
10
 10
-44.5340461730957
 20
-153.7140045166016
  0
SEQEND
  8
10
  0
POLYLINE
  8
10
  6
CONTINUOUS
 66
     1
 70
     0
 40
0.0
 41
0.0
  0
VERTEX
  8
10
 10
-40.69731140136719
 20
-154.2854461669922
  0
VERTEX
  8
10
 10
-41.1606330871582
 20
-157.0653533935547
  0
VERTEX
  8
10
 10
-41.75666046142578
 20
-157.6342926025391
  0
VERTEX
  8
10
 10
-42.00787353515625
 20
-157.2825927734375
  0
VERTEX
  8
10
 10
-41.56048965454102
 20
-154.5982818603516
  0
VERTEX
  8
10
 10
-40.86813354492188
 20
-154.0462799072266
  0
VERTEX
  8
10
 10
-40.69731140136719
 20
-154.2854461669922
  0
SEQEND
  8
10
  0
POLYLINE
  8
10
  6
CONTINUOUS
 66
     1
 70
     0
 40
0.0
 41
0.0
  0
VERTEX
  8
10
 10
-44.84969329833984
 20
-157.3140106201172
  0
VERTEX
  8
10
 10
-42.12588119506836
 20
-157.3140106201172
  0
VERTEX
  8
10
 10
-41.84016799926758
 20
-157.7140045166016
  0
VERTEX
  8
10
 10
-42.25921630859375
 20
-158.1139984130859
  0
VERTEX
  8
10
 10
-44.98302841186523
 20
-158.1139984130859
  0
VERTEX
  8
10
 10
-45.26874160766602
 20
-157.7140045166016
  0
VERTEX
  8
10
 10
-44.84969329833984
 20
-157.3140106201172
  0
SEQEND
  8
10
  0
POLYLINE
  8
10
  6
CONTINUOUS
 66
     1
 70
     0
 40
0.0
 41
0.0
  0
VERTEX
  8
10
 10
-46.41931915283203
 20
-160.9031982421875
  0
VERTEX
  8
10
 10
-46.00490570068359
 20
-158.4167022705078
  0
VERTEX
  8
10
 10
-45.35224914550781
 20
-157.7937164306641
  0
VERTEX
  8
10
 10
-45.1396484375
 20
-158.0913543701172
  0
VERTEX
  8
10
 10
-45.59639739990234
 20
-160.8318634033203
  0
VERTEX
  8
10
 10
-46.16297149658203
 20
-161.2620849609375
  0
VERTEX
  8
10
 10
-46.41931915283203
 20
-160.9031982421875
  0
SEQEND
  8
10
  0
POLYLINE
  8
10
  6
CONTINUOUS
 66
     1
 70
     0
 40
0.0
 41
0.0
  0
VERTEX
  8
10
 10
-45.51559448242188
 20
-160.9140014648438
  0
VERTEX
  8
10
 10
-42.69055938720703
 20
-160.9140014648438
  0
VERTEX
  8
10
 10
-42.1697998046875
 20
-161.4832000732422
  0
VERTEX
  8
10
 10
-42.41159820556641
 20
-161.7140045166016
  0
VERTEX
  8
10
 10
-45.84016799926758
 20
-161.7140045166016
  0
VERTEX
  8
10
 10
-46.09651565551758
 20
-161.3551177978516
  0
VERTEX
  8
10
 10
-45.51559448242188
 20
-160.9140014648438
  0
SEQEND
  8
10
  0
POLYLINE
  8
10
  6
CONTINUOUS
 66
     1
 70
     0
 40
0.0
 41
0.0
  0
VERTEX
  8
10
 10
-42.60117340087891
 20
-160.8423919677734
  0
VERTEX
  8
10
 10
-42.15642166137695
 20
-158.1738739013672
  0
VERTEX
  8
10
 10
-41.77306747436523
 20
-157.8079528808594
  0
VERTEX
  8
10
 10
-41.37684631347656
 20
-158.3626556396484
  0
VERTEX
  8
10
 10
-41.84531784057617
 20
-161.1734619140625
  0
VERTEX
  8
10
 10
-42.08711242675781
 20
-161.4042663574219
  0
VERTEX
  8
10
 10
-42.60117340087891
 20
-160.8423919677734
  0
SEQEND
  8
10
  0
POLYLINE
  8
10
  6
CONTINUOUS
 66
     1
 70
     0
 40
0.0
 41
0.0
  0
VERTEX
  8
10
 10
-41.30596160888672
 20
-161.3419036865234
 42
0.9999999999999999
  0
VERTEX
  8
10
 10
-40.50595855712891
 20
-161.3419036865234
 42
0.9999999999999999
  0
VERTEX
  8
10
 10
-41.30595779418945
 20
-161.3419036865234
  0
SEQEND
  8
10
  0
POLYLINE
  8
10
  6
CONTINUOUS
 66
     1
 70
     0
 40
0.0
 41
0.0
  0
VERTEX
  8
10
 10
-37.55604553222656
 20
-154.5897521972656
  0
VERTEX
  8
10
 10
-38.00911712646484
 20
-157.3081970214844
  0
VERTEX
  8
10
 10
-38.33584213256836
 20
-157.6200714111328
  0
VERTEX
  8
10
 10
-38.77067184448242
 20
-157.0113067626953
  0
VERTEX
  8
10
 10
-38.32641220092773
 20
-154.3457489013672
  0
VERTEX
  8
10
 10
-37.97491073608398
 20
-154.0655059814453
  0
VERTEX
  8
10
 10
-37.55604553222656
 20
-154.5897521972656
  0
SEQEND
  8
10
  0
POLYLINE
  8
10
  6
CONTINUOUS
 66
     1
 70
     0
 40
0.0
 41
0.0
  0
VERTEX
  8
10
 10
-37.5340461730957
 20
-153.7140045166016
  0
VERTEX
  8
10
 10
-34.10547637939453
 20
-153.7140045166016
  0
VERTEX
  8
10
 10
-33.93465423583984
 20
-153.9531555175781
  0
VERTEX
  8
10
 10
-34.63810348510742
 20
-154.5140075683594
  0
VERTEX
  8
10
 10
-37.47027587890625
 20
-154.5140075683594
  0
VERTEX
  8
10
 10
-37.88554763793945
 20
-153.9942474365234
  0
VERTEX
  8
10
 10
-37.5340461730957
 20
-153.7140045166016
  0
SEQEND
  8
10
  0
POLYLINE
  8
10
  6
CONTINUOUS
 66
     1
 70
     0
 40
0.0
 41
0.0
  0
VERTEX
  8
10
 10
-33.69731140136719
 20
-154.2854461669922
  0
VERTEX
  8
10
 10
-34.1606330871582
 20
-157.0653533935547
  0
VERTEX
  8
10
 10
-34.75666046142578
 20
-157.6342926025391
  0
VERTEX
  8
10
 10
-35.00787353515625
 20
-157.2825927734375
  0
VERTEX
  8
10
 10
-34.56048965454102
 20
-154.5982818603516
  0
VERTEX
  8
10
 10
-33.86813354492188
 20
-154.0462799072266
  0
VERTEX
  8
10
 10
-33.69731140136719
 20
-154.2854461669922
  0
SEQEND
  8
10
  0
POLYLINE
  8
10
  6
CONTINUOUS
 66
     1
 70
     0
 40
0.0
 41
0.0
  0
VERTEX
  8
10
 10
-37.84969329833984
 20
-157.3140106201172
  0
VERTEX
  8
10
 10
-35.12588119506836
 20
-157.3140106201172
  0
VERTEX
  8
10
 10
-34.84016799926758
 20
-157.7140045166016
  0
VERTEX
  8
10
 10
-35.25921630859375
 20
-158.1139984130859
  0
VERTEX
  8
10
 10
-37.98302841186523
 20
-158.1139984130859
  0
VERTEX
  8
10
 10
-38.26874160766602
 20
-157.7140045166016
  0
VERTEX
  8
10
 10
-37.84969329833984
 20
-157.3140106201172
  0
SEQEND
  8
10
  0
POLYLINE
  8
10
  6
CONTINUOUS
 66
     1
 70
     0
 40
0.0
 41
0.0
  0
VERTEX
  8
10
 10
-39.41931915283203
 20
-160.9031982421875
  0
VERTEX
  8
10
 10
-39.00490570068359
 20
-158.4167022705078
  0
VERTEX
  8
10
 10
-38.35224914550781
 20
-157.7937164306641
  0
VERTEX
  8
10
 10
-38.1396484375
 20
-158.0913543701172
  0
VERTEX
  8
10
 10
-38.59639739990234
 20
-160.8318634033203
  0
VERTEX
  8
10
 10
-39.16297149658203
 20
-161.2620849609375
  0
VERTEX
  8
10
 10
-39.41931915283203
 20
-160.9031982421875
  0
SEQEND
  8
10
  0
POLYLINE
  8
10
  6
CONTINUOUS
 66
     1
 70
     0
 40
0.0
 41
0.0
  0
VERTEX
  8
10
 10
-38.51559448242188
 20
-160.9140014648438
  0
VERTEX
  8
10
 10
-35.69055938720703
 20
-160.9140014648438
  0
VERTEX
  8
10
 10
-35.1697998046875
 20
-161.4832000732422
  0
VERTEX
  8
10
 10
-35.41159820556641
 20
-161.7140045166016
  0
VERTEX
  8
10
 10
-38.84016799926758
 20
-161.7140045166016
  0
VERTEX
  8
10
 10
-39.09651565551758
 20
-161.3551177978516
  0
VERTEX
  8
10
 10
-38.51559448242188
 20
-160.9140014648438
  0
SEQEND
  8
10
  0
POLYLINE
  8
10
  6
CONTINUOUS
 66
     1
 70
     0
 40
0.0
 41
0.0
  0
VERTEX
  8
10
 10
-35.60117340087891
 20
-160.8423919677734
  0
VERTEX
  8
10
 10
-35.15642166137695
 20
-158.1738739013672
  0
VERTEX
  8
10
 10
-34.77306747436523
 20
-157.8079528808594
  0
VERTEX
  8
10
 10
-34.37684631347656
 20
-158.3626556396484
  0
VERTEX
  8
10
 10
-34.84531784057617
 20
-161.1734619140625
  0
VERTEX
  8
10
 10
-35.08711242675781
 20
-161.4042663574219
  0
VERTEX
  8
10
 10
-35.60117340087891
 20
-160.8423919677734
  0
SEQEND
  8
10
  0
POLYLINE
  8
10
  6
CONTINUOUS
 66
     1
 70
     0
 40
0.0
 41
0.0
  0
VERTEX
  8
10
 10
-34.30596160888672
 20
-161.3419036865234
 42
0.9999999999999999
  0
VERTEX
  8
10
 10
-33.50595855712891
 20
-161.3419036865234
 42
0.9999999999999999
  0
VERTEX
  8
10
 10
-34.30595779418945
 20
-161.3419036865234
  0
SEQEND
  8
10
  0
POLYLINE
  8
10
  6
CONTINUOUS
 66
     1
 70
     0
 40
0.0
 41
0.0
  0
VERTEX
  8
10
 10
-30.5560474395752
 20
-154.5897521972656
  0
VERTEX
  8
10
 10
-31.00911712646484
 20
-157.3081970214844
  0
VERTEX
  8
10
 10
-31.33584213256836
 20
-157.6200714111328
  0
VERTEX
  8
10
 10
-31.77067184448242
 20
-157.0113067626953
  0
VERTEX
  8
10
 10
-31.32641410827637
 20
-154.3457489013672
  0
VERTEX
  8
10
 10
-30.97491073608398
 20
-154.0655059814453
  0
VERTEX
  8
10
 10
-30.5560474395752
 20
-154.5897521972656
  0
SEQEND
  8
10
  0
POLYLINE
  8
10
  6
CONTINUOUS
 66
     1
 70
     0
 40
0.0
 41
0.0
  0
VERTEX
  8
10
 10
-30.53404808044434
 20
-153.7140045166016
  0
VERTEX
  8
10
 10
-27.10547828674316
 20
-153.7140045166016
  0
VERTEX
  8
10
 10
-26.93465614318848
 20
-153.9531555175781
  0
VERTEX
  8
10
 10
-27.63810539245606
 20
-154.5140075683594
  0
VERTEX
  8
10
 10
-30.47027587890625
 20
-154.5140075683594
  0
VERTEX
  8
10
 10
-30.88554763793945
 20
-153.9942474365234
  0
VERTEX
  8
10
 10
-30.53404808044434
 20
-153.7140045166016
  0
SEQEND
  8
10
  0
POLYLINE
  8
10
  6
CONTINUOUS
 66
     1
 70
     0
 40
0.0
 41
0.0
  0
VERTEX
  8
10
 10
-26.69731330871582
 20
-154.2854461669922
  0
VERTEX
  8
10
 10
-27.1606330871582
 20
-157.0653533935547
  0
VERTEX
  8
10
 10
-27.75666236877441
 20
-157.6342926025391
  0
VERTEX
  8
10
 10
-28.00787544250488
 20
-157.2825927734375
  0
VERTEX
  8
10
 10
-27.56048965454102
 20
-154.5982818603516
  0
VERTEX
  8
10
 10
-26.86813354492188
 20
-154.0462799072266
  0
VERTEX
  8
10
 10
-26.69731330871582
 20
-154.2854461669922
  0
SEQEND
  8
10
  0
POLYLINE
  8
10
  6
CONTINUOUS
 66
     1
 70
     0
 40
0.0
 41
0.0
  0
VERTEX
  8
10
 10
-30.84969520568848
 20
-157.3140106201172
  0
VERTEX
  8
10
 10
-28.12588310241699
 20
-157.3140106201172
  0
VERTEX
  8
10
 10
-27.84016799926758
 20
-157.7140045166016
  0
VERTEX
  8
10
 10
-28.25921821594238
 20
-158.1139984130859
  0
VERTEX
  8
10
 10
-30.98303031921387
 20
-158.1139984130859
  0
VERTEX
  8
10
 10
-31.26874160766602
 20
-157.7140045166016
  0
VERTEX
  8
10
 10
-30.84969520568848
 20
-157.3140106201172
  0
SEQEND
  8
10
  0
POLYLINE
  8
10
  6
CONTINUOUS
 66
     1
 70
     0
 40
0.0
 41
0.0
  0
VERTEX
  8
10
 10
-32.41931915283203
 20
-160.9031982421875
  0
VERTEX
  8
10
 10
-32.00490570068359
 20
-158.4167022705078
  0
VERTEX
  8
10
 10
-31.35225105285645
 20
-157.7937164306641
  0
VERTEX
  8
10
 10
-31.13965034484863
 20
-158.0913543701172
  0
VERTEX
  8
10
 10
-31.59639930725098
 20
-160.8318634033203
  0
VERTEX
  8
10
 10
-32.16297149658203
 20
-161.2620849609375
  0
VERTEX
  8
10
 10
-32.41931915283203
 20
-160.9031982421875
  0
SEQEND
  8
10
  0
POLYLINE
  8
10
  6
CONTINUOUS
 66
     1
 70
     0
 40
0.0
 41
0.0
  0
VERTEX
  8
10
 10
-31.51559638977051
 20
-160.9140014648438
  0
VERTEX
  8
10
 10
-28.69055938720703
 20
-160.9140014648438
  0
VERTEX
  8
10
 10
-28.1697998046875
 20
-161.4832000732422
  0
VERTEX
  8
10
 10
-28.41160011291504
 20
-161.7140045166016
  0
VERTEX
  8
10
 10
-31.84016799926758
 20
-161.7140045166016
  0
VERTEX
  8
10
 10
-32.09651565551758
 20
-161.3551177978516
  0
VERTEX
  8
10
 10
-31.51559638977051
 20
-160.9140014648438
  0
SEQEND
  8
10
  0
POLYLINE
  8
10
  6
CONTINUOUS
 66
     1
 70
     0
 40
0.0
 41
0.0
  0
VERTEX
  8
10
 10
-28.60117530822754
 20
-160.8423919677734
  0
VERTEX
  8
10
 10
-28.15642166137695
 20
-158.1738739013672
  0
VERTEX
  8
10
 10
-27.77306938171387
 20
-157.8079528808594
  0
VERTEX
  8
10
 10
-27.3768482208252
 20
-158.3626556396484
  0
VERTEX
  8
10
 10
-27.84531784057617
 20
-161.1734619140625
  0
VERTEX
  8
10
 10
-28.08711433410645
 20
-161.4042663574219
  0
VERTEX
  8
10
 10
-28.60117530822754
 20
-160.8423919677734
  0
SEQEND
  8
10
  0
POLYLINE
  8
10
  6
CONTINUOUS
 66
     1
 70
     0
 40
0.0
 41
0.0
  0
VERTEX
  8
10
 10
-27.30596160888672
 20
-161.3419036865234
 42
0.9999999999999999
  0
VERTEX
  8
10
 10
-26.50595855712891
 20
-161.3419036865234
 42
0.9999999999999999
  0
VERTEX
  8
10
 10
-27.30595588684082
 20
-161.3419036865234
  0
SEQEND
  8
10
  0
POLYLINE
  8
10
  6
CONTINUOUS
 66
     1
 70
     0
 40
0.0
 41
0.0
  0
VERTEX
  8
10
 10
-23.5560474395752
 20
-154.5897521972656
  0
VERTEX
  8
10
 10
-24.00911712646484
 20
-157.3081970214844
  0
VERTEX
  8
10
 10
-24.33584213256836
 20
-157.6200714111328
  0
VERTEX
  8
10
 10
-24.77067184448242
 20
-157.0113067626953
  0
VERTEX
  8
10
 10
-24.32641410827637
 20
-154.3457489013672
  0
VERTEX
  8
10
 10
-23.97491073608398
 20
-154.0655059814453
  0
VERTEX
  8
10
 10
-23.5560474395752
 20
-154.5897521972656
  0
SEQEND
  8
10
  0
POLYLINE
  8
10
  6
CONTINUOUS
 66
     1
 70
     0
 40
0.0
 41
0.0
  0
VERTEX
  8
10
 10
-23.53404808044434
 20
-153.7140045166016
  0
VERTEX
  8
10
 10
-20.10547828674316
 20
-153.7140045166016
  0
VERTEX
  8
10
 10
-19.93465614318848
 20
-153.9531555175781
  0
VERTEX
  8
10
 10
-20.63810539245606
 20
-154.5140075683594
  0
VERTEX
  8
10
 10
-23.47027587890625
 20
-154.5140075683594
  0
VERTEX
  8
10
 10
-23.88554763793945
 20
-153.9942474365234
  0
VERTEX
  8
10
 10
-23.53404808044434
 20
-153.7140045166016
  0
SEQEND
  8
10
  0
POLYLINE
  8
10
  6
CONTINUOUS
 66
     1
 70
     0
 40
0.0
 41
0.0
  0
VERTEX
  8
10
 10
-19.69731330871582
 20
-154.2854461669922
  0
VERTEX
  8
10
 10
-20.1606330871582
 20
-157.0653533935547
  0
VERTEX
  8
10
 10
-20.75666236877441
 20
-157.6342926025391
  0
VERTEX
  8
10
 10
-21.00787544250488
 20
-157.2825927734375
  0
VERTEX
  8
10
 10
-20.56048965454102
 20
-154.5982818603516
  0
VERTEX
  8
10
 10
-19.86813354492188
 20
-154.0462799072266
  0
VERTEX
  8
10
 10
-19.69731330871582
 20
-154.2854461669922
  0
SEQEND
  8
10
  0
POLYLINE
  8
10
  6
CONTINUOUS
 66
     1
 70
     0
 40
0.0
 41
0.0
  0
VERTEX
  8
10
 10
-23.84969520568848
 20
-157.3140106201172
  0
VERTEX
  8
10
 10
-21.12588310241699
 20
-157.3140106201172
  0
VERTEX
  8
10
 10
-20.84016799926758
 20
-157.7140045166016
  0
VERTEX
  8
10
 10
-21.25921821594238
 20
-158.1139984130859
  0
VERTEX
  8
10
 10
-23.98303031921387
 20
-158.1139984130859
  0
VERTEX
  8
10
 10
-24.26874160766602
 20
-157.7140045166016
  0
VERTEX
  8
10
 10
-23.84969520568848
 20
-157.3140106201172
  0
SEQEND
  8
10
  0
POLYLINE
  8
10
  6
CONTINUOUS
 66
     1
 70
     0
 40
0.0
 41
0.0
  0
VERTEX
  8
10
 10
-25.41932106018066
 20
-160.9031982421875
  0
VERTEX
  8
10
 10
-25.00490570068359
 20
-158.4167022705078
  0
VERTEX
  8
10
 10
-24.35225105285645
 20
-157.7937164306641
  0
VERTEX
  8
10
 10
-24.13965034484863
 20
-158.0913543701172
  0
VERTEX
  8
10
 10
-24.59639930725098
 20
-160.8318634033203
  0
VERTEX
  8
10
 10
-25.16297340393066
 20
-161.2620849609375
  0
VERTEX
  8
10
 10
-25.41932106018066
 20
-160.9031982421875
  0
SEQEND
  8
10
  0
POLYLINE
  8
10
  6
CONTINUOUS
 66
     1
 70
     0
 40
0.0
 41
0.0
  0
VERTEX
  8
10
 10
-24.51559638977051
 20
-160.9140014648438
  0
VERTEX
  8
10
 10
-21.69055938720703
 20
-160.9140014648438
  0
VERTEX
  8
10
 10
-21.1697998046875
 20
-161.4832000732422
  0
VERTEX
  8
10
 10
-21.41160011291504
 20
-161.7140045166016
  0
VERTEX
  8
10
 10
-24.84016799926758
 20
-161.7140045166016
  0
VERTEX
  8
10
 10
-25.09651565551758
 20
-161.3551177978516
  0
VERTEX
  8
10
 10
-24.51559638977051
 20
-160.9140014648438
  0
SEQEND
  8
10
  0
POLYLINE
  8
10
  6
CONTINUOUS
 66
     1
 70
     0
 40
0.0
 41
0.0
  0
VERTEX
  8
10
 10
-21.60117530822754
 20
-160.8423919677734
  0
VERTEX
  8
10
 10
-21.15642166137695
 20
-158.1738739013672
  0
VERTEX
  8
10
 10
-20.77306938171387
 20
-157.8079528808594
  0
VERTEX
  8
10
 10
-20.3768482208252
 20
-158.3626556396484
  0
VERTEX
  8
10
 10
-20.84531784057617
 20
-161.1734619140625
  0
VERTEX
  8
10
 10
-21.08711433410645
 20
-161.4042663574219
  0
VERTEX
  8
10
 10
-21.60117530822754
 20
-160.8423919677734
  0
SEQEND
  8
10
  0
POLYLINE
  8
10
  6
CONTINUOUS
 66
     1
 70
     0
 40
0.0
 41
0.0
  0
VERTEX
  8
10
 10
-20.30596160888672
 20
-161.3419036865234
 42
0.9999999999999999
  0
VERTEX
  8
10
 10
-19.50595855712891
 20
-161.3419036865234
 42
0.9999999999999999
  0
VERTEX
  8
10
 10
-20.30595588684082
 20
-161.3419036865234
  0
SEQEND
  8
10
  0
CIRCLE
  8
14
  6
CONTINUOUS
 10
56.03397446344067
 20
-155.7139988167341
 40
1.5
  0
CIRCLE
  8
14
  6
CONTINUOUS
 10
66.03397446344067
 20
-155.7139988167341
 40
1.5
  0
CIRCLE
  8
14
  6
CONTINUOUS
 10
76.03397446344067
 20
-155.7139988167341
 40
1.5
  0
CIRCLE
  8
14
  6
CONTINUOUS
 10
86.03397446344067
 20
-155.7139988167341
 40
1.5
  0
CIRCLE
  8
14
  6
CONTINUOUS
 10
96.03397446344067
 20
-155.7139988167341
 40
1.5
  0
CIRCLE
  8
14
  6
CONTINUOUS
 10
106.0339744634407
 20
-155.7139988167341
 40
1.5
  0
LINE
  8
14
  6
CONTINUOUS
 10
79.98397446344067
 20
-275.4939988167341
 11
120.3839744634407
 21
-275.4939988167341
  0
LINE
  8
14
  6
CONTINUOUS
 10
219.2238444069727
 20
-277.7139988167341
 11
219.2238444069727
 21
-147.7139988167341
  0
LINE
  8
14
  6
CONTINUOUS
 10
217.6238444069727
 20
-147.7139988167341
 11
219.2238444069727
 21
-147.7139988167341
  0
LINE
  8
14
  6
CONTINUOUS
 10
217.6238444069727
 20
-277.7139988167341
 11
217.6238444069727
 21
-147.7139988167341
  0
LINE
  8
14
  6
CONTINUOUS
 10
217.6238444069727
 20
-277.7139988167341
 11
219.2238444069727
 21
-277.7139988167341
  0
LINE
  8
14
  6
CONTINUOUS
 10
-9.466025536559329
 20
-160.2139988167341
 11
-9.466025536559329
 21
-155.2139988167341
  0
LINE
  8
14
  6
CONTINUOUS
 10
-9.466025536559329
 20
-155.2139988167341
 11
-4.466025536559329
 21
-155.2139988167341
  0
LINE
  8
14
  6
CONTINUOUS
 10
-4.466025536559329
 20
-160.2139988167341
 11
-4.466025536559329
 21
-155.2139988167341
  0
LINE
  8
14
  6
CONTINUOUS
 10
-9.466025536559329
 20
-160.2139988167341
 11
-4.466025536559329
 21
-160.2139988167341
  0
LINE
  8
14
  6
CONTINUOUS
 10
0.5339744634406713
 20
-160.2139988167341
 11
0.5339744634406713
 21
-155.2139988167341
  0
LINE
  8
14
  6
CONTINUOUS
 10
0.5339744634406713
 20
-155.2139988167341
 11
5.533974463440671
 21
-155.2139988167341
  0
LINE
  8
14
  6
CONTINUOUS
 10
5.533974463440671
 20
-160.2139988167341
 11
5.533974463440671
 21
-155.2139988167341
  0
LINE
  8
14
  6
CONTINUOUS
 10
0.5339744634406713
 20
-160.2139988167341
 11
5.533974463440671
 21
-160.2139988167341
  0
LINE
  8
14
  6
CONTINUOUS
 10
10.53397446344067
 20
-160.2139988167341
 11
10.53397446344067
 21
-155.2139988167341
  0
LINE
  8
14
  6
CONTINUOUS
 10
10.53397446344067
 20
-155.2139988167341
 11
15.53397446344067
 21
-155.2139988167341
  0
LINE
  8
14
  6
CONTINUOUS
 10
15.53397446344067
 20
-160.2139988167341
 11
15.53397446344067
 21
-155.2139988167341
  0
LINE
  8
14
  6
CONTINUOUS
 10
10.53397446344067
 20
-160.2139988167341
 11
15.53397446344067
 21
-160.2139988167341
  0
LINE
  8
14
  6
CONTINUOUS
 10
20.53397446344067
 20
-160.2139988167341
 11
20.53397446344067
 21
-155.2139988167341
  0
LINE
  8
14
  6
CONTINUOUS
 10
20.53397446344067
 20
-155.2139988167341
 11
25.53397446344067
 21
-155.2139988167341
  0
LINE
  8
14
  6
CONTINUOUS
 10
25.53397446344067
 20
-160.2139988167341
 11
25.53397446344067
 21
-155.2139988167341
  0
LINE
  8
14
  6
CONTINUOUS
 10
20.53397446344067
 20
-160.2139988167341
 11
25.53397446344067
 21
-160.2139988167341
  0
LINE
  8
14
  6
CONTINUOUS
 10
30.53397446344067
 20
-160.2139988167341
 11
30.53397446344067
 21
-155.2139988167341
  0
LINE
  8
14
  6
CONTINUOUS
 10
30.53397446344067
 20
-155.2139988167341
 11
35.53397446344067
 21
-155.2139988167341
  0
LINE
  8
14
  6
CONTINUOUS
 10
35.53397446344067
 20
-160.2139988167341
 11
35.53397446344067
 21
-155.2139988167341
  0
LINE
  8
14
  6
CONTINUOUS
 10
30.53397446344067
 20
-160.2139988167341
 11
35.53397446344067
 21
-160.2139988167341
  0
LINE
  8
14
  6
CONTINUOUS
 10
-69.96602553655933
 20
-264.7139988167341
 11
-69.96602553655933
 21
-259.2139988167341
  0
LINE
  8
14
  6
CONTINUOUS
 10
-69.96602553655933
 20
-264.7139988167341
 11
-65.96602553655933
 21
-264.7139988167341
  0
LINE
  8
14
  6
CONTINUOUS
 10
-69.96602553655933
 20
-248.2139988167341
 11
-69.96602553655933
 21
-242.7139988167341
  0
LINE
  8
14
  6
CONTINUOUS
 10
-65.96602553655933
 20
-248.2139988167341
 11
-65.96602553655933
 21
-242.7139988167341
  0
LINE
  8
14
  6
CONTINUOUS
 10
-69.96602553655933
 20
-242.7139988167341
 11
-65.96602553655933
 21
-242.7139988167341
  0
LINE
  8
14
  6
CONTINUOUS
 10
-65.96602553655933
 20
-259.2139988167341
 11
-65.96602553655933
 21
-264.7139988167341
  0
LINE
  8
14
  6
CONTINUOUS
 10
-65.96602553655933
 20
-222.7139988167341
 11
-65.96602553655933
 21
-187.7139988167341
  0
LINE
  8
14
  6
CONTINUOUS
 10
-60.96602553655933
 20
-183.7139988167341
 11
-60.96602553655933
 21
-165.7139988167341
  0
LINE
  8
14
  6
CONTINUOUS
 10
-60.96602553655933
 20
-165.7139988167341
 11
-33.46602553655933
 21
-165.7139988167341
  0
LINE
  8
14
  6
CONTINUOUS
 10
-33.46602553655933
 20
-183.7139988167341
 11
-33.46602553655933
 21
-165.7139988167341
  0
LINE
  8
14
  6
CONTINUOUS
 10
-60.96602553655933
 20
-183.7139988167341
 11
-33.46602553655933
 21
-183.7139988167341
  0
LINE
  8
14
  6
CONTINUOUS
 10
-65.96602553655933
 20
-187.7139988167341
 11
-20.96602553655933
 21
-187.7139988167341
  0
LINE
  8
14
  6
CONTINUOUS
 10
-20.96602553655933
 20
-222.7139988167341
 11
-20.96602553655933
 21
-187.7139988167341
  0
LINE
  8
14
  6
CONTINUOUS
 10
-65.96602553655933
 20
-222.7139988167341
 11
-20.96602553655933
 21
-222.7139988167341
  0
LINE
  8
14
  6
CONTINUOUS
 10
-12.46602553655933
 20
-188.2139988167341
 11
5.033974463440671
 21
-188.2139988167341
  0
LINE
  8
14
  6
CONTINUOUS
 10
5.033974463440671
 20
-199.7139988167341
 11
5.033974463440671
 21
-188.2139988167341
  0
LINE
  8
14
  6
CONTINUOUS
 10
-12.46602553655933
 20
-199.7139988167341
 11
5.033974463440671
 21
-199.7139988167341
  0
LINE
  8
14
  6
CONTINUOUS
 10
-12.46602553655933
 20
-199.7139988167341
 11
-12.46602553655933
 21
-188.2139988167341
  0
CIRCLE
  8
14
  6
CONTINUOUS
 10
78.03397446344067
 20
-190.2139988167341
 40
11.5
  0
LINE
  8
14
  6
CONTINUOUS
 10
29.03397446344067
 20
-179.7139988167341
 11
64.53397446344067
 21
-179.7139988167341
  0
LINE
  8
14
  6
CONTINUOUS
 10
64.53397446344067
 20
-179.7139988167341
 11
64.53397446344067
 21
-162.2139988167341
  0
LINE
  8
14
  6
CONTINUOUS
 10
29.03397446344067
 20
-162.2139988167341
 11
64.53397446344067
 21
-162.2139988167341
  0
LINE
  8
14
  6
CONTINUOUS
 10
29.03397446344067
 20
-169.7139988167341
 11
29.03397446344067
 21
-162.2139988167341
  0
ARC
  8
14
  6
CONTINUOUS
 10
29.03397446344067
 20
-170.9639988167341
 40
1.25
 50
270.0
 51
90.0
  0
LINE
  8
14
  6
CONTINUOUS
 10
29.03397446344067
 20
-179.7139988167341
 11
29.03397446344067
 21
-172.2139988167341
  0
LINE
  8
14
  6
CONTINUOUS
 10
128.5339744634407
 20
-245.2139988167341
 11
140.0339744634407
 21
-245.2139988167341
  0
LINE
  8
14
  6
CONTINUOUS
 10
140.0339744634407
 20
-245.2139988167341
 11
140.0339744634407
 21
-239.2139988167341
  0
LINE
  8
14
  6
CONTINUOUS
 10
128.5339744634407
 20
-239.2139988167341
 11
140.0339744634407
 21
-239.2139988167341
  0
LINE
  8
14
  6
CONTINUOUS
 10
128.5339744634407
 20
-245.2139988167341
 11
128.5339744634407
 21
-239.2139988167341
  0
LINE
  8
14
  6
CONTINUOUS
 10
-8.466025536559329
 20
-231.7139988167341
 11
8.033974463440671
 21
-231.7139988167341
  0
LINE
  8
14
  6
CONTINUOUS
 10
8.033974463440671
 20
-231.7139988167341
 11
8.033974463440671
 21
-224.2139988167341
  0
LINE
  8
14
  6
CONTINUOUS
 10
-8.466025536559329
 20
-224.2139988167341
 11
8.033974463440671
 21
-224.2139988167341
  0
LINE
  8
14
  6
CONTINUOUS
 10
-8.466025536559329
 20
-231.7139988167341
 11
-8.466025536559329
 21
-224.2139988167341
  0
LINE
  8
14
  6
CONTINUOUS
 10
-4.716025536559329
 20
-221.2139988167341
 11
4.283974463440671
 21
-221.2139988167341
  0
LINE
  8
14
  6
CONTINUOUS
 10
-4.716025536559329
 20
-234.7139988167341
 11
4.283974463440671
 21
-234.7139988167341
  0
LINE
  8
14
  6
CONTINUOUS
 10
4.283974463440671
 20
-224.2139988167341
 11
4.283974463440671
 21
-221.2139988167341
  0
LINE
  8
14
  6
CONTINUOUS
 10
-4.716025536559329
 20
-224.2139988167341
 11
-4.716025536559329
 21
-221.2139988167341
  0
LINE
  8
14
  6
CONTINUOUS
 10
4.283974463440671
 20
-234.7139988167341
 11
4.283974463440671
 21
-231.7139988167341
  0
LINE
  8
14
  6
CONTINUOUS
 10
-4.716025536559329
 20
-234.7139988167341
 11
-4.716025536559329
 21
-231.7139988167341
  0
LINE
  8
14
  6
CONTINUOUS
 10
-68.96602553655933
 20
-264.7139988167341
 11
-68.96602553655933
 21
-259.2139988167341
  0
LINE
  8
14
  6
CONTINUOUS
 10
-66.96602553655933
 20
-259.2139988167341
 11
-66.96602553655933
 21
-264.7139988167341
  0
LINE
  8
14
  6
CONTINUOUS
 10
-68.96602553655933
 20
-248.2139988167341
 11
-68.96602553655933
 21
-242.7139988167341
  0
LINE
  8
14
  6
CONTINUOUS
 10
-66.96602553655933
 20
-248.2139988167341
 11
-66.96602553655933
 21
-242.7139988167341
  0
LINE
  8
14
  6
CONTINUOUS
 10
-68.96602553655933
 20
-243.7139988167341
 11
-66.96602553655933
 21
-243.7139988167341
  0
LINE
  8
14
  6
CONTINUOUS
 10
-68.96602553655933
 20
-263.7139988167341
 11
-66.96602553655933
 21
-263.7139988167341
  0
LINE
  8
14
  6
CONTINUOUS
 10
-69.46602553655933
 20
-248.7139988167341
 11
-66.46602553655933
 21
-248.7139988167341
  0
LINE
  8
14
  6
CONTINUOUS
 10
-69.46602553655933
 20
-258.7139988167341
 11
-66.46602553655933
 21
-258.7139988167341
  0
LINE
  8
14
  6
CONTINUOUS
 10
-66.96602553655933
 20
-248.2139988167341
 11
-65.96602553655933
 21
-248.2139988167341
  0
LINE
  8
14
  6
CONTINUOUS
 10
-66.96602553655933
 20
-259.2139988167341
 11
-65.96602553655933
 21
-259.2139988167341
  0
LINE
  8
14
  6
CONTINUOUS
 10
-69.96602553655933
 20
-259.2139988167341
 11
-68.96602553655933
 21
-259.2139988167341
  0
LINE
  8
14
  6
CONTINUOUS
 10
-69.96602553655933
 20
-248.2139988167341
 11
-68.96602553655933
 21
-248.2139988167341
  0
LINE
  8
14
  6
CONTINUOUS
 10
-69.46602553655933
 20
-259.2139988167341
 11
-69.46602553655933
 21
-248.2139988167341
  0
LINE
  8
14
  6
CONTINUOUS
 10
-66.46602553655933
 20
-248.2139988167341
 11
-66.46602553655933
 21
-259.2139988167341
  0
LINE
  8
14
  6
CONTINUOUS
 10
139.0964744634407
 20
-243.7139988167341
 11
139.0964744634407
 21
-240.7139988167341
  0
LINE
  8
14
  6
CONTINUOUS
 10
138.0964744634407
 20
-240.7139988167341
 11
139.0964744634407
 21
-240.7139988167341
  0
LINE
  8
14
  6
CONTINUOUS
 10
138.0964744634407
 20
-243.7139988167341
 11
138.0964744634407
 21
-240.7139988167341
  0
LINE
  8
14
  6
CONTINUOUS
 10
138.0964744634407
 20
-243.7139988167341
 11
139.0964744634407
 21
-243.7139988167341
  0
LINE
  8
14
  6
CONTINUOUS
 10
136.2214744634407
 20
-243.7139988167341
 11
136.2214744634407
 21
-240.7139988167341
  0
LINE
  8
14
  6
CONTINUOUS
 10
135.2214744634407
 20
-240.7139988167341
 11
136.2214744634407
 21
-240.7139988167341
  0
LINE
  8
14
  6
CONTINUOUS
 10
135.2214744634407
 20
-243.7139988167341
 11
135.2214744634407
 21
-240.7139988167341
  0
LINE
  8
14
  6
CONTINUOUS
 10
135.2214744634407
 20
-243.7139988167341
 11
136.2214744634407
 21
-243.7139988167341
  0
LINE
  8
14
  6
CONTINUOUS
 10
133.3464744634407
 20
-243.7139988167341
 11
133.3464744634407
 21
-240.7139988167341
  0
LINE
  8
14
  6
CONTINUOUS
 10
132.3464744634407
 20
-240.7139988167341
 11
133.3464744634407
 21
-240.7139988167341
  0
LINE
  8
14
  6
CONTINUOUS
 10
132.3464744634407
 20
-243.7139988167341
 11
132.3464744634407
 21
-240.7139988167341
  0
LINE
  8
14
  6
CONTINUOUS
 10
132.3464744634407
 20
-243.7139988167341
 11
133.3464744634407
 21
-243.7139988167341
  0
LINE
  8
14
  6
CONTINUOUS
 10
130.4714744634407
 20
-243.7139988167341
 11
130.4714744634407
 21
-240.7139988167341
  0
LINE
  8
14
  6
CONTINUOUS
 10
129.4714744634407
 20
-240.7139988167341
 11
130.4714744634407
 21
-240.7139988167341
  0
LINE
  8
14
  6
CONTINUOUS
 10
129.4714744634407
 20
-243.7139988167341
 11
129.4714744634407
 21
-240.7139988167341
  0
LINE
  8
14
  6
CONTINUOUS
 10
129.4714744634407
 20
-243.7139988167341
 11
130.4714744634407
 21
-243.7139988167341
  0
LINE
  8
14
  6
CONTINUOUS
 10
138.0964744634407
 20
-242.7139988167341
 11
139.0964744634407
 21
-242.7139988167341
  0
LINE
  8
14
  6
CONTINUOUS
 10
135.2214744634407
 20
-242.7139988167341
 11
136.2214744634407
 21
-242.7139988167341
  0
LINE
  8
14
  6
CONTINUOUS
 10
132.3464744634407
 20
-242.7139988167341
 11
133.3464744634407
 21
-242.7139988167341
  0
LINE
  8
14
  6
CONTINUOUS
 10
129.4714744634407
 20
-242.7139988167341
 11
130.4714744634407
 21
-242.7139988167341
  0
INSERT
  8
4
  6
CONTINUOUS
  2
COMP1
 10
0.0
 20
0.0
 41
1.0
 42
1.0
 50
0.0
  0
INSERT
  8
4
  6
CONTINUOUS
  2
COMP2
 10
0.0
 20
0.0
 41
1.0
 42
1.0
 50
0.0
  0
INSERT
  8
4
  6
CONTINUOUS
  2
COMP3
 10
0.0
 20
0.0
 41
1.0
 42
1.0
 50
0.0
  0
INSERT
  8
4
  6
CONTINUOUS
  2
COMP4
 10
0.0
 20
0.0
 41
1.0
 42
1.0
 50
0.0
  0
INSERT
  8
4
  6
CONTINUOUS
  2
COMP5
 10
0.0
 20
0.0
 41
1.0
 42
1.0
 50
0.0
  0
INSERT
  8
4
  6
CONTINUOUS
  2
COMP6
 10
0.0
 20
0.0
 41
1.0
 42
1.0
 50
0.0
  0
INSERT
  8
4
  6
CONTINUOUS
  2
COMP7
 10
0.0
 20
0.0
 41
1.0
 42
1.0
 50
0.0
  0
INSERT
  8
4
  6
CONTINUOUS
  2
COMP8
 10
0.0
 20
0.0
 41
1.0
 42
1.0
 50
0.0
  0
INSERT
  8
4
  6
CONTINUOUS
  2
COMP9
 10
0.0
 20
0.0
 41
1.0
 42
1.0
 50
0.0
  0
INSERT
  8
4
  6
CONTINUOUS
  2
COMP10
 10
0.0
 20
0.0
 41
1.0
 42
1.0
 50
0.0
  0
INSERT
  8
4
  6
CONTINUOUS
  2
COMP11
 10
0.0
 20
0.0
 41
1.0
 42
1.0
 50
0.0
  0
INSERT
  8
4
  6
CONTINUOUS
  2
COMP12
 10
0.0
 20
0.0
 41
1.0
 42
1.0
 50
0.0
  0
INSERT
  8
4
  6
CONTINUOUS
  2
COMP13
 10
0.0
 20
0.0
 41
1.0
 42
1.0
 50
0.0
  0
INSERT
  8
4
  6
CONTINUOUS
  2
COMP14
 10
0.0
 20
0.0
 41
1.0
 42
1.0
 50
0.0
  0
INSERT
  8
4
  6
CONTINUOUS
  2
COMP15
 10
0.0
 20
0.0
 41
1.0
 42
1.0
 50
0.0
  0
INSERT
  8
4
  6
CONTINUOUS
  2
COMP16
 10
0.0
 20
0.0
 41
1.0
 42
1.0
 50
0.0
  0
INSERT
  8
4
  6
CONTINUOUS
  2
COMP17
 10
0.0
 20
0.0
 41
1.0
 42
1.0
 50
0.0
  0
INSERT
  8
4
  6
CONTINUOUS
  2
COMP18
 10
0.0
 20
0.0
 41
1.0
 42
1.0
 50
0.0
  0
INSERT
  8
4
  6
CONTINUOUS
  2
COMP19
 10
0.0
 20
0.0
 41
1.0
 42
1.0
 50
0.0
  0
INSERT
  8
4
  6
CONTINUOUS
  2
COMP20
 10
0.0
 20
0.0
 41
1.0
 42
1.0
 50
0.0
  0
INSERT
  8
4
  6
CONTINUOUS
  2
COMP21
 10
0.0
 20
0.0
 41
1.0
 42
1.0
 50
0.0
  0
INSERT
  8
4
  6
CONTINUOUS
  2
COMP22
 10
0.0
 20
0.0
 41
1.0
 42
1.0
 50
0.0
  0
INSERT
  8
4
  6
CONTINUOUS
  2
COMP23
 10
0.0
 20
0.0
 41
1.0
 42
1.0
 50
0.0
  0
INSERT
  8
4
  6
CONTINUOUS
  2
COMP24
 10
0.0
 20
0.0
 41
1.0
 42
1.0
 50
0.0
  0
INSERT
  8
13
  6
CONTINUOUS
  2
COMP25
 10
0.0
 20
0.0
 41
1.0
 42
1.0
 50
0.0
  0
INSERT
  8
13
  6
CONTINUOUS
  2
COMP26
 10
0.0
 20
0.0
 41
1.0
 42
1.0
 50
0.0
  0
INSERT
  8
13
  6
CONTINUOUS
  2
COMP27
 10
0.0
 20
0.0
 41
1.0
 42
1.0
 50
0.0
  0
INSERT
  8
13
  6
CONTINUOUS
  2
COMP28
 10
0.0
 20
0.0
 41
1.0
 42
1.0
 50
0.0
  0
INSERT
  8
13
  6
CONTINUOUS
  2
COMP29
 10
0.0
 20
0.0
 41
1.0
 42
1.0
 50
0.0
  0
INSERT
  8
13
  6
CONTINUOUS
  2
COMP30
 10
0.0
 20
0.0
 41
1.0
 42
1.0
 50
0.0
  0
INSERT
  8
12
  6
CONTINUOUS
  2
COMP31
 10
0.0
 20
0.0
 41
1.0
 42
1.0
 50
0.0
  0
INSERT
  8
12
  6
CONTINUOUS
  2
COMP32
 10
0.0
 20
0.0
 41
1.0
 42
1.0
 50
0.0
  0
INSERT
  8
12
  6
CONTINUOUS
  2
COMP33
 10
0.0
 20
0.0
 41
1.0
 42
1.0
 50
0.0
  0
INSERT
  8
12
  6
CONTINUOUS
  2
COMP34
 10
0.0
 20
0.0
 41
1.0
 42
1.0
 50
0.0
  0
INSERT
  8
12
  6
CONTINUOUS
  2
COMP35
 10
0.0
 20
0.0
 41
1.0
 42
1.0
 50
0.0
  0
INSERT
  8
12
  6
CONTINUOUS
  2
COMP36
 10
0.0
 20
0.0
 41
1.0
 42
1.0
 50
0.0
  0
INSERT
  8
12
  6
CONTINUOUS
  2
COMP37
 10
0.0
 20
0.0
 41
1.0
 42
1.0
 50
0.0
  0
INSERT
  8
12
  6
CONTINUOUS
  2
COMP38
 10
0.0
 20
0.0
 41
1.0
 42
1.0
 50
0.0
  0
INSERT
  8
12
  6
CONTINUOUS
  2
COMP39
 10
0.0
 20
0.0
 41
1.0
 42
1.0
 50
0.0
  0
INSERT
  8
12
  6
CONTINUOUS
  2
COMP40
 10
0.0
 20
0.0
 41
1.0
 42
1.0
 50
0.0
  0
INSERT
  8
12
  6
CONTINUOUS
  2
COMP41
 10
0.0
 20
0.0
 41
1.0
 42
1.0
 50
0.0
  0
INSERT
  8
12
  6
CONTINUOUS
  2
COMP42
 10
0.0
 20
0.0
 41
1.0
 42
1.0
 50
0.0
  0
INSERT
  8
12
  6
CONTINUOUS
  2
COMP43
 10
0.0
 20
0.0
 41
1.0
 42
1.0
 50
0.0
  0
INSERT
  8
12
  6
CONTINUOUS
  2
COMP44
 10
0.0
 20
0.0
 41
1.0
 42
1.0
 50
0.0
  0
INSERT
  8
12
  6
CONTINUOUS
  2
COMP45
 10
0.0
 20
0.0
 41
1.0
 42
1.0
 50
0.0
  0
INSERT
  8
12
  6
CONTINUOUS
  2
COMP46
 10
0.0
 20
0.0
 41
1.0
 42
1.0
 50
0.0
  0
INSERT
  8
12
  6
CONTINUOUS
  2
COMP47
 10
0.0
 20
0.0
 41
1.0
 42
1.0
 50
0.0
  0
INSERT
  8
12
  6
CONTINUOUS
  2
COMP48
 10
0.0
 20
0.0
 41
1.0
 42
1.0
 50
0.0
  0
INSERT
  8
12
  6
CONTINUOUS
  2
COMP49
 10
0.0
 20
0.0
 41
1.0
 42
1.0
 50
0.0
  0
INSERT
  8
12
  6
CONTINUOUS
  2
COMP50
 10
0.0
 20
0.0
 41
1.0
 42
1.0
 50
0.0
  0
INSERT
  8
12
  6
CONTINUOUS
  2
COMP51
 10
0.0
 20
0.0
 41
1.0
 42
1.0
 50
0.0
  0
INSERT
  8
12
  6
CONTINUOUS
  2
COMP52
 10
0.0
 20
0.0
 41
1.0
 42
1.0
 50
0.0
  0
INSERT
  8
12
  6
CONTINUOUS
  2
COMP53
 10
0.0
 20
0.0
 41
1.0
 42
1.0
 50
0.0
  0
LINE
  8
14
  6
CONTINUOUS
 10
-61.44894902506633
 20
-160.2139976040451
 11
-56.46602553655933
 21
-160.2139976040451
  0
LINE
  8
14
  6
CONTINUOUS
 10
-56.46602553655933
 20
-160.2139976040451
 11
-56.46602553655933
 21
-155.2151892150791
  0
LINE
  8
14
  6
CONTINUOUS
 10
-61.44894902506633
 20
-155.2151892150791
 11
-56.46602553655933
 21
-155.2151892150791
  0
LINE
  8
14
  6
CONTINUOUS
 10
-61.44894902506633
 20
-160.2139976040451
 11
-61.44894902506633
 21
-155.2151892150791
  0
INSERT
  8
4
  6
CONTINUOUS
  2
COMP54
 10
0.0
 20
0.0
 41
1.0
 42
1.0
 50
0.0
  0
INSERT
  8
4
  6
CONTINUOUS
  2
COMP55
 10
0.0
 20
0.0
 41
1.0
 42
1.0
 50
0.0
  0
INSERT
  8
4
  6
CONTINUOUS
  2
COMP56
 10
0.0
 20
0.0
 41
1.0
 42
1.0
 50
0.0
  0
INSERT
  8
4
  6
CONTINUOUS
  2
COMP57
 10
0.0
 20
0.0
 41
1.0
 42
1.0
 50
0.0
  0
INSERT
  8
4
  6
CONTINUOUS
  2
COMP58
 10
0.0
 20
0.0
 41
1.0
 42
1.0
 50
0.0
  0
INSERT
  8
4
  6
CONTINUOUS
  2
COMP59
 10
0.0
 20
0.0
 41
1.0
 42
1.0
 50
0.0
  0
INSERT
  8
4
  6
CONTINUOUS
  2
COMP60
 10
0.0
 20
0.0
 41
1.0
 42
1.0
 50
0.0
  0
INSERT
  8
4
  6
CONTINUOUS
  2
COMP61
 10
0.0
 20
0.0
 41
1.0
 42
1.0
 50
0.0
  0
INSERT
  8
4
  6
CONTINUOUS
  2
COMP62
 10
0.0
 20
0.0
 41
1.0
 42
1.0
 50
0.0
  0
ENDSEC
  0
EOF
