  0
SECTION
  2
HEADER
  9
$ACADVER
  1
AC1006
  9
$INSBASE
 10
0.0
 20
0.0
 30
0.0
  9
$EXTMIN
 10
-73.96602553655933
 20
-284.2139988167341
  9
$EXTMAX
 10
219.2238451765407
 20
-147.7139988167341
  9
$LIMMIN
 10
-73.96602553655933
 20
-284.2139988167341
  9
$LIMMAX
 10
219.2238451765407
 20
-147.7139988167341
  9
$ORTHOMODE
 70
     0
  9
$REGENMODE
 70
     1
  9
$FILLMODE
 70
     1
  9
$QTEXTMODE
 70
     0
  9
$MIRRTEXT
 70
     1
  9
$DRAGMODE
 70
     2
  9
$LTSCALE
 40
1.0
  9
$OSMODE
 70
     0
  9
$ATTMODE
 70
     1
  9
$TEXTSIZE
 40
3.0
  9
$TRACEWID
 40
0.5
  9
$TEXTSTYLE
  7
STANDARD
  9
$CLAYER
  8
0
  9
$CELTYPE
  6
BYLAYER
  9
$CECOLOR
 62
   256
  9
$DIMSCALE
 40
1.0
  9
$DIMASZ
 40
3.0
  9
$DIMEXO
 40
1.0
  9
$DIMDLI
 40
5.0
  9
$DIMRND
 40
0.0
  9
$DIMDLE
 40
5.0
  9
$DIMEXE
 40
2.0
  9
$DIMTP
 40
0.0
  9
$DIMTM
 40
0.0
  9
$DIMTXT
 40
3.0
  9
$DIMCEN
 40
2.0
  9
$DIMTSZ
 40
0.0
  9
$DIMTOL
 70
     0
  9
$DIMLIM
 70
     0
  9
$DIMTIH
 70
     0
  9
$DIMTOH
 70
     0
  9
$DIMSE1
 70
     0
  9
$DIMSE2
 70
     0
  9
$DIMTAD
 70
     1
  9
$DIMZIN
 70
     8
  9
$DIMBLK
  1

  9
$DIMASO
 70
     1
  9
$DIMSHO
 70
     0
  9
$DIMPOST
  1

  9
$DIMAPOST
  1

  9
$DIMALT
 70
     0
  9
$DIMALTD
 70
     4
  9
$DIMALTF
 40
25.4
  9
$DIMLFAC
 40
1.0
  9
$DIMTOFL
 70
     1
  9
$DIMTVP
 40
1.0
  9
$DIMTIX
 70
     0
  9
$DIMSOXD
 70
     0
  9
$DIMSAH
 70
     0
  9
$DIMBLK1
  1

  9
$DIMBLK2
  1

  9
$LUNITS
 70
     2
  9
$LUPREC
 70
     4
  9
$AXISMODE
 70
     0
  9
$AXISUNIT
 10
0.0
 20
0.0
  9
$SKETCHINC
 40
1.0
  9
$FILLETRAD
 40
0.0
  9
$AUNITS
 70
     0
  9
$AUPREC
 70
     0
  9
$MENU
  1
acad
  9
$ELEVATION
 40
0.0
  9
$THICKNESS
 40
0.0
  9
$LIMCHECK
 70
     0
  9
$BLIPMODE
 70
     1
  9
$CHAMFERA
 40
0.0
  9
$CHAMFERB
 40
0.0
  9
$SKPOLY
 70
     0
  9
$TDCREATE
 40
2454060.637268519
  9
$TDUPDATE
 40
2454060.637268519
  9
$TDINDWG
 40
0.0
  9
$TDUSRTIMER
 40
0.0
  9
$USRTIMER
 70
     1
  9
$ANGBASE
 50
0.0
  9
$ANGDIR
 70
     0
  9
$PDMODE
 70
     0
  9
$PDSIZE
 40
0.0
  9
$PLINEWID
 40
0.0
  9
$COORDS
 70
     0
  9
$SPLFRAME
 70
     0
  9
$SPLINETYPE
 70
     6
  9
$SPLINESEGS
 70
     8
  9
$ATTDIA
 70
     0
  9
$ATTREQ
 70
     1
  9
$HANDLING
 70
     0
  9
$HANDSEED
  5
0
  9
$SURFTAB1
 70
     6
  9
$SURFTAB2
 70
     6
  9
$SURFTYPE
 70
     6
  9
$SURFU
 70
     6
  9
$SURFV
 70
     6
  9
$FLATLAND
 70
     0
  9
$UCSNAME
  2

  9
$UCSORG
 10
0.0
 20
0.0
 30
0.0
  9
$UCSXDIR
 10
1.0
 20
0.0
 30
0.0
  9
$UCSYDIR
 10
0.0
 20
1.0
 30
0.0
  9
$USERI1
 70
     0
  9
$USERI2
 70
     0
  9
$USERI3
 70
     0
  9
$USERI4
 70
     0
  9
$USERI5
 70
     0
  9
$USERR1
 40
0.0
  9
$USERR2
 40
0.0
  9
$USERR3
 40
0.0
  9
$USERR4
 40
0.0
  9
$USERR5
 40
0.0
  9
$WORLDVIEW
 70
     1
  0
ENDSEC
  0
SECTION
  2
TABLES
  0
TABLE
  2
VPORT
 70
     1
  0
VPORT
  2
*ACTIVE
 70
     0
 10
0.0
 20
0.0
 11
1.0
 21
1.0
 12
72.62890981999067
 22
-215.9639988167341
 13
0.0
 23
0.0
 14
0.0
 24
0.0
 15
0.0
 25
0.0
 16
0.0
 26
0.0
 36
1.0
 17
0.0
 27
0.0
 37
0.0
 40
293.1898707131
 41
1.5
 42
50.0
 43
0.0
 44
0.0
 50
0.0
 51
0.0
 71
     0
 72
   100
 73
     1
 74
     1
 75
     0
 76
     0
 77
     0
 78
     0
  0
ENDTAB
  0
TABLE
  2
LTYPE
 70
    20
  0
LTYPE
  2
CONTINUOUS
 70
    64
  3
solid line
 72
    65
 73
     0
 40
0.0
  0
ENDTAB
  0
TABLE
  2
LAYER
 70
    20
  0
LAYER
  2
0
 70
    64
 62
     7
  6
CONTINUOUS
  0
LAYER
  2
1
 70
    64
 62
     7
  6
CONTINUOUS
  0
LAYER
  2
12
 70
    64
 62
     7
  6
CONTINUOUS
  0
LAYER
  2
13
 70
    64
 62
     7
  6
CONTINUOUS
  0
LAYER
  2
3
 70
    64
 62
     7
  6
CONTINUOUS
  0
LAYER
  2
14
 70
    64
 62
     7
  6
CONTINUOUS
  0
LAYER
  2
10
 70
    64
 62
     7
  6
CONTINUOUS
  0
LAYER
  2
16
 70
    64
 62
     7
  6
CONTINUOUS
  0
LAYER
  2
4
 70
    64
 62
     7
  6
CONTINUOUS
  0
ENDTAB
  0
TABLE
  2
STYLE
 70
     4
  0
ENDTAB
  0
TABLE
  2
VIEW
 70
     0
  0
ENDTAB
  0
TABLE
  2
UCS
 70
     0
  0
ENDTAB
  0
TABLE
  2
DWGMGR
 70
     0
  0
ENDTAB
  0
ENDSEC
  0
SECTION
  2
BLOCKS
  0
BLOCK
  8
4
  2
COMP1
 70
    64
 10
0.0
 20
0.0
  0
POLYLINE
  8
4
  6
CONTINUOUS
 66
     1
 70
     0
 40
0.0
 41
0.0
  0
VERTEX
  8
4
 10
-71.02852630615234
 20
-172.4015045166016
 42
0.875
  0
VERTEX
  8
4
 10
-71.02852630615234
 20
-173.4015045166016
  0
VERTEX
  8
4
 10
-69.84102630615234
 20
-173.4015045166016
 42
0.7500000000000001
  0
VERTEX
  8
4
 10
-69.84102630615234
 20
-172.4015045166016
  0
SEQEND
  8
4
  0
POLYLINE
  8
4
  6
CONTINUOUS
 66
     1
 70
     0
 40
0.0
 41
0.0
  0
VERTEX
  8
4
 10
-71.09102630615234
 20
-171.0265045166016
 42
0.360132228499441
  0
VERTEX
  8
4
 10
-71.46602630615234
 20
-171.5265045166016
 42
0.3984927804268872
  0
VERTEX
  8
4
 10
-71.02852630615234
 20
-172.0265045166016
 42
0.4142186781788212
  0
VERTEX
  8
4
 10
-70.46602630615234
 20
-171.5265045166016
 42
-0.3750000000000001
  0
VERTEX
  8
4
 10
-69.96602630615234
 20
-171.0265045166016
 42
-0.4832297543950834
  0
VERTEX
  8
4
 10
-69.46602630615234
 20
-171.4952545166016
 42
-0.3194049442135198
  0
VERTEX
  8
4
 10
-69.84102630615234
 20
-172.0265045166016
  0
SEQEND
  8
4
  0
POLYLINE
  8
4
  6
CONTINUOUS
 66
     1
 70
     0
 40
0.0
 41
0.0
  0
VERTEX
  8
4
 10
-69.46602630615234
 20
-170.6515045166016
  0
VERTEX
  8
4
 10
-69.46602630615234
 20
-170.1202545166016
 42
0.4666666666666667
  0
VERTEX
  8
4
 10
-69.93477630615234
 20
-169.6515045166016
  0
VERTEX
  8
4
 10
-70.99727630615234
 20
-169.6515045166016
 42
0.4666666666666667
  0
VERTEX
  8
4
 10
-71.46602630615234
 20
-170.1202545166016
  0
VERTEX
  8
4
 10
-71.46602630615234
 20
-170.6515045166016
  0
VERTEX
  8
4
 10
-69.46602630615234
 20
-170.6515045166016
  0
SEQEND
  8
4
  0
POLYLINE
  8
4
  6
CONTINUOUS
 66
     1
 70
     0
 40
0.0
 41
0.0
  0
VERTEX
  8
4
 10
-70.46602630615234
 20
-168.3390045166016
  0
VERTEX
  8
4
 10
-70.46602630615234
 20
-169.2140045166016
  0
SEQEND
  8
4
  0
POLYLINE
  8
4
  6
CONTINUOUS
 66
     1
 70
     0
 40
0.0
 41
0.0
  0
VERTEX
  8
4
 10
-71.40352630615234
 20
-166.9640045166016
  0
VERTEX
  8
4
 10
-71.40352630615234
 20
-167.7765045166016
  0
VERTEX
  8
4
 10
-70.52852630615234
 20
-167.9015045166016
  0
VERTEX
  8
4
 10
-70.65352630615234
 20
-167.5890045166016
  0
VERTEX
  8
4
 10
-70.65352630615234
 20
-167.2140045166016
  0
VERTEX
  8
4
 10
-70.40352630615234
 20
-166.9015045166016
  0
VERTEX
  8
4
 10
-69.77852630615234
 20
-166.9015045166016
  0
VERTEX
  8
4
 10
-69.46602630615234
 20
-167.2140045166016
  0
VERTEX
  8
4
 10
-69.46602630615234
 20
-167.5890045166016
  0
VERTEX
  8
4
 10
-69.77852630615234
 20
-167.9015045166016
  0
SEQEND
  8
4
  0
POLYLINE
  8
4
  6
CONTINUOUS
 66
     1
 70
     0
 40
0.0
 41
0.0
  0
VERTEX
  8
4
 10
-71.46602630615234
 20
-165.8390045166016
  0
VERTEX
  8
4
 10
-71.21602630615234
 20
-165.5890045166016
  0
VERTEX
  8
4
 10
-70.71602630615234
 20
-165.5890045166016
  0
VERTEX
  8
4
 10
-70.52852630615234
 20
-165.8390045166016
  0
VERTEX
  8
4
 10
-70.52852630615234
 20
-166.2140045166016
  0
VERTEX
  8
4
 10
-70.71602630615234
 20
-166.4640045166016
  0
VERTEX
  8
4
 10
-71.21602630615234
 20
-166.4640045166016
  0
VERTEX
  8
4
 10
-71.46602630615234
 20
-166.2140045166016
  0
VERTEX
  8
4
 10
-71.46602630615234
 20
-165.8390045166016
  0
SEQEND
  8
4
  0
POLYLINE
  8
4
  6
CONTINUOUS
 66
     1
 70
     0
 40
0.0
 41
0.0
  0
VERTEX
  8
4
 10
-70.52852630615234
 20
-166.2140045166016
  0
VERTEX
  8
4
 10
-70.27852630615234
 20
-166.5265045166016
  0
VERTEX
  8
4
 10
-69.77852630615234
 20
-166.5265045166016
  0
VERTEX
  8
4
 10
-69.46602630615234
 20
-166.2140045166016
  0
VERTEX
  8
4
 10
-69.46602630615234
 20
-165.8390045166016
  0
VERTEX
  8
4
 10
-69.77852630615234
 20
-165.5265045166016
  0
VERTEX
  8
4
 10
-70.27852630615234
 20
-165.5265045166016
  0
VERTEX
  8
4
 10
-70.52852630615234
 20
-165.8390045166016
  0
SEQEND
  8
4
  0
POLYLINE
  8
4
  6
CONTINUOUS
 66
     1
 70
     0
 40
0.0
 41
0.0
  0
VERTEX
  8
4
 10
-69.46602630615234
 20
-164.6515045166016
  0
VERTEX
  8
4
 10
-71.46602630615234
 20
-164.6515045166016
  0
VERTEX
  8
4
 10
-70.87227630615234
 20
-164.9952545166016
  0
SEQEND
  8
4
  0
POLYLINE
  8
4
  6
CONTINUOUS
 66
     1
 70
     0
 40
0.0
 41
0.0
  0
VERTEX
  8
4
 10
-70.46602630615234
 20
-162.8390045166016
  0
VERTEX
  8
4
 10
-70.46602630615234
 20
-163.7140045166016
  0
SEQEND
  8
4
  0
POLYLINE
  8
4
  6
CONTINUOUS
 66
     1
 70
     0
 40
0.0
 41
0.0
  0
VERTEX
  8
4
 10
-70.90352630615234
 20
-162.4015045166016
  0
VERTEX
  8
4
 10
-71.40352630615234
 20
-162.4015045166016
  0
VERTEX
  8
4
 10
-71.40352630615234
 20
-161.4015045166016
  0
VERTEX
  8
4
 10
-69.46602630615234
 20
-162.0265045166016
  0
SEQEND
  8
4
  0
POLYLINE
  8
4
  6
CONTINUOUS
 66
     1
 70
     0
 40
0.0
 41
0.0
  0
VERTEX
  8
4
 10
-71.46602630615234
 20
-160.5265045166016
  0
VERTEX
  8
4
 10
-70.09102630615234
 20
-161.0265045166016
  0
VERTEX
  8
4
 10
-70.09102630615234
 20
-160.0265045166016
  0
SEQEND
  8
4
  0
POLYLINE
  8
4
  6
CONTINUOUS
 66
     1
 70
     0
 40
0.0
 41
0.0
  0
VERTEX
  8
4
 10
-69.46602630615234
 20
-160.3390045166016
  0
VERTEX
  8
4
 10
-70.77852630615234
 20
-160.3390045166016
  0
SEQEND
  8
4
  0
ENDBLK
  8
4
  0
BLOCK
  8
4
  2
COMP2
 70
    64
 10
0.0
 20
0.0
  0
POLYLINE
  8
4
  6
CONTINUOUS
 66
     1
 70
     0
 40
0.0
 41
0.0
  0
VERTEX
  8
4
 10
-66.09102630615234
 20
-167.5890045166016
 42
0.360132228499441
  0
VERTEX
  8
4
 10
-66.46602630615234
 20
-168.0890045166016
 42
0.3984927804268872
  0
VERTEX
  8
4
 10
-66.02852630615234
 20
-168.5890045166016
 42
0.4142186781788212
  0
VERTEX
  8
4
 10
-65.46602630615234
 20
-168.0890045166016
 42
-0.3750000000000001
  0
VERTEX
  8
4
 10
-64.96602630615234
 20
-167.5890045166016
 42
-0.4832297543950834
  0
VERTEX
  8
4
 10
-64.46602630615234
 20
-168.0577545166016
 42
-0.3194049442135198
  0
VERTEX
  8
4
 10
-64.84102630615234
 20
-168.5890045166016
  0
SEQEND
  8
4
  0
POLYLINE
  8
4
  6
CONTINUOUS
 66
     1
 70
     0
 40
0.0
 41
0.0
  0
VERTEX
  8
4
 10
-64.46602630615234
 20
-167.2140045166016
  0
VERTEX
  8
4
 10
-66.46602630615234
 20
-166.2140045166016
  0
SEQEND
  8
4
  0
POLYLINE
  8
4
  6
CONTINUOUS
 66
     1
 70
     0
 40
0.0
 41
0.0
  0
VERTEX
  8
4
 10
-64.46602630615234
 20
-165.8390045166016
  0
VERTEX
  8
4
 10
-66.46602630615234
 20
-165.8390045166016
  0
VERTEX
  8
4
 10
-64.46602630615234
 20
-164.8390045166016
  0
VERTEX
  8
4
 10
-66.46602630615234
 20
-164.8390045166016
  0
SEQEND
  8
4
  0
ENDBLK
  8
4
  0
BLOCK
  8
4
  2
COMP3
 70
    64
 10
0.0
 20
0.0
  0
POLYLINE
  8
4
  6
CONTINUOUS
 66
     1
 70
     0
 40
0.0
 41
0.0
  0
VERTEX
  8
4
 10
-62.16914749145508
 20
-152.7140045166016
  0
VERTEX
  8
4
 10
-61.54414749145508
 20
-152.7140045166016
 42
0.4142135623730771
  0
VERTEX
  8
4
 10
-60.91914749145508
 20
-152.0890045166016
 42
0.4142135623730743
  0
VERTEX
  8
4
 10
-61.54414749145508
 20
-151.4640045166016
  0
VERTEX
  8
4
 10
-62.16914749145508
 20
-151.4640045166016
  0
VERTEX
  8
4
 10
-62.16914749145508
 20
-153.9640045166016
  0
SEQEND
  8
4
  0
POLYLINE
  8
4
  6
CONTINUOUS
 66
     1
 70
     0
 40
0.0
 41
0.0
  0
VERTEX
  8
4
 10
-60.45039749145508
 20
-152.0108795166016
  0
VERTEX
  8
4
 10
-60.45039749145508
 20
-153.4952545166016
 42
0.75
  0
VERTEX
  8
4
 10
-59.20039749145508
 20
-153.4952545166016
  0
VERTEX
  8
4
 10
-59.20039749145508
 20
-152.0108795166016
 42
0.875
  0
VERTEX
  8
4
 10
-60.45039749145508
 20
-152.0108795166016
  0
SEQEND
  8
4
  0
POLYLINE
  8
4
  6
CONTINUOUS
 66
     1
 70
     0
 40
0.0
 41
0.0
  0
VERTEX
  8
4
 10
-58.73164749145508
 20
-151.4640045166016
  0
VERTEX
  8
4
 10
-58.73164749145508
 20
-153.9640045166016
  0
VERTEX
  8
4
 10
-57.48164749145508
 20
-153.9640045166016
  0
SEQEND
  8
4
  0
POLYLINE
  8
4
  6
CONTINUOUS
 66
     1
 70
     0
 40
0.0
 41
0.0
  0
VERTEX
  8
4
 10
-56.54414749145508
 20
-153.8858795166016
  0
VERTEX
  8
4
 10
-56.54414749145508
 20
-153.6515045166016
  0
VERTEX
  8
4
 10
-56.27070999145508
 20
-153.6515045166016
  0
VERTEX
  8
4
 10
-56.27070999145508
 20
-153.8858795166016
  0
VERTEX
  8
4
 10
-56.54414749145508
 20
-153.8858795166016
  0
SEQEND
  8
4
  0
ENDBLK
  8
4
  0
BLOCK
  8
4
  2
COMP4
 70
    64
 10
0.0
 20
0.0
  0
POLYLINE
  8
4
  6
CONTINUOUS
 66
     1
 70
     0
 40
0.0
 41
0.0
  0
VERTEX
  8
4
 10
-46.52213668823242
 20
-182.1402740478516
  0
VERTEX
  8
4
 10
-46.52213668823242
 20
-179.1402740478516
  0
VERTEX
  8
4
 10
-45.77213668823242
 20
-181.1090240478516
  0
VERTEX
  8
4
 10
-45.02213668823242
 20
-179.1402740478516
  0
VERTEX
  8
4
 10
-45.02213668823242
 20
-182.1402740478516
  0
SEQEND
  8
4
  0
POLYLINE
  8
4
  6
CONTINUOUS
 66
     1
 70
     0
 40
0.0
 41
0.0
  0
VERTEX
  8
4
 10
-44.45963668823242
 20
-179.7965240478516
  0
VERTEX
  8
4
 10
-44.45963668823242
 20
-181.5777740478516
 42
0.75
  0
VERTEX
  8
4
 10
-42.95963668823242
 20
-181.5777740478516
  0
VERTEX
  8
4
 10
-42.95963668823242
 20
-179.7965240478516
 42
0.8749999999999999
  0
VERTEX
  8
4
 10
-44.45963668823242
 20
-179.7965240478516
  0
SEQEND
  8
4
  0
POLYLINE
  8
4
  6
CONTINUOUS
 66
     1
 70
     0
 40
0.0
 41
0.0
  0
VERTEX
  8
4
 10
-42.39713668823242
 20
-182.1402740478516
  0
VERTEX
  8
4
 10
-41.60026168823242
 20
-182.1402740478516
 42
0.4666666666666667
  0
VERTEX
  8
4
 10
-40.89713668823242
 20
-181.4371490478516
  0
VERTEX
  8
4
 10
-40.89713668823242
 20
-179.8433990478516
 42
0.4666666666666667
  0
VERTEX
  8
4
 10
-41.60026168823242
 20
-179.1402740478516
  0
VERTEX
  8
4
 10
-42.39713668823242
 20
-179.1402740478516
  0
VERTEX
  8
4
 10
-42.39713668823242
 20
-182.1402740478516
  0
SEQEND
  8
4
  0
POLYLINE
  8
4
  6
CONTINUOUS
 66
     1
 70
     0
 40
0.0
 41
0.0
  0
VERTEX
  8
4
 10
-40.33463668823242
 20
-179.7027740478516
  0
VERTEX
  8
4
 10
-39.86588668823242
 20
-179.1402740478516
  0
VERTEX
  8
4
 10
-39.30338668823242
 20
-179.1402740478516
  0
VERTEX
  8
4
 10
-38.83463668823242
 20
-179.7027740478516
  0
VERTEX
  8
4
 10
-38.83463668823242
 20
-180.1715240478516
  0
VERTEX
  8
4
 10
-39.39713668823242
 20
-180.6402740478516
  0
VERTEX
  8
4
 10
-39.95963668823242
 20
-180.6402740478516
  0
SEQEND
  8
4
  0
POLYLINE
  8
4
  6
CONTINUOUS
 66
     1
 70
     0
 40
0.0
 41
0.0
  0
VERTEX
  8
4
 10
-39.39713668823242
 20
-180.6402740478516
  0
VERTEX
  8
4
 10
-38.83463668823242
 20
-181.2027740478516
  0
VERTEX
  8
4
 10
-38.83463668823242
 20
-181.6715240478516
  0
VERTEX
  8
4
 10
-39.30338668823242
 20
-182.1402740478516
  0
VERTEX
  8
4
 10
-39.86588668823242
 20
-182.1402740478516
  0
VERTEX
  8
4
 10
-40.33463668823242
 20
-181.6715240478516
  0
SEQEND
  8
4
  0
POLYLINE
  8
4
  6
CONTINUOUS
 66
     1
 70
     0
 40
0.0
 41
0.0
  0
VERTEX
  8
4
 10
-38.17838668823242
 20
-179.7027740478516
  0
VERTEX
  8
4
 10
-38.17838668823242
 20
-181.5777740478516
 42
0.9230769230769231
  0
VERTEX
  8
4
 10
-36.95963668823242
 20
-181.5777740478516
  0
VERTEX
  8
4
 10
-36.95963668823242
 20
-179.7027740478516
 42
0.9230769230769231
  0
VERTEX
  8
4
 10
-38.17838668823242
 20
-179.7027740478516
  0
SEQEND
  8
4
  0
POLYLINE
  8
4
  6
CONTINUOUS
 66
     1
 70
     0
 40
0.0
 41
0.0
  0
VERTEX
  8
4
 10
-36.20963668823242
 20
-179.7027740478516
  0
VERTEX
  8
4
 10
-35.74088668823242
 20
-179.1402740478516
  0
VERTEX
  8
4
 10
-35.17838668823242
 20
-179.1402740478516
  0
VERTEX
  8
4
 10
-34.70963668823242
 20
-179.7027740478516
  0
VERTEX
  8
4
 10
-34.70963668823242
 20
-180.4527740478516
  0
VERTEX
  8
4
 10
-36.20963668823242
 20
-181.7652740478516
  0
VERTEX
  8
4
 10
-36.20963668823242
 20
-182.1402740478516
  0
VERTEX
  8
4
 10
-34.70963668823242
 20
-182.1402740478516
  0
SEQEND
  8
4
  0
ENDBLK
  8
4
  0
BLOCK
  8
4
  2
COMP5
 70
    64
 10
0.0
 20
0.0
  0
POLYLINE
  8
4
  6
CONTINUOUS
 66
     1
 70
     0
 40
0.0
 41
0.0
  0
VERTEX
  8
4
 10
-34.73345565795898
 20
-220.6310272216797
  0
VERTEX
  8
4
 10
-34.73345565795898
 20
-217.6310272216797
  0
VERTEX
  8
4
 10
-33.98345565795898
 20
-219.5997772216797
  0
VERTEX
  8
4
 10
-33.23345565795898
 20
-217.6310272216797
  0
VERTEX
  8
4
 10
-33.23345565795898
 20
-220.6310272216797
  0
SEQEND
  8
4
  0
POLYLINE
  8
4
  6
CONTINUOUS
 66
     1
 70
     0
 40
0.0
 41
0.0
  0
VERTEX
  8
4
 10
-32.67095565795898
 20
-218.2872772216797
  0
VERTEX
  8
4
 10
-32.67095565795898
 20
-220.0685272216797
 42
0.75
  0
VERTEX
  8
4
 10
-31.17095565795898
 20
-220.0685272216797
  0
VERTEX
  8
4
 10
-31.17095565795898
 20
-218.2872772216797
 42
0.8749999999999999
  0
VERTEX
  8
4
 10
-32.67095565795898
 20
-218.2872772216797
  0
SEQEND
  8
4
  0
POLYLINE
  8
4
  6
CONTINUOUS
 66
     1
 70
     0
 40
0.0
 41
0.0
  0
VERTEX
  8
4
 10
-30.60845565795898
 20
-220.6310272216797
  0
VERTEX
  8
4
 10
-29.81158065795898
 20
-220.6310272216797
 42
0.4666666666666667
  0
VERTEX
  8
4
 10
-29.10845565795898
 20
-219.9279022216797
  0
VERTEX
  8
4
 10
-29.10845565795898
 20
-218.3341522216797
 42
0.4666666666666667
  0
VERTEX
  8
4
 10
-29.81158065795898
 20
-217.6310272216797
  0
VERTEX
  8
4
 10
-30.60845565795898
 20
-217.6310272216797
  0
VERTEX
  8
4
 10
-30.60845565795898
 20
-220.6310272216797
  0
SEQEND
  8
4
  0
POLYLINE
  8
4
  6
CONTINUOUS
 66
     1
 70
     0
 40
0.0
 41
0.0
  0
VERTEX
  8
4
 10
-28.54595565795898
 20
-218.1935272216797
  0
VERTEX
  8
4
 10
-28.07720565795898
 20
-217.6310272216797
  0
VERTEX
  8
4
 10
-27.51470565795898
 20
-217.6310272216797
  0
VERTEX
  8
4
 10
-27.04595565795898
 20
-218.1935272216797
  0
VERTEX
  8
4
 10
-27.04595565795898
 20
-218.6622772216797
  0
VERTEX
  8
4
 10
-27.60845565795898
 20
-219.1310272216797
  0
VERTEX
  8
4
 10
-28.17095565795898
 20
-219.1310272216797
  0
SEQEND
  8
4
  0
POLYLINE
  8
4
  6
CONTINUOUS
 66
     1
 70
     0
 40
0.0
 41
0.0
  0
VERTEX
  8
4
 10
-27.60845565795898
 20
-219.1310272216797
  0
VERTEX
  8
4
 10
-27.04595565795898
 20
-219.6935272216797
  0
VERTEX
  8
4
 10
-27.04595565795898
 20
-220.1622772216797
  0
VERTEX
  8
4
 10
-27.51470565795898
 20
-220.6310272216797
  0
VERTEX
  8
4
 10
-28.07720565795898
 20
-220.6310272216797
  0
VERTEX
  8
4
 10
-28.54595565795898
 20
-220.1622772216797
  0
SEQEND
  8
4
  0
POLYLINE
  8
4
  6
CONTINUOUS
 66
     1
 70
     0
 40
0.0
 41
0.0
  0
VERTEX
  8
4
 10
-26.38970565795898
 20
-218.1935272216797
  0
VERTEX
  8
4
 10
-26.38970565795898
 20
-220.0685272216797
 42
0.9230769230769231
  0
VERTEX
  8
4
 10
-25.17095565795898
 20
-220.0685272216797
  0
VERTEX
  8
4
 10
-25.17095565795898
 20
-218.1935272216797
 42
0.9230769230769231
  0
VERTEX
  8
4
 10
-26.38970565795898
 20
-218.1935272216797
  0
SEQEND
  8
4
  0
POLYLINE
  8
4
  6
CONTINUOUS
 66
     1
 70
     0
 40
0.0
 41
0.0
  0
VERTEX
  8
4
 10
-23.67095565795898
 20
-220.6310272216797
  0
VERTEX
  8
4
 10
-23.67095565795898
 20
-217.6310272216797
  0
VERTEX
  8
4
 10
-24.18658065795898
 20
-218.5216522216797
  0
SEQEND
  8
4
  0
ENDBLK
  8
4
  0
BLOCK
  8
4
  2
COMP6
 70
    64
 10
0.0
 20
0.0
  0
POLYLINE
  8
4
  6
CONTINUOUS
 66
     1
 70
     0
 40
0.0
 41
0.0
  0
VERTEX
  8
4
 10
-64.27293395996094
 20
-256.1307067871094
  0
VERTEX
  8
4
 10
-64.27293395996094
 20
-257.6307067871094
  0
VERTEX
  8
4
 10
-61.27293395996094
 20
-257.6307067871094
  0
SEQEND
  8
4
  0
POLYLINE
  8
4
  6
CONTINUOUS
 66
     1
 70
     0
 40
0.0
 41
0.0
  0
VERTEX
  8
4
 10
-62.77293395996094
 20
-257.6307067871094
  0
VERTEX
  8
4
 10
-62.77293395996094
 20
-256.3182067871094
  0
SEQEND
  8
4
  0
POLYLINE
  8
4
  6
CONTINUOUS
 66
     1
 70
     0
 40
0.0
 41
0.0
  0
VERTEX
  8
4
 10
-63.71043395996094
 20
-255.5682067871094
  0
VERTEX
  8
4
 10
-64.27293395996094
 20
-255.0994567871094
  0
VERTEX
  8
4
 10
-64.27293395996094
 20
-254.5369567871094
  0
VERTEX
  8
4
 10
-63.71043395996094
 20
-254.0682067871094
  0
VERTEX
  8
4
 10
-63.24168395996094
 20
-254.0682067871094
  0
VERTEX
  8
4
 10
-62.77293395996094
 20
-254.6307067871094
  0
VERTEX
  8
4
 10
-62.77293395996094
 20
-255.1932067871094
  0
SEQEND
  8
4
  0
POLYLINE
  8
4
  6
CONTINUOUS
 66
     1
 70
     0
 40
0.0
 41
0.0
  0
VERTEX
  8
4
 10
-62.77293395996094
 20
-254.6307067871094
  0
VERTEX
  8
4
 10
-62.21043395996094
 20
-254.0682067871094
  0
VERTEX
  8
4
 10
-61.74168395996094
 20
-254.0682067871094
  0
VERTEX
  8
4
 10
-61.27293395996094
 20
-254.5369567871094
  0
VERTEX
  8
4
 10
-61.27293395996094
 20
-255.0994567871094
  0
VERTEX
  8
4
 10
-61.74168395996094
 20
-255.5682067871094
  0
SEQEND
  8
4
  0
POLYLINE
  8
4
  6
CONTINUOUS
 66
     1
 70
     0
 40
0.0
 41
0.0
  0
VERTEX
  8
4
 10
-63.71043395996094
 20
-253.4119567871094
  0
VERTEX
  8
4
 10
-61.83543395996094
 20
-253.4119567871094
 42
0.9230769230769231
  0
VERTEX
  8
4
 10
-61.83543395996094
 20
-252.1932067871094
  0
VERTEX
  8
4
 10
-63.71043395996094
 20
-252.1932067871094
 42
0.9230769230769231
  0
VERTEX
  8
4
 10
-63.71043395996094
 20
-253.4119567871094
  0
SEQEND
  8
4
  0
POLYLINE
  8
4
  6
CONTINUOUS
 66
     1
 70
     0
 40
0.0
 41
0.0
  0
VERTEX
  8
4
 10
-61.27293395996094
 20
-250.6932067871094
  0
VERTEX
  8
4
 10
-64.27293395996094
 20
-250.6932067871094
  0
VERTEX
  8
4
 10
-63.38230895996094
 20
-251.2088317871094
  0
SEQEND
  8
4
  0
ENDBLK
  8
4
  0
BLOCK
  8
4
  2
COMP7
 70
    64
 10
0.0
 20
0.0
  0
POLYLINE
  8
4
  6
CONTINUOUS
 66
     1
 70
     0
 40
0.0
 41
0.0
  0
VERTEX
  8
4
 10
6.28292179107666
 20
-233.6806793212891
  0
VERTEX
  8
4
 10
7.78292179107666
 20
-233.6806793212891
  0
SEQEND
  8
4
  0
POLYLINE
  8
4
  6
CONTINUOUS
 66
     1
 70
     0
 40
0.0
 41
0.0
  0
VERTEX
  8
4
 10
7.03292179107666
 20
-233.6806793212891
  0
VERTEX
  8
4
 10
7.03292179107666
 20
-236.6806793212891
  0
SEQEND
  8
4
  0
POLYLINE
  8
4
  6
CONTINUOUS
 66
     1
 70
     0
 40
0.0
 41
0.0
  0
VERTEX
  8
4
 10
8.34542179107666
 20
-235.1806793212891
  0
VERTEX
  8
4
 10
9.09542179107666
 20
-235.1806793212891
 42
0.4142135623730997
  0
VERTEX
  8
4
 10
9.84542179107666
 20
-234.4306793212891
 42
0.4142135623731037
  0
VERTEX
  8
4
 10
9.09542179107666
 20
-233.6806793212891
  0
VERTEX
  8
4
 10
8.34542179107666
 20
-233.6806793212891
  0
VERTEX
  8
4
 10
8.34542179107666
 20
-236.6806793212891
  0
SEQEND
  8
4
  0
POLYLINE
  8
4
  6
CONTINUOUS
 66
     1
 70
     0
 40
0.0
 41
0.0
  0
VERTEX
  8
4
 10
9.84542179107666
 20
-236.6806793212891
  0
VERTEX
  8
4
 10
9.09542179107666
 20
-235.1806793212891
  0
SEQEND
  8
4
  0
POLYLINE
  8
4
  6
CONTINUOUS
 66
     1
 70
     0
 40
0.0
 41
0.0
  0
VERTEX
  8
4
 10
10.40792179107666
 20
-234.2431793212891
  0
VERTEX
  8
4
 10
10.87667179107666
 20
-233.6806793212891
  0
VERTEX
  8
4
 10
11.43917179107666
 20
-233.6806793212891
  0
VERTEX
  8
4
 10
11.90792179107666
 20
-234.2431793212891
  0
VERTEX
  8
4
 10
11.90792179107666
 20
-234.7119293212891
  0
VERTEX
  8
4
 10
11.34542179107666
 20
-235.1806793212891
  0
VERTEX
  8
4
 10
10.78292179107666
 20
-235.1806793212891
  0
SEQEND
  8
4
  0
POLYLINE
  8
4
  6
CONTINUOUS
 66
     1
 70
     0
 40
0.0
 41
0.0
  0
VERTEX
  8
4
 10
11.34542179107666
 20
-235.1806793212891
  0
VERTEX
  8
4
 10
11.90792179107666
 20
-235.7431793212891
  0
VERTEX
  8
4
 10
11.90792179107666
 20
-236.2119293212891
  0
VERTEX
  8
4
 10
11.43917179107666
 20
-236.6806793212891
  0
VERTEX
  8
4
 10
10.87667179107666
 20
-236.6806793212891
  0
VERTEX
  8
4
 10
10.40792179107666
 20
-236.2119293212891
  0
SEQEND
  8
4
  0
ENDBLK
  8
4
  0
BLOCK
  8
4
  2
COMP8
 70
    64
 10
0.0
 20
0.0
  0
POLYLINE
  8
4
  6
CONTINUOUS
 66
     1
 70
     0
 40
0.0
 41
0.0
  0
VERTEX
  8
4
 10
6.28292179107666
 20
-218.9093170166016
  0
VERTEX
  8
4
 10
7.78292179107666
 20
-218.9093170166016
  0
SEQEND
  8
4
  0
POLYLINE
  8
4
  6
CONTINUOUS
 66
     1
 70
     0
 40
0.0
 41
0.0
  0
VERTEX
  8
4
 10
7.03292179107666
 20
-218.9093170166016
  0
VERTEX
  8
4
 10
7.03292179107666
 20
-221.9093170166016
  0
SEQEND
  8
4
  0
POLYLINE
  8
4
  6
CONTINUOUS
 66
     1
 70
     0
 40
0.0
 41
0.0
  0
VERTEX
  8
4
 10
8.34542179107666
 20
-220.4093170166016
  0
VERTEX
  8
4
 10
9.09542179107666
 20
-220.4093170166016
 42
0.4142135623730997
  0
VERTEX
  8
4
 10
9.84542179107666
 20
-219.6593170166016
 42
0.4142135623731037
  0
VERTEX
  8
4
 10
9.09542179107666
 20
-218.9093170166016
  0
VERTEX
  8
4
 10
8.34542179107666
 20
-218.9093170166016
  0
VERTEX
  8
4
 10
8.34542179107666
 20
-221.9093170166016
  0
SEQEND
  8
4
  0
POLYLINE
  8
4
  6
CONTINUOUS
 66
     1
 70
     0
 40
0.0
 41
0.0
  0
VERTEX
  8
4
 10
9.84542179107666
 20
-221.9093170166016
  0
VERTEX
  8
4
 10
9.09542179107666
 20
-220.4093170166016
  0
SEQEND
  8
4
  0
POLYLINE
  8
4
  6
CONTINUOUS
 66
     1
 70
     0
 40
0.0
 41
0.0
  0
VERTEX
  8
4
 10
11.15792179107666
 20
-221.9093170166016
  0
VERTEX
  8
4
 10
11.15792179107666
 20
-218.9093170166016
  0
VERTEX
  8
4
 10
10.64229679107666
 20
-219.7999420166016
  0
SEQEND
  8
4
  0
ENDBLK
  8
4
  0
BLOCK
  8
4
  2
COMP9
 70
    64
 10
0.0
 20
0.0
  0
POLYLINE
  8
4
  6
CONTINUOUS
 66
     1
 70
     0
 40
0.0
 41
0.0
  0
VERTEX
  8
4
 10
-3.554328203201294
 20
-195.758056640625
  0
VERTEX
  8
4
 10
-3.554328203201294
 20
-198.195556640625
 42
0.75
  0
VERTEX
  8
4
 10
-2.054328203201294
 20
-198.195556640625
  0
VERTEX
  8
4
 10
-2.054328203201294
 20
-195.758056640625
  0
SEQEND
  8
4
  0
POLYLINE
  8
4
  6
CONTINUOUS
 66
     1
 70
     0
 40
0.0
 41
0.0
  0
VERTEX
  8
4
 10
-1.491828203201294
 20
-196.320556640625
  0
VERTEX
  8
4
 10
-1.023078203201294
 20
-195.758056640625
  0
VERTEX
  8
4
 10
-0.460578203201294
 20
-195.758056640625
  0
VERTEX
  8
4
 10
0.008171796798706055
 20
-196.320556640625
  0
VERTEX
  8
4
 10
0.008171796798706055
 20
-196.789306640625
  0
VERTEX
  8
4
 10
-0.554328203201294
 20
-197.258056640625
  0
VERTEX
  8
4
 10
-1.116828203201294
 20
-197.258056640625
  0
SEQEND
  8
4
  0
POLYLINE
  8
4
  6
CONTINUOUS
 66
     1
 70
     0
 40
0.0
 41
0.0
  0
VERTEX
  8
4
 10
-0.554328203201294
 20
-197.258056640625
  0
VERTEX
  8
4
 10
0.008171796798706055
 20
-197.820556640625
  0
VERTEX
  8
4
 10
0.008171796798706055
 20
-198.289306640625
  0
VERTEX
  8
4
 10
-0.460578203201294
 20
-198.758056640625
  0
VERTEX
  8
4
 10
-1.023078203201294
 20
-198.758056640625
  0
VERTEX
  8
4
 10
-1.491828203201294
 20
-198.289306640625
  0
SEQEND
  8
4
  0
POLYLINE
  8
4
  6
CONTINUOUS
 66
     1
 70
     0
 40
0.0
 41
0.0
  0
VERTEX
  8
4
 10
0.6644217967987061
 20
-196.320556640625
  0
VERTEX
  8
4
 10
0.6644217967987061
 20
-198.195556640625
 42
0.9230769230769231
  0
VERTEX
  8
4
 10
1.883171796798706
 20
-198.195556640625
  0
VERTEX
  8
4
 10
1.883171796798706
 20
-196.320556640625
 42
0.9230769230769231
  0
VERTEX
  8
4
 10
0.6644217967987061
 20
-196.320556640625
  0
SEQEND
  8
4
  0
POLYLINE
  8
4
  6
CONTINUOUS
 66
     1
 70
     0
 40
0.0
 41
0.0
  0
VERTEX
  8
4
 10
3.383171796798706
 20
-198.758056640625
  0
VERTEX
  8
4
 10
3.383171796798706
 20
-195.758056640625
  0
VERTEX
  8
4
 10
2.867546796798706
 20
-196.648681640625
  0
SEQEND
  8
4
  0
ENDBLK
  8
4
  0
BLOCK
  8
4
  2
COMP10
 70
    64
 10
0.0
 20
0.0
  0
POLYLINE
  8
4
  6
CONTINUOUS
 66
     1
 70
     0
 40
0.0
 41
0.0
  0
VERTEX
  8
4
 10
55.38907623291016
 20
-175.1633605957031
  0
VERTEX
  8
4
 10
55.38907623291016
 20
-177.6008605957031
 42
0.75
  0
VERTEX
  8
4
 10
56.88907623291016
 20
-177.6008605957031
  0
VERTEX
  8
4
 10
56.88907623291016
 20
-175.1633605957031
  0
SEQEND
  8
4
  0
POLYLINE
  8
4
  6
CONTINUOUS
 66
     1
 70
     0
 40
0.0
 41
0.0
  0
VERTEX
  8
4
 10
57.45157623291016
 20
-175.7258605957031
  0
VERTEX
  8
4
 10
57.92032623291016
 20
-175.1633605957031
  0
VERTEX
  8
4
 10
58.48282623291016
 20
-175.1633605957031
  0
VERTEX
  8
4
 10
58.95157623291016
 20
-175.7258605957031
  0
VERTEX
  8
4
 10
58.95157623291016
 20
-176.4758605957031
  0
VERTEX
  8
4
 10
57.45157623291016
 20
-177.7883605957031
  0
VERTEX
  8
4
 10
57.45157623291016
 20
-178.1633605957031
  0
VERTEX
  8
4
 10
58.95157623291016
 20
-178.1633605957031
  0
SEQEND
  8
4
  0
POLYLINE
  8
4
  6
CONTINUOUS
 66
     1
 70
     0
 40
0.0
 41
0.0
  0
VERTEX
  8
4
 10
59.60782623291016
 20
-175.7258605957031
  0
VERTEX
  8
4
 10
59.60782623291016
 20
-177.6008605957031
 42
0.9230769230769231
  0
VERTEX
  8
4
 10
60.82657623291016
 20
-177.6008605957031
  0
VERTEX
  8
4
 10
60.82657623291016
 20
-175.7258605957031
 42
0.9230769230769231
  0
VERTEX
  8
4
 10
59.60782623291016
 20
-175.7258605957031
  0
SEQEND
  8
4
  0
POLYLINE
  8
4
  6
CONTINUOUS
 66
     1
 70
     0
 40
0.0
 41
0.0
  0
VERTEX
  8
4
 10
61.57657623291016
 20
-175.7258605957031
  0
VERTEX
  8
4
 10
62.04532623291016
 20
-175.1633605957031
  0
VERTEX
  8
4
 10
62.60782623291016
 20
-175.1633605957031
  0
VERTEX
  8
4
 10
63.07657623291016
 20
-175.7258605957031
  0
VERTEX
  8
4
 10
63.07657623291016
 20
-176.4758605957031
  0
VERTEX
  8
4
 10
61.57657623291016
 20
-177.7883605957031
  0
VERTEX
  8
4
 10
61.57657623291016
 20
-178.1633605957031
  0
VERTEX
  8
4
 10
63.07657623291016
 20
-178.1633605957031
  0
SEQEND
  8
4
  0
ENDBLK
  8
4
  0
BLOCK
  8
4
  2
COMP11
 70
    64
 10
0.0
 20
0.0
  0
POLYLINE
  8
4
  6
CONTINUOUS
 66
     1
 70
     0
 40
0.0
 41
0.0
  0
VERTEX
  8
4
 10
76.83597564697266
 20
-196.6275634765625
  0
VERTEX
  8
4
 10
77.67972564697266
 20
-196.6275634765625
 42
0.8749999999999999
  0
VERTEX
  8
4
 10
77.67972564697266
 20
-195.1275634765625
 42
0.8749999999999999
  0
VERTEX
  8
4
 10
77.67972564697266
 20
-193.6275634765625
  0
VERTEX
  8
4
 10
76.83597564697266
 20
-193.6275634765625
  0
VERTEX
  8
4
 10
76.83597564697266
 20
-196.6275634765625
  0
SEQEND
  8
4
  0
POLYLINE
  8
4
  6
CONTINUOUS
 66
     1
 70
     0
 40
0.0
 41
0.0
  0
VERTEX
  8
4
 10
76.83597564697266
 20
-195.1275634765625
  0
VERTEX
  8
4
 10
77.67972564697266
 20
-195.1275634765625
  0
SEQEND
  8
4
  0
POLYLINE
  8
4
  6
CONTINUOUS
 66
     1
 70
     0
 40
0.0
 41
0.0
  0
VERTEX
  8
4
 10
78.89847564697266
 20
-196.6275634765625
  0
VERTEX
  8
4
 10
79.64847564697266
 20
-193.6275634765625
  0
VERTEX
  8
4
 10
80.39847564697266
 20
-196.6275634765625
  0
SEQEND
  8
4
  0
POLYLINE
  8
4
  6
CONTINUOUS
 66
     1
 70
     0
 40
0.0
 41
0.0
  0
VERTEX
  8
4
 10
80.16410064697266
 20
-195.6900634765625
  0
VERTEX
  8
4
 10
79.13285064697266
 20
-195.6900634765625
  0
SEQEND
  8
4
  0
POLYLINE
  8
4
  6
CONTINUOUS
 66
     1
 70
     0
 40
0.0
 41
0.0
  0
VERTEX
  8
4
 10
80.96097564697266
 20
-193.6275634765625
  0
VERTEX
  8
4
 10
82.46097564697266
 20
-193.6275634765625
  0
SEQEND
  8
4
  0
POLYLINE
  8
4
  6
CONTINUOUS
 66
     1
 70
     0
 40
0.0
 41
0.0
  0
VERTEX
  8
4
 10
81.71097564697266
 20
-193.6275634765625
  0
VERTEX
  8
4
 10
81.71097564697266
 20
-196.6275634765625
  0
SEQEND
  8
4
  0
POLYLINE
  8
4
  6
CONTINUOUS
 66
     1
 70
     0
 40
0.0
 41
0.0
  0
VERTEX
  8
4
 10
83.02347564697266
 20
-193.6275634765625
  0
VERTEX
  8
4
 10
84.52347564697266
 20
-193.6275634765625
  0
SEQEND
  8
4
  0
POLYLINE
  8
4
  6
CONTINUOUS
 66
     1
 70
     0
 40
0.0
 41
0.0
  0
VERTEX
  8
4
 10
83.77347564697266
 20
-193.6275634765625
  0
VERTEX
  8
4
 10
83.77347564697266
 20
-196.6275634765625
  0
SEQEND
  8
4
  0
ENDBLK
  8
4
  0
BLOCK
  8
4
  2
COMP12
 70
    64
 10
0.0
 20
0.0
  0
POLYLINE
  8
4
  6
CONTINUOUS
 66
     1
 70
     0
 40
0.0
 41
0.0
  0
VERTEX
  8
4
 10
-9.309775352478027
 20
-152.7140045166016
  0
VERTEX
  8
4
 10
-8.684775352478027
 20
-152.7140045166016
 42
0.414213562373085
  0
VERTEX
  8
4
 10
-8.059775352478027
 20
-152.0890045166016
 42
0.4142135623730711
  0
VERTEX
  8
4
 10
-8.684775352478027
 20
-151.4640045166016
  0
VERTEX
  8
4
 10
-9.309775352478027
 20
-151.4640045166016
  0
VERTEX
  8
4
 10
-9.309775352478027
 20
-153.9640045166016
  0
SEQEND
  8
4
  0
POLYLINE
  8
4
  6
CONTINUOUS
 66
     1
 70
     0
 40
0.0
 41
0.0
  0
VERTEX
  8
4
 10
-8.059775352478027
 20
-153.9640045166016
  0
VERTEX
  8
4
 10
-8.684775352478027
 20
-152.7140045166016
  0
SEQEND
  8
4
  0
POLYLINE
  8
4
  6
CONTINUOUS
 66
     1
 70
     0
 40
0.0
 41
0.0
  0
VERTEX
  8
4
 10
-7.591025352478027
 20
-151.4640045166016
  0
VERTEX
  8
4
 10
-7.591025352478027
 20
-153.4952545166016
 42
0.75
  0
VERTEX
  8
4
 10
-6.341025352478027
 20
-153.4952545166016
  0
VERTEX
  8
4
 10
-6.341025352478027
 20
-151.4640045166016
  0
SEQEND
  8
4
  0
POLYLINE
  8
4
  6
CONTINUOUS
 66
     1
 70
     0
 40
0.0
 41
0.0
  0
VERTEX
  8
4
 10
-5.872275352478027
 20
-153.9640045166016
  0
VERTEX
  8
4
 10
-5.872275352478027
 20
-151.4640045166016
  0
VERTEX
  8
4
 10
-4.622275352478027
 20
-153.9640045166016
  0
VERTEX
  8
4
 10
-4.622275352478027
 20
-151.4640045166016
  0
SEQEND
  8
4
  0
ENDBLK
  8
4
  0
BLOCK
  8
4
  2
COMP13
 70
    64
 10
0.0
 20
0.0
  0
POLYLINE
  8
4
  6
CONTINUOUS
 66
     1
 70
     0
 40
0.0
 41
0.0
  0
VERTEX
  8
4
 10
0.6902244687080383
 20
-153.9640045166016
  0
VERTEX
  8
4
 10
1.315224409103394
 20
-151.4640045166016
  0
VERTEX
  8
4
 10
1.940224409103394
 20
-153.9640045166016
  0
SEQEND
  8
4
  0
POLYLINE
  8
4
  6
CONTINUOUS
 66
     1
 70
     0
 40
0.0
 41
0.0
  0
VERTEX
  8
4
 10
1.744911909103394
 20
-153.1827545166016
  0
VERTEX
  8
4
 10
0.8855369687080383
 20
-153.1827545166016
  0
SEQEND
  8
4
  0
POLYLINE
  8
4
  6
CONTINUOUS
 66
     1
 70
     0
 40
0.0
 41
0.0
  0
VERTEX
  8
4
 10
2.408974409103394
 20
-153.9640045166016
  0
VERTEX
  8
4
 10
3.658974409103394
 20
-151.4640045166016
  0
SEQEND
  8
4
  0
POLYLINE
  8
4
  6
CONTINUOUS
 66
     1
 70
     0
 40
0.0
 41
0.0
  0
VERTEX
  8
4
 10
4.127724647521973
 20
-151.4640045166016
  0
VERTEX
  8
4
 10
5.377724647521973
 20
-151.4640045166016
  0
VERTEX
  8
4
 10
4.127724647521973
 20
-153.9640045166016
  0
VERTEX
  8
4
 10
5.377724647521973
 20
-153.9640045166016
  0
SEQEND
  8
4
  0
ENDBLK
  8
4
  0
BLOCK
  8
4
  2
COMP14
 70
    64
 10
0.0
 20
0.0
  0
POLYLINE
  8
4
  6
CONTINUOUS
 66
     1
 70
     0
 40
0.0
 41
0.0
  0
VERTEX
  8
4
 10
9.830857276916504
 20
-151.4640045166016
  0
VERTEX
  8
4
 10
9.830857276916504
 20
-153.9640045166016
  0
VERTEX
  8
4
 10
11.0808572769165
 20
-153.9640045166016
  0
SEQEND
  8
4
  0
POLYLINE
  8
4
  6
CONTINUOUS
 66
     1
 70
     0
 40
0.0
 41
0.0
  0
VERTEX
  8
4
 10
11.5496072769165
 20
-152.0108795166016
  0
VERTEX
  8
4
 10
11.5496072769165
 20
-153.4952545166016
 42
0.75
  0
VERTEX
  8
4
 10
12.7996072769165
 20
-153.4952545166016
  0
VERTEX
  8
4
 10
12.7996072769165
 20
-152.0108795166016
 42
0.875
  0
VERTEX
  8
4
 10
11.5496072769165
 20
-152.0108795166016
  0
SEQEND
  8
4
  0
POLYLINE
  8
4
  6
CONTINUOUS
 66
     1
 70
     0
 40
0.0
 41
0.0
  0
VERTEX
  8
4
 10
14.5183572769165
 20
-152.0108795166016
 42
0.875
  0
VERTEX
  8
4
 10
13.2683572769165
 20
-152.0108795166016
  0
VERTEX
  8
4
 10
13.2683572769165
 20
-153.4952545166016
 42
0.75
  0
VERTEX
  8
4
 10
14.5183572769165
 20
-153.4952545166016
  0
SEQEND
  8
4
  0
POLYLINE
  8
4
  6
CONTINUOUS
 66
     1
 70
     0
 40
0.0
 41
0.0
  0
VERTEX
  8
4
 10
14.9871072769165
 20
-151.4640045166016
  0
VERTEX
  8
4
 10
14.9871072769165
 20
-153.9640045166016
  0
SEQEND
  8
4
  0
POLYLINE
  8
4
  6
CONTINUOUS
 66
     1
 70
     0
 40
0.0
 41
0.0
  0
VERTEX
  8
4
 10
14.9871072769165
 20
-153.0265045166016
  0
VERTEX
  8
4
 10
16.23710632324219
 20
-151.4640045166016
  0
SEQEND
  8
4
  0
POLYLINE
  8
4
  6
CONTINUOUS
 66
     1
 70
     0
 40
0.0
 41
0.0
  0
VERTEX
  8
4
 10
15.3777322769165
 20
-152.5577545166016
  0
VERTEX
  8
4
 10
16.23710632324219
 20
-153.9640045166016
  0
SEQEND
  8
4
  0
ENDBLK
  8
4
  0
BLOCK
  8
4
  2
COMP15
 70
    64
 10
0.0
 20
0.0
  0
POLYLINE
  8
4
  6
CONTINUOUS
 66
     1
 70
     0
 40
0.0
 41
0.0
  0
VERTEX
  8
4
 10
19.83085632324219
 20
-151.4640045166016
  0
VERTEX
  8
4
 10
19.83085632324219
 20
-153.9640045166016
  0
SEQEND
  8
4
  0
POLYLINE
  8
4
  6
CONTINUOUS
 66
     1
 70
     0
 40
0.0
 41
0.0
  0
VERTEX
  8
4
 10
21.08085632324219
 20
-151.4640045166016
  0
VERTEX
  8
4
 10
21.08085632324219
 20
-153.9640045166016
  0
SEQEND
  8
4
  0
POLYLINE
  8
4
  6
CONTINUOUS
 66
     1
 70
     0
 40
0.0
 41
0.0
  0
VERTEX
  8
4
 10
19.83085632324219
 20
-152.7140045166016
  0
VERTEX
  8
4
 10
21.08085632324219
 20
-152.7140045166016
  0
SEQEND
  8
4
  0
POLYLINE
  8
4
  6
CONTINUOUS
 66
     1
 70
     0
 40
0.0
 41
0.0
  0
VERTEX
  8
4
 10
21.54960632324219
 20
-152.0108795166016
  0
VERTEX
  8
4
 10
21.54960632324219
 20
-153.4952545166016
 42
0.75
  0
VERTEX
  8
4
 10
22.79960632324219
 20
-153.4952545166016
  0
VERTEX
  8
4
 10
22.79960632324219
 20
-152.0108795166016
 42
0.875
  0
VERTEX
  8
4
 10
21.54960632324219
 20
-152.0108795166016
  0
SEQEND
  8
4
  0
POLYLINE
  8
4
  6
CONTINUOUS
 66
     1
 70
     0
 40
0.0
 41
0.0
  0
VERTEX
  8
4
 10
23.26835632324219
 20
-151.4640045166016
  0
VERTEX
  8
4
 10
23.26835632324219
 20
-153.9640045166016
  0
VERTEX
  8
4
 10
24.51835632324219
 20
-153.9640045166016
  0
SEQEND
  8
4
  0
POLYLINE
  8
4
  6
CONTINUOUS
 66
     1
 70
     0
 40
0.0
 41
0.0
  0
VERTEX
  8
4
 10
24.98710632324219
 20
-153.9640045166016
  0
VERTEX
  8
4
 10
25.65116882324219
 20
-153.9640045166016
 42
0.4666666666666667
  0
VERTEX
  8
4
 10
26.23710632324219
 20
-153.3780670166016
  0
VERTEX
  8
4
 10
26.23710632324219
 20
-152.0499420166016
 42
0.4666666666666667
  0
VERTEX
  8
4
 10
25.65116882324219
 20
-151.4640045166016
  0
VERTEX
  8
4
 10
24.98710632324219
 20
-151.4640045166016
  0
VERTEX
  8
4
 10
24.98710632324219
 20
-153.9640045166016
  0
SEQEND
  8
4
  0
ENDBLK
  8
4
  0
BLOCK
  8
4
  2
COMP16
 70
    64
 10
0.0
 20
0.0
  0
POLYLINE
  8
4
  6
CONTINUOUS
 66
     1
 70
     0
 40
0.0
 41
0.0
  0
VERTEX
  8
4
 10
30.22147369384766
 20
-152.0108795166016
 42
0.875
  0
VERTEX
  8
4
 10
28.97147369384766
 20
-152.0108795166016
  0
VERTEX
  8
4
 10
28.97147369384766
 20
-153.4952545166016
 42
0.75
  0
VERTEX
  8
4
 10
30.22147369384766
 20
-153.4952545166016
  0
SEQEND
  8
4
  0
POLYLINE
  8
4
  6
CONTINUOUS
 66
     1
 70
     0
 40
0.0
 41
0.0
  0
VERTEX
  8
4
 10
30.69022369384766
 20
-151.4640045166016
  0
VERTEX
  8
4
 10
30.69022369384766
 20
-153.9640045166016
  0
SEQEND
  8
4
  0
POLYLINE
  8
4
  6
CONTINUOUS
 66
     1
 70
     0
 40
0.0
 41
0.0
  0
VERTEX
  8
4
 10
31.94022369384766
 20
-151.4640045166016
  0
VERTEX
  8
4
 10
31.94022369384766
 20
-153.9640045166016
  0
SEQEND
  8
4
  0
POLYLINE
  8
4
  6
CONTINUOUS
 66
     1
 70
     0
 40
0.0
 41
0.0
  0
VERTEX
  8
4
 10
30.69022369384766
 20
-152.7140045166016
  0
VERTEX
  8
4
 10
31.94022369384766
 20
-152.7140045166016
  0
SEQEND
  8
4
  0
POLYLINE
  8
4
  6
CONTINUOUS
 66
     1
 70
     0
 40
0.0
 41
0.0
  0
VERTEX
  8
4
 10
33.65897369384766
 20
-151.4640045166016
  0
VERTEX
  8
4
 10
32.40897369384766
 20
-151.4640045166016
  0
VERTEX
  8
4
 10
32.40897369384766
 20
-153.9640045166016
  0
VERTEX
  8
4
 10
33.65897369384766
 20
-153.9640045166016
  0
SEQEND
  8
4
  0
POLYLINE
  8
4
  6
CONTINUOUS
 66
     1
 70
     0
 40
0.0
 41
0.0
  0
VERTEX
  8
4
 10
32.40897369384766
 20
-152.7140045166016
  0
VERTEX
  8
4
 10
33.65897369384766
 20
-152.7140045166016
  0
SEQEND
  8
4
  0
POLYLINE
  8
4
  6
CONTINUOUS
 66
     1
 70
     0
 40
0.0
 41
0.0
  0
VERTEX
  8
4
 10
35.37772369384766
 20
-152.0108795166016
 42
0.875
  0
VERTEX
  8
4
 10
34.12772369384766
 20
-152.0108795166016
  0
VERTEX
  8
4
 10
34.12772369384766
 20
-153.4952545166016
 42
0.75
  0
VERTEX
  8
4
 10
35.37772369384766
 20
-153.4952545166016
  0
SEQEND
  8
4
  0
POLYLINE
  8
4
  6
CONTINUOUS
 66
     1
 70
     0
 40
0.0
 41
0.0
  0
VERTEX
  8
4
 10
35.84647369384766
 20
-151.4640045166016
  0
VERTEX
  8
4
 10
35.84647369384766
 20
-153.9640045166016
  0
SEQEND
  8
4
  0
POLYLINE
  8
4
  6
CONTINUOUS
 66
     1
 70
     0
 40
0.0
 41
0.0
  0
VERTEX
  8
4
 10
35.84647369384766
 20
-153.0265045166016
  0
VERTEX
  8
4
 10
37.09647369384766
 20
-151.4640045166016
  0
SEQEND
  8
4
  0
POLYLINE
  8
4
  6
CONTINUOUS
 66
     1
 70
     0
 40
0.0
 41
0.0
  0
VERTEX
  8
4
 10
36.23709869384766
 20
-152.5577545166016
  0
VERTEX
  8
4
 10
37.09647369384766
 20
-153.9640045166016
  0
SEQEND
  8
4
  0
ENDBLK
  8
4
  0
BLOCK
  8
4
  2
COMP17
 70
    64
 10
0.0
 20
0.0
  0
POLYLINE
  8
4
  6
CONTINUOUS
 66
     1
 70
     0
 40
0.0
 41
0.0
  0
VERTEX
  8
4
 10
54.15897369384766
 20
-150.2140045166016
  0
VERTEX
  8
4
 10
54.65897369384766
 20
-148.2140045166016
  0
VERTEX
  8
4
 10
55.15897369384766
 20
-150.2140045166016
  0
SEQEND
  8
4
  0
POLYLINE
  8
4
  6
CONTINUOUS
 66
     1
 70
     0
 40
0.0
 41
0.0
  0
VERTEX
  8
4
 10
55.00272369384766
 20
-149.5890045166016
  0
VERTEX
  8
4
 10
54.31522369384766
 20
-149.5890045166016
  0
SEQEND
  8
4
  0
POLYLINE
  8
4
  6
CONTINUOUS
 66
     1
 70
     0
 40
0.0
 41
0.0
  0
VERTEX
  8
4
 10
55.53397369384766
 20
-150.2140045166016
  0
VERTEX
  8
4
 10
56.53397369384766
 20
-148.2140045166016
  0
SEQEND
  8
4
  0
POLYLINE
  8
4
  6
CONTINUOUS
 66
     1
 70
     0
 40
0.0
 41
0.0
  0
VERTEX
  8
4
 10
56.90897369384766
 20
-148.2140045166016
  0
VERTEX
  8
4
 10
57.90897369384766
 20
-148.2140045166016
  0
VERTEX
  8
4
 10
56.90897369384766
 20
-150.2140045166016
  0
VERTEX
  8
4
 10
57.90897369384766
 20
-150.2140045166016
  0
SEQEND
  8
4
  0
ENDBLK
  8
4
  0
BLOCK
  8
4
  2
COMP18
 70
    64
 10
0.0
 20
0.0
  0
POLYLINE
  8
4
  6
CONTINUOUS
 66
     1
 70
     0
 40
0.0
 41
0.0
  0
VERTEX
  8
4
 10
56.62772369384766
 20
-152.4640045166016
  0
VERTEX
  8
4
 10
56.62772369384766
 20
-150.9640045166016
  0
VERTEX
  8
4
 10
55.31522369384766
 20
-151.7140045166016
  0
VERTEX
  8
4
 10
56.62772369384766
 20
-152.4640045166016
  0
SEQEND
  8
4
  0
POLYLINE
  8
4
  6
CONTINUOUS
 66
     1
 70
     0
 40
0.0
 41
0.0
  0
VERTEX
  8
4
 10
56.56522369384766
 20
-152.4327545166016
  0
VERTEX
  8
4
 10
56.56522369384766
 20
-150.9952545166016
  0
SEQEND
  8
4
  0
POLYLINE
  8
4
  6
CONTINUOUS
 66
     1
 70
     0
 40
0.0
 41
0.0
  0
VERTEX
  8
4
 10
56.50272369384766
 20
-152.4015045166016
  0
VERTEX
  8
4
 10
56.50272369384766
 20
-151.0265045166016
  0
SEQEND
  8
4
  0
POLYLINE
  8
4
  6
CONTINUOUS
 66
     1
 70
     0
 40
0.0
 41
0.0
  0
VERTEX
  8
4
 10
56.44022369384766
 20
-152.3702545166016
  0
VERTEX
  8
4
 10
56.44022369384766
 20
-151.0577545166016
  0
SEQEND
  8
4
  0
POLYLINE
  8
4
  6
CONTINUOUS
 66
     1
 70
     0
 40
0.0
 41
0.0
  0
VERTEX
  8
4
 10
56.37772369384766
 20
-152.3077545166016
  0
VERTEX
  8
4
 10
56.37772369384766
 20
-151.1202545166016
  0
SEQEND
  8
4
  0
POLYLINE
  8
4
  6
CONTINUOUS
 66
     1
 70
     0
 40
0.0
 41
0.0
  0
VERTEX
  8
4
 10
56.31522369384766
 20
-152.2765045166016
  0
VERTEX
  8
4
 10
56.31522369384766
 20
-151.1515045166016
  0
SEQEND
  8
4
  0
POLYLINE
  8
4
  6
CONTINUOUS
 66
     1
 70
     0
 40
0.0
 41
0.0
  0
VERTEX
  8
4
 10
56.25272369384766
 20
-152.2452545166016
  0
VERTEX
  8
4
 10
56.25272369384766
 20
-151.1827545166016
  0
SEQEND
  8
4
  0
POLYLINE
  8
4
  6
CONTINUOUS
 66
     1
 70
     0
 40
0.0
 41
0.0
  0
VERTEX
  8
4
 10
56.19022369384766
 20
-152.2140045166016
  0
VERTEX
  8
4
 10
56.19022369384766
 20
-151.2140045166016
  0
SEQEND
  8
4
  0
POLYLINE
  8
4
  6
CONTINUOUS
 66
     1
 70
     0
 40
0.0
 41
0.0
  0
VERTEX
  8
4
 10
56.12772369384766
 20
-152.1827545166016
  0
VERTEX
  8
4
 10
56.12772369384766
 20
-151.2452545166016
  0
SEQEND
  8
4
  0
POLYLINE
  8
4
  6
CONTINUOUS
 66
     1
 70
     0
 40
0.0
 41
0.0
  0
VERTEX
  8
4
 10
56.06522369384766
 20
-152.1515045166016
  0
VERTEX
  8
4
 10
56.06522369384766
 20
-151.2765045166016
  0
SEQEND
  8
4
  0
POLYLINE
  8
4
  6
CONTINUOUS
 66
     1
 70
     0
 40
0.0
 41
0.0
  0
VERTEX
  8
4
 10
56.00272369384766
 20
-152.1202545166016
  0
VERTEX
  8
4
 10
56.00272369384766
 20
-151.3077545166016
  0
SEQEND
  8
4
  0
POLYLINE
  8
4
  6
CONTINUOUS
 66
     1
 70
     0
 40
0.0
 41
0.0
  0
VERTEX
  8
4
 10
55.94022369384766
 20
-152.0577545166016
  0
VERTEX
  8
4
 10
55.94022369384766
 20
-151.3702545166016
  0
SEQEND
  8
4
  0
POLYLINE
  8
4
  6
CONTINUOUS
 66
     1
 70
     0
 40
0.0
 41
0.0
  0
VERTEX
  8
4
 10
55.87772369384766
 20
-152.0265045166016
  0
VERTEX
  8
4
 10
55.87772369384766
 20
-151.4015045166016
  0
SEQEND
  8
4
  0
POLYLINE
  8
4
  6
CONTINUOUS
 66
     1
 70
     0
 40
0.0
 41
0.0
  0
VERTEX
  8
4
 10
55.81522369384766
 20
-151.9952545166016
  0
VERTEX
  8
4
 10
55.81522369384766
 20
-151.4327545166016
  0
SEQEND
  8
4
  0
POLYLINE
  8
4
  6
CONTINUOUS
 66
     1
 70
     0
 40
0.0
 41
0.0
  0
VERTEX
  8
4
 10
55.75272369384766
 20
-151.9640045166016
  0
VERTEX
  8
4
 10
55.75272369384766
 20
-151.4640045166016
  0
SEQEND
  8
4
  0
POLYLINE
  8
4
  6
CONTINUOUS
 66
     1
 70
     0
 40
0.0
 41
0.0
  0
VERTEX
  8
4
 10
55.69022369384766
 20
-151.9327545166016
  0
VERTEX
  8
4
 10
55.69022369384766
 20
-151.4952545166016
  0
SEQEND
  8
4
  0
POLYLINE
  8
4
  6
CONTINUOUS
 66
     1
 70
     0
 40
0.0
 41
0.0
  0
VERTEX
  8
4
 10
55.62772369384766
 20
-151.9015045166016
  0
VERTEX
  8
4
 10
55.62772369384766
 20
-151.5265045166016
  0
SEQEND
  8
4
  0
POLYLINE
  8
4
  6
CONTINUOUS
 66
     1
 70
     0
 40
0.0
 41
0.0
  0
VERTEX
  8
4
 10
55.56522369384766
 20
-151.8702545166016
  0
VERTEX
  8
4
 10
55.56522369384766
 20
-151.5577545166016
  0
SEQEND
  8
4
  0
POLYLINE
  8
4
  6
CONTINUOUS
 66
     1
 70
     0
 40
0.0
 41
0.0
  0
VERTEX
  8
4
 10
55.50272369384766
 20
-151.8077545166016
  0
VERTEX
  8
4
 10
55.50272369384766
 20
-151.6202545166016
  0
SEQEND
  8
4
  0
POLYLINE
  8
4
  6
CONTINUOUS
 66
     1
 70
     0
 40
0.0
 41
0.0
  0
VERTEX
  8
4
 10
55.44022369384766
 20
-151.7765045166016
  0
VERTEX
  8
4
 10
55.44022369384766
 20
-151.6515045166016
  0
SEQEND
  8
4
  0
POLYLINE
  8
4
  6
CONTINUOUS
 66
     1
 70
     0
 40
0.0
 41
0.0
  0
VERTEX
  8
4
 10
55.37772369384766
 20
-151.7452545166016
  0
VERTEX
  8
4
 10
55.37772369384766
 20
-151.6827545166016
  0
SEQEND
  8
4
  0
ENDBLK
  8
4
  0
BLOCK
  8
4
  2
COMP19
 70
    64
 10
0.0
 20
0.0
  0
POLYLINE
  8
4
  6
CONTINUOUS
 66
     1
 70
     0
 40
0.0
 41
0.0
  0
VERTEX
  8
4
 10
63.02457427978516
 20
-151.1515045166016
  0
VERTEX
  8
4
 10
63.02457427978516
 20
-152.3390045166016
 42
0.7500000000000001
  0
VERTEX
  8
4
 10
64.02457427978516
 20
-152.3390045166016
  0
VERTEX
  8
4
 10
64.02457427978516
 20
-151.1515045166016
 42
0.875
  0
VERTEX
  8
4
 10
63.02457427978516
 20
-151.1515045166016
  0
SEQEND
  8
4
  0
POLYLINE
  8
4
  6
CONTINUOUS
 66
     1
 70
     0
 40
0.0
 41
0.0
  0
VERTEX
  8
4
 10
65.39957427978516
 20
-150.7140045166016
  0
VERTEX
  8
4
 10
64.39957427978516
 20
-150.7140045166016
  0
VERTEX
  8
4
 10
64.39957427978516
 20
-152.7140045166016
  0
SEQEND
  8
4
  0
POLYLINE
  8
4
  6
CONTINUOUS
 66
     1
 70
     0
 40
0.0
 41
0.0
  0
VERTEX
  8
4
 10
64.39957427978516
 20
-151.7140045166016
  0
VERTEX
  8
4
 10
65.27457427978516
 20
-151.7140045166016
  0
SEQEND
  8
4
  0
POLYLINE
  8
4
  6
CONTINUOUS
 66
     1
 70
     0
 40
0.0
 41
0.0
  0
VERTEX
  8
4
 10
66.77457427978516
 20
-150.7140045166016
  0
VERTEX
  8
4
 10
65.77457427978516
 20
-150.7140045166016
  0
VERTEX
  8
4
 10
65.77457427978516
 20
-152.7140045166016
  0
SEQEND
  8
4
  0
POLYLINE
  8
4
  6
CONTINUOUS
 66
     1
 70
     0
 40
0.0
 41
0.0
  0
VERTEX
  8
4
 10
65.77457427978516
 20
-151.7140045166016
  0
VERTEX
  8
4
 10
66.64957427978516
 20
-151.7140045166016
  0
SEQEND
  8
4
  0
POLYLINE
  8
4
  6
CONTINUOUS
 66
     1
 70
     0
 40
0.0
 41
0.0
  0
VERTEX
  8
4
 10
67.39957427978516
 20
-152.3077545166016
  0
VERTEX
  8
4
 10
68.89957427978516
 20
-152.3077545166016
  0
VERTEX
  8
4
 10
68.14957427978516
 20
-150.9952545166016
  0
VERTEX
  8
4
 10
67.39957427978516
 20
-152.3077545166016
  0
SEQEND
  8
4
  0
POLYLINE
  8
4
  6
CONTINUOUS
 66
     1
 70
     0
 40
0.0
 41
0.0
  0
VERTEX
  8
4
 10
67.43082427978516
 20
-152.2452545166016
  0
VERTEX
  8
4
 10
68.86832427978516
 20
-152.2452545166016
  0
SEQEND
  8
4
  0
POLYLINE
  8
4
  6
CONTINUOUS
 66
     1
 70
     0
 40
0.0
 41
0.0
  0
VERTEX
  8
4
 10
67.46207427978516
 20
-152.1827545166016
  0
VERTEX
  8
4
 10
68.83707427978516
 20
-152.1827545166016
  0
SEQEND
  8
4
  0
POLYLINE
  8
4
  6
CONTINUOUS
 66
     1
 70
     0
 40
0.0
 41
0.0
  0
VERTEX
  8
4
 10
67.49332427978516
 20
-152.1202545166016
  0
VERTEX
  8
4
 10
68.80582427978516
 20
-152.1202545166016
  0
SEQEND
  8
4
  0
POLYLINE
  8
4
  6
CONTINUOUS
 66
     1
 70
     0
 40
0.0
 41
0.0
  0
VERTEX
  8
4
 10
67.55582427978516
 20
-152.0577545166016
  0
VERTEX
  8
4
 10
68.74332427978516
 20
-152.0577545166016
  0
SEQEND
  8
4
  0
POLYLINE
  8
4
  6
CONTINUOUS
 66
     1
 70
     0
 40
0.0
 41
0.0
  0
VERTEX
  8
4
 10
67.58707427978516
 20
-151.9952545166016
  0
VERTEX
  8
4
 10
68.71207427978516
 20
-151.9952545166016
  0
SEQEND
  8
4
  0
POLYLINE
  8
4
  6
CONTINUOUS
 66
     1
 70
     0
 40
0.0
 41
0.0
  0
VERTEX
  8
4
 10
67.61832427978516
 20
-151.9327545166016
  0
VERTEX
  8
4
 10
68.68082427978516
 20
-151.9327545166016
  0
SEQEND
  8
4
  0
POLYLINE
  8
4
  6
CONTINUOUS
 66
     1
 70
     0
 40
0.0
 41
0.0
  0
VERTEX
  8
4
 10
67.64957427978516
 20
-151.8702545166016
  0
VERTEX
  8
4
 10
68.64957427978516
 20
-151.8702545166016
  0
SEQEND
  8
4
  0
POLYLINE
  8
4
  6
CONTINUOUS
 66
     1
 70
     0
 40
0.0
 41
0.0
  0
VERTEX
  8
4
 10
67.68082427978516
 20
-151.8077545166016
  0
VERTEX
  8
4
 10
68.61832427978516
 20
-151.8077545166016
  0
SEQEND
  8
4
  0
POLYLINE
  8
4
  6
CONTINUOUS
 66
     1
 70
     0
 40
0.0
 41
0.0
  0
VERTEX
  8
4
 10
67.71207427978516
 20
-151.7452545166016
  0
VERTEX
  8
4
 10
68.58707427978516
 20
-151.7452545166016
  0
SEQEND
  8
4
  0
POLYLINE
  8
4
  6
CONTINUOUS
 66
     1
 70
     0
 40
0.0
 41
0.0
  0
VERTEX
  8
4
 10
67.74332427978516
 20
-151.6827545166016
  0
VERTEX
  8
4
 10
68.55582427978516
 20
-151.6827545166016
  0
SEQEND
  8
4
  0
POLYLINE
  8
4
  6
CONTINUOUS
 66
     1
 70
     0
 40
0.0
 41
0.0
  0
VERTEX
  8
4
 10
67.80582427978516
 20
-151.6202545166016
  0
VERTEX
  8
4
 10
68.49332427978516
 20
-151.6202545166016
  0
SEQEND
  8
4
  0
POLYLINE
  8
4
  6
CONTINUOUS
 66
     1
 70
     0
 40
0.0
 41
0.0
  0
VERTEX
  8
4
 10
67.83707427978516
 20
-151.5577545166016
  0
VERTEX
  8
4
 10
68.46207427978516
 20
-151.5577545166016
  0
SEQEND
  8
4
  0
POLYLINE
  8
4
  6
CONTINUOUS
 66
     1
 70
     0
 40
0.0
 41
0.0
  0
VERTEX
  8
4
 10
67.86832427978516
 20
-151.4952545166016
  0
VERTEX
  8
4
 10
68.43082427978516
 20
-151.4952545166016
  0
SEQEND
  8
4
  0
POLYLINE
  8
4
  6
CONTINUOUS
 66
     1
 70
     0
 40
0.0
 41
0.0
  0
VERTEX
  8
4
 10
67.89957427978516
 20
-151.4327545166016
  0
VERTEX
  8
4
 10
68.39957427978516
 20
-151.4327545166016
  0
SEQEND
  8
4
  0
POLYLINE
  8
4
  6
CONTINUOUS
 66
     1
 70
     0
 40
0.0
 41
0.0
  0
VERTEX
  8
4
 10
67.93082427978516
 20
-151.3702545166016
  0
VERTEX
  8
4
 10
68.36832427978516
 20
-151.3702545166016
  0
SEQEND
  8
4
  0
POLYLINE
  8
4
  6
CONTINUOUS
 66
     1
 70
     0
 40
0.0
 41
0.0
  0
VERTEX
  8
4
 10
67.96207427978516
 20
-151.3077545166016
  0
VERTEX
  8
4
 10
68.33707427978516
 20
-151.3077545166016
  0
SEQEND
  8
4
  0
POLYLINE
  8
4
  6
CONTINUOUS
 66
     1
 70
     0
 40
0.0
 41
0.0
  0
VERTEX
  8
4
 10
67.99332427978516
 20
-151.2452545166016
  0
VERTEX
  8
4
 10
68.30582427978516
 20
-151.2452545166016
  0
SEQEND
  8
4
  0
POLYLINE
  8
4
  6
CONTINUOUS
 66
     1
 70
     0
 40
0.0
 41
0.0
  0
VERTEX
  8
4
 10
68.05582427978516
 20
-151.1827545166016
  0
VERTEX
  8
4
 10
68.24332427978516
 20
-151.1827545166016
  0
SEQEND
  8
4
  0
POLYLINE
  8
4
  6
CONTINUOUS
 66
     1
 70
     0
 40
0.0
 41
0.0
  0
VERTEX
  8
4
 10
68.08707427978516
 20
-151.1202545166016
  0
VERTEX
  8
4
 10
68.21207427978516
 20
-151.1202545166016
  0
SEQEND
  8
4
  0
POLYLINE
  8
4
  6
CONTINUOUS
 66
     1
 70
     0
 40
0.0
 41
0.0
  0
VERTEX
  8
4
 10
68.11832427978516
 20
-151.0577545166016
  0
VERTEX
  8
4
 10
68.18082427978516
 20
-151.0577545166016
  0
SEQEND
  8
4
  0
ENDBLK
  8
4
  0
BLOCK
  8
4
  2
COMP20
 70
    64
 10
0.0
 20
0.0
  0
POLYLINE
  8
4
  6
CONTINUOUS
 66
     1
 70
     0
 40
0.0
 41
0.0
  0
VERTEX
  8
4
 10
62.75377655029297
 20
-150.3239440917969
  0
VERTEX
  8
4
 10
63.25377655029297
 20
-148.3239440917969
  0
VERTEX
  8
4
 10
63.75377655029297
 20
-150.3239440917969
  0
SEQEND
  8
4
  0
POLYLINE
  8
4
  6
CONTINUOUS
 66
     1
 70
     0
 40
0.0
 41
0.0
  0
VERTEX
  8
4
 10
63.59752655029297
 20
-149.6989440917969
  0
VERTEX
  8
4
 10
62.91002655029297
 20
-149.6989440917969
  0
SEQEND
  8
4
  0
POLYLINE
  8
4
  6
CONTINUOUS
 66
     1
 70
     0
 40
0.0
 41
0.0
  0
VERTEX
  8
4
 10
64.12877655029297
 20
-150.3239440917969
  0
VERTEX
  8
4
 10
65.12877655029297
 20
-148.3239440917969
  0
SEQEND
  8
4
  0
POLYLINE
  8
4
  6
CONTINUOUS
 66
     1
 70
     0
 40
0.0
 41
0.0
  0
VERTEX
  8
4
 10
65.50377655029297
 20
-148.3239440917969
  0
VERTEX
  8
4
 10
66.50377655029297
 20
-148.3239440917969
  0
VERTEX
  8
4
 10
65.50377655029297
 20
-150.3239440917969
  0
VERTEX
  8
4
 10
66.50377655029297
 20
-150.3239440917969
  0
SEQEND
  8
4
  0
ENDBLK
  8
4
  0
BLOCK
  8
4
  2
COMP21
 70
    64
 10
0.0
 20
0.0
  0
POLYLINE
  8
4
  6
CONTINUOUS
 66
     1
 70
     0
 40
0.0
 41
0.0
  0
VERTEX
  8
4
 10
73.47147369384766
 20
-149.7140045166016
  0
VERTEX
  8
4
 10
74.47147369384766
 20
-149.7140045166016
  0
VERTEX
  8
4
 10
73.47147369384766
 20
-151.7140045166016
  0
VERTEX
  8
4
 10
74.47147369384766
 20
-151.7140045166016
  0
SEQEND
  8
4
  0
POLYLINE
  8
4
  6
CONTINUOUS
 66
     1
 70
     0
 40
0.0
 41
0.0
  0
VERTEX
  8
4
 10
75.84647369384766
 20
-149.7140045166016
  0
VERTEX
  8
4
 10
74.84647369384766
 20
-149.7140045166016
  0
VERTEX
  8
4
 10
74.84647369384766
 20
-151.7140045166016
  0
VERTEX
  8
4
 10
75.84647369384766
 20
-151.7140045166016
  0
SEQEND
  8
4
  0
POLYLINE
  8
4
  6
CONTINUOUS
 66
     1
 70
     0
 40
0.0
 41
0.0
  0
VERTEX
  8
4
 10
74.84647369384766
 20
-150.7140045166016
  0
VERTEX
  8
4
 10
75.84647369384766
 20
-150.7140045166016
  0
SEQEND
  8
4
  0
POLYLINE
  8
4
  6
CONTINUOUS
 66
     1
 70
     0
 40
0.0
 41
0.0
  0
VERTEX
  8
4
 10
76.22147369384766
 20
-150.7140045166016
  0
VERTEX
  8
4
 10
76.72147369384766
 20
-150.7140045166016
 42
0.4142135623731064
  0
VERTEX
  8
4
 10
77.22147369384766
 20
-150.2140045166016
 42
0.4142135623731064
  0
VERTEX
  8
4
 10
76.72147369384766
 20
-149.7140045166016
  0
VERTEX
  8
4
 10
76.22147369384766
 20
-149.7140045166016
  0
VERTEX
  8
4
 10
76.22147369384766
 20
-151.7140045166016
  0
SEQEND
  8
4
  0
POLYLINE
  8
4
  6
CONTINUOUS
 66
     1
 70
     0
 40
0.0
 41
0.0
  0
VERTEX
  8
4
 10
77.22147369384766
 20
-151.7140045166016
  0
VERTEX
  8
4
 10
76.72147369384766
 20
-150.7140045166016
  0
SEQEND
  8
4
  0
POLYLINE
  8
4
  6
CONTINUOUS
 66
     1
 70
     0
 40
0.0
 41
0.0
  0
VERTEX
  8
4
 10
77.59647369384766
 20
-150.1515045166016
  0
VERTEX
  8
4
 10
77.59647369384766
 20
-151.3390045166016
 42
0.7500000000000001
  0
VERTEX
  8
4
 10
78.59647369384766
 20
-151.3390045166016
  0
VERTEX
  8
4
 10
78.59647369384766
 20
-150.1515045166016
 42
0.875
  0
VERTEX
  8
4
 10
77.59647369384766
 20
-150.1515045166016
  0
SEQEND
  8
4
  0
ENDBLK
  8
4
  0
BLOCK
  8
4
  2
COMP22
 70
    64
 10
0.0
 20
0.0
  0
POLYLINE
  8
4
  6
CONTINUOUS
 66
     1
 70
     0
 40
0.0
 41
0.0
  0
VERTEX
  8
4
 10
83.78397369384766
 20
-149.7140045166016
  0
VERTEX
  8
4
 10
82.78397369384766
 20
-149.7140045166016
  0
VERTEX
  8
4
 10
82.78397369384766
 20
-151.7140045166016
  0
SEQEND
  8
4
  0
POLYLINE
  8
4
  6
CONTINUOUS
 66
     1
 70
     0
 40
0.0
 41
0.0
  0
VERTEX
  8
4
 10
82.78397369384766
 20
-150.7140045166016
  0
VERTEX
  8
4
 10
83.65897369384766
 20
-150.7140045166016
  0
SEQEND
  8
4
  0
POLYLINE
  8
4
  6
CONTINUOUS
 66
     1
 70
     0
 40
0.0
 41
0.0
  0
VERTEX
  8
4
 10
84.15897369384766
 20
-149.7140045166016
  0
VERTEX
  8
4
 10
84.15897369384766
 20
-151.3390045166016
 42
0.7500000000000001
  0
VERTEX
  8
4
 10
85.15897369384766
 20
-151.3390045166016
  0
VERTEX
  8
4
 10
85.15897369384766
 20
-149.7140045166016
  0
SEQEND
  8
4
  0
POLYLINE
  8
4
  6
CONTINUOUS
 66
     1
 70
     0
 40
0.0
 41
0.0
  0
VERTEX
  8
4
 10
85.53397369384766
 20
-151.7140045166016
  0
VERTEX
  8
4
 10
85.53397369384766
 20
-149.7140045166016
  0
VERTEX
  8
4
 10
86.53397369384766
 20
-151.7140045166016
  0
VERTEX
  8
4
 10
86.53397369384766
 20
-149.7140045166016
  0
SEQEND
  8
4
  0
POLYLINE
  8
4
  6
CONTINUOUS
 66
     1
 70
     0
 40
0.0
 41
0.0
  0
VERTEX
  8
4
 10
87.90897369384766
 20
-150.1515045166016
 42
0.875
  0
VERTEX
  8
4
 10
86.90897369384766
 20
-150.1515045166016
  0
VERTEX
  8
4
 10
86.90897369384766
 20
-151.3390045166016
 42
0.7500000000000001
  0
VERTEX
  8
4
 10
87.90897369384766
 20
-151.3390045166016
  0
SEQEND
  8
4
  0
POLYLINE
  8
4
  6
CONTINUOUS
 66
     1
 70
     0
 40
0.0
 41
0.0
  0
VERTEX
  8
4
 10
88.65897369384766
 20
-151.6515045166016
  0
VERTEX
  8
4
 10
88.65897369384766
 20
-151.4640045166016
  0
VERTEX
  8
4
 10
88.87772369384766
 20
-151.4640045166016
  0
VERTEX
  8
4
 10
88.87772369384766
 20
-151.6515045166016
  0
VERTEX
  8
4
 10
88.65897369384766
 20
-151.6515045166016
  0
SEQEND
  8
4
  0
ENDBLK
  8
4
  0
BLOCK
  8
4
  2
COMP23
 70
    64
 10
0.0
 20
0.0
  0
POLYLINE
  8
4
  6
CONTINUOUS
 66
     1
 70
     0
 40
0.0
 41
0.0
  0
VERTEX
  8
4
 10
93.78397369384766
 20
-150.1515045166016
 42
0.875
  0
VERTEX
  8
4
 10
92.78397369384766
 20
-150.1515045166016
  0
VERTEX
  8
4
 10
92.78397369384766
 20
-151.3390045166016
 42
0.7500000000000001
  0
VERTEX
  8
4
 10
93.78397369384766
 20
-151.3390045166016
  0
SEQEND
  8
4
  0
POLYLINE
  8
4
  6
CONTINUOUS
 66
     1
 70
     0
 40
0.0
 41
0.0
  0
VERTEX
  8
4
 10
94.15897369384766
 20
-149.7140045166016
  0
VERTEX
  8
4
 10
94.15897369384766
 20
-151.7140045166016
  0
SEQEND
  8
4
  0
POLYLINE
  8
4
  6
CONTINUOUS
 66
     1
 70
     0
 40
0.0
 41
0.0
  0
VERTEX
  8
4
 10
95.15897369384766
 20
-149.7140045166016
  0
VERTEX
  8
4
 10
95.15897369384766
 20
-151.7140045166016
  0
SEQEND
  8
4
  0
POLYLINE
  8
4
  6
CONTINUOUS
 66
     1
 70
     0
 40
0.0
 41
0.0
  0
VERTEX
  8
4
 10
94.15897369384766
 20
-150.7140045166016
  0
VERTEX
  8
4
 10
95.15897369384766
 20
-150.7140045166016
  0
SEQEND
  8
4
  0
POLYLINE
  8
4
  6
CONTINUOUS
 66
     1
 70
     0
 40
0.0
 41
0.0
  0
VERTEX
  8
4
 10
96.53397369384766
 20
-149.7140045166016
  0
VERTEX
  8
4
 10
95.53397369384766
 20
-149.7140045166016
  0
VERTEX
  8
4
 10
95.53397369384766
 20
-151.7140045166016
  0
VERTEX
  8
4
 10
96.53397369384766
 20
-151.7140045166016
  0
SEQEND
  8
4
  0
POLYLINE
  8
4
  6
CONTINUOUS
 66
     1
 70
     0
 40
0.0
 41
0.0
  0
VERTEX
  8
4
 10
95.53397369384766
 20
-150.7140045166016
  0
VERTEX
  8
4
 10
96.53397369384766
 20
-150.7140045166016
  0
SEQEND
  8
4
  0
POLYLINE
  8
4
  6
CONTINUOUS
 66
     1
 70
     0
 40
0.0
 41
0.0
  0
VERTEX
  8
4
 10
97.90897369384766
 20
-150.1515045166016
 42
0.875
  0
VERTEX
  8
4
 10
96.90897369384766
 20
-150.1515045166016
  0
VERTEX
  8
4
 10
96.90897369384766
 20
-151.3390045166016
 42
0.7500000000000001
  0
VERTEX
  8
4
 10
97.90897369384766
 20
-151.3390045166016
  0
SEQEND
  8
4
  0
POLYLINE
  8
4
  6
CONTINUOUS
 66
     1
 70
     0
 40
0.0
 41
0.0
  0
VERTEX
  8
4
 10
98.28397369384766
 20
-149.7140045166016
  0
VERTEX
  8
4
 10
98.28397369384766
 20
-151.7140045166016
  0
SEQEND
  8
4
  0
POLYLINE
  8
4
  6
CONTINUOUS
 66
     1
 70
     0
 40
0.0
 41
0.0
  0
VERTEX
  8
4
 10
98.28397369384766
 20
-150.9640045166016
  0
VERTEX
  8
4
 10
99.28397369384766
 20
-149.7140045166016
  0
SEQEND
  8
4
  0
POLYLINE
  8
4
  6
CONTINUOUS
 66
     1
 70
     0
 40
0.0
 41
0.0
  0
VERTEX
  8
4
 10
98.59647369384766
 20
-150.5890045166016
  0
VERTEX
  8
4
 10
99.28397369384766
 20
-151.7140045166016
  0
SEQEND
  8
4
  0
ENDBLK
  8
4
  0
BLOCK
  8
4
  2
COMP24
 70
    64
 10
0.0
 20
0.0
  0
POLYLINE
  8
4
  6
CONTINUOUS
 66
     1
 70
     0
 40
0.0
 41
0.0
  0
VERTEX
  8
4
 10
103.7839736938477
 20
-149.7140045166016
  0
VERTEX
  8
4
 10
102.7839736938477
 20
-149.7140045166016
  0
VERTEX
  8
4
 10
102.7839736938477
 20
-151.7140045166016
  0
VERTEX
  8
4
 10
103.7839736938477
 20
-151.7140045166016
  0
SEQEND
  8
4
  0
POLYLINE
  8
4
  6
CONTINUOUS
 66
     1
 70
     0
 40
0.0
 41
0.0
  0
VERTEX
  8
4
 10
102.7839736938477
 20
-150.7140045166016
  0
VERTEX
  8
4
 10
103.7839736938477
 20
-150.7140045166016
  0
SEQEND
  8
4
  0
POLYLINE
  8
4
  6
CONTINUOUS
 66
     1
 70
     0
 40
0.0
 41
0.0
  0
VERTEX
  8
4
 10
104.1589736938477
 20
-151.7140045166016
  0
VERTEX
  8
4
 10
104.1589736938477
 20
-149.7140045166016
  0
VERTEX
  8
4
 10
105.1589736938477
 20
-151.7140045166016
  0
VERTEX
  8
4
 10
105.1589736938477
 20
-149.7140045166016
  0
SEQEND
  8
4
  0
POLYLINE
  8
4
  6
CONTINUOUS
 66
     1
 70
     0
 40
0.0
 41
0.0
  0
VERTEX
  8
4
 10
105.5339736938477
 20
-149.7140045166016
  0
VERTEX
  8
4
 10
106.5339736938477
 20
-149.7140045166016
  0
SEQEND
  8
4
  0
POLYLINE
  8
4
  6
CONTINUOUS
 66
     1
 70
     0
 40
0.0
 41
0.0
  0
VERTEX
  8
4
 10
106.0339736938477
 20
-149.7140045166016
  0
VERTEX
  8
4
 10
106.0339736938477
 20
-151.7140045166016
  0
SEQEND
  8
4
  0
POLYLINE
  8
4
  6
CONTINUOUS
 66
     1
 70
     0
 40
0.0
 41
0.0
  0
VERTEX
  8
4
 10
107.9089736938477
 20
-149.7140045166016
  0
VERTEX
  8
4
 10
106.9089736938477
 20
-149.7140045166016
  0
VERTEX
  8
4
 10
106.9089736938477
 20
-151.7140045166016
  0
VERTEX
  8
4
 10
107.9089736938477
 20
-151.7140045166016
  0
SEQEND
  8
4
  0
POLYLINE
  8
4
  6
CONTINUOUS
 66
     1
 70
     0
 40
0.0
 41
0.0
  0
VERTEX
  8
4
 10
106.9089736938477
 20
-150.7140045166016
  0
VERTEX
  8
4
 10
107.9089736938477
 20
-150.7140045166016
  0
SEQEND
  8
4
  0
POLYLINE
  8
4
  6
CONTINUOUS
 66
     1
 70
     0
 40
0.0
 41
0.0
  0
VERTEX
  8
4
 10
108.2839736938477
 20
-150.7140045166016
  0
VERTEX
  8
4
 10
108.7839736938477
 20
-150.7140045166016
 42
0.4142135623731064
  0
VERTEX
  8
4
 10
109.2839736938477
 20
-150.2140045166016
 42
0.4142135623731064
  0
VERTEX
  8
4
 10
108.7839736938477
 20
-149.7140045166016
  0
VERTEX
  8
4
 10
108.2839736938477
 20
-149.7140045166016
  0
VERTEX
  8
4
 10
108.2839736938477
 20
-151.7140045166016
  0
SEQEND
  8
4
  0
POLYLINE
  8
4
  6
CONTINUOUS
 66
     1
 70
     0
 40
0.0
 41
0.0
  0
VERTEX
  8
4
 10
109.2839736938477
 20
-151.7140045166016
  0
VERTEX
  8
4
 10
108.7839736938477
 20
-150.7140045166016
  0
SEQEND
  8
4
  0
ENDBLK
  8
4
  0
BLOCK
  8
4
  2
COMP25
 70
    64
 10
0.0
 20
0.0
  0
POLYLINE
  8
4
  6
CONTINUOUS
 66
     1
 70
     0
 40
0.0
 41
0.0
  0
VERTEX
  8
4
 10
99.27375030517578
 20
-272.6901245117188
  0
VERTEX
  8
4
 10
99.77375030517578
 20
-272.6901245117188
 42
0.4142135623731064
  0
VERTEX
  8
4
 10
100.2737503051758
 20
-272.1901245117188
 42
0.4142135623731064
  0
VERTEX
  8
4
 10
99.77375030517578
 20
-271.6901245117188
  0
VERTEX
  8
4
 10
99.27375030517578
 20
-271.6901245117188
  0
VERTEX
  8
4
 10
99.27375030517578
 20
-273.6901245117188
  0
SEQEND
  8
4
  0
POLYLINE
  8
4
  6
CONTINUOUS
 66
     1
 70
     0
 40
0.0
 41
0.0
  0
VERTEX
  8
4
 10
100.2737503051758
 20
-273.6901245117188
  0
VERTEX
  8
4
 10
99.77375030517578
 20
-272.6901245117188
  0
SEQEND
  8
4
  0
POLYLINE
  8
4
  6
CONTINUOUS
 66
     1
 70
     0
 40
0.0
 41
0.0
  0
VERTEX
  8
4
 10
101.6487503051758
 20
-271.6901245117188
  0
VERTEX
  8
4
 10
100.6487503051758
 20
-273.6901245117188
  0
SEQEND
  8
4
  0
POLYLINE
  8
4
  6
CONTINUOUS
 66
     1
 70
     0
 40
0.0
 41
0.0
  0
VERTEX
  8
4
 10
101.6487503051758
 20
-273.6901245117188
  0
VERTEX
  8
4
 10
100.6487503051758
 20
-271.6901245117188
  0
SEQEND
  8
4
  0
POLYLINE
  8
4
  6
CONTINUOUS
 66
     1
 70
     0
 40
0.0
 41
0.0
  0
VERTEX
  8
4
 10
102.0237503051758
 20
-273.6901245117188
  0
VERTEX
  8
4
 10
102.5550003051758
 20
-273.6901245117188
 42
0.4666666666666667
  0
VERTEX
  8
4
 10
103.0237503051758
 20
-273.2213745117188
  0
VERTEX
  8
4
 10
103.0237503051758
 20
-272.1588745117188
 42
0.4666666666666667
  0
VERTEX
  8
4
 10
102.5550003051758
 20
-271.6901245117188
  0
VERTEX
  8
4
 10
102.0237503051758
 20
-271.6901245117188
  0
VERTEX
  8
4
 10
102.0237503051758
 20
-273.6901245117188
  0
SEQEND
  8
4
  0
ENDBLK
  8
4
  0
BLOCK
  8
4
  2
COMP26
 70
    64
 10
0.0
 20
0.0
  0
POLYLINE
  8
4
  6
CONTINUOUS
 66
     1
 70
     0
 40
0.0
 41
0.0
  0
VERTEX
  8
4
 10
104.4746704101563
 20
-275.4639892578125
  0
VERTEX
  8
4
 10
104.4746704101563
 20
-276.9639892578125
  0
VERTEX
  8
4
 10
105.7871704101563
 20
-276.2139892578125
  0
VERTEX
  8
4
 10
104.4746704101563
 20
-275.4639892578125
  0
SEQEND
  8
4
  0
POLYLINE
  8
4
  6
CONTINUOUS
 66
     1
 70
     0
 40
0.0
 41
0.0
  0
VERTEX
  8
4
 10
104.5371704101563
 20
-275.4952392578125
  0
VERTEX
  8
4
 10
104.5371704101563
 20
-276.9327392578125
  0
SEQEND
  8
4
  0
POLYLINE
  8
4
  6
CONTINUOUS
 66
     1
 70
     0
 40
0.0
 41
0.0
  0
VERTEX
  8
4
 10
104.5996704101563
 20
-275.5264892578125
  0
VERTEX
  8
4
 10
104.5996704101563
 20
-276.9014892578125
  0
SEQEND
  8
4
  0
POLYLINE
  8
4
  6
CONTINUOUS
 66
     1
 70
     0
 40
0.0
 41
0.0
  0
VERTEX
  8
4
 10
104.6621704101563
 20
-275.5577392578125
  0
VERTEX
  8
4
 10
104.6621704101563
 20
-276.8702392578125
  0
SEQEND
  8
4
  0
POLYLINE
  8
4
  6
CONTINUOUS
 66
     1
 70
     0
 40
0.0
 41
0.0
  0
VERTEX
  8
4
 10
104.7246704101563
 20
-275.6202392578125
  0
VERTEX
  8
4
 10
104.7246704101563
 20
-276.8077392578125
  0
SEQEND
  8
4
  0
POLYLINE
  8
4
  6
CONTINUOUS
 66
     1
 70
     0
 40
0.0
 41
0.0
  0
VERTEX
  8
4
 10
104.7871704101563
 20
-275.6514892578125
  0
VERTEX
  8
4
 10
104.7871704101563
 20
-276.7764892578125
  0
SEQEND
  8
4
  0
POLYLINE
  8
4
  6
CONTINUOUS
 66
     1
 70
     0
 40
0.0
 41
0.0
  0
VERTEX
  8
4
 10
104.8496704101563
 20
-275.6827392578125
  0
VERTEX
  8
4
 10
104.8496704101563
 20
-276.7452392578125
  0
SEQEND
  8
4
  0
POLYLINE
  8
4
  6
CONTINUOUS
 66
     1
 70
     0
 40
0.0
 41
0.0
  0
VERTEX
  8
4
 10
104.9121704101563
 20
-275.7139892578125
  0
VERTEX
  8
4
 10
104.9121704101563
 20
-276.7139892578125
  0
SEQEND
  8
4
  0
POLYLINE
  8
4
  6
CONTINUOUS
 66
     1
 70
     0
 40
0.0
 41
0.0
  0
VERTEX
  8
4
 10
104.9746704101563
 20
-275.7452392578125
  0
VERTEX
  8
4
 10
104.9746704101563
 20
-276.6827392578125
  0
SEQEND
  8
4
  0
POLYLINE
  8
4
  6
CONTINUOUS
 66
     1
 70
     0
 40
0.0
 41
0.0
  0
VERTEX
  8
4
 10
105.0371704101563
 20
-275.7764892578125
  0
VERTEX
  8
4
 10
105.0371704101563
 20
-276.6514892578125
  0
SEQEND
  8
4
  0
POLYLINE
  8
4
  6
CONTINUOUS
 66
     1
 70
     0
 40
0.0
 41
0.0
  0
VERTEX
  8
4
 10
105.0996704101563
 20
-275.8077392578125
  0
VERTEX
  8
4
 10
105.0996704101563
 20
-276.6202392578125
  0
SEQEND
  8
4
  0
POLYLINE
  8
4
  6
CONTINUOUS
 66
     1
 70
     0
 40
0.0
 41
0.0
  0
VERTEX
  8
4
 10
105.1621704101563
 20
-275.8702392578125
  0
VERTEX
  8
4
 10
105.1621704101563
 20
-276.5577392578125
  0
SEQEND
  8
4
  0
POLYLINE
  8
4
  6
CONTINUOUS
 66
     1
 70
     0
 40
0.0
 41
0.0
  0
VERTEX
  8
4
 10
105.2246704101563
 20
-275.9014892578125
  0
VERTEX
  8
4
 10
105.2246704101563
 20
-276.5264892578125
  0
SEQEND
  8
4
  0
POLYLINE
  8
4
  6
CONTINUOUS
 66
     1
 70
     0
 40
0.0
 41
0.0
  0
VERTEX
  8
4
 10
105.2871704101563
 20
-275.9327392578125
  0
VERTEX
  8
4
 10
105.2871704101563
 20
-276.4952392578125
  0
SEQEND
  8
4
  0
POLYLINE
  8
4
  6
CONTINUOUS
 66
     1
 70
     0
 40
0.0
 41
0.0
  0
VERTEX
  8
4
 10
105.3496704101563
 20
-275.9639892578125
  0
VERTEX
  8
4
 10
105.3496704101563
 20
-276.4639892578125
  0
SEQEND
  8
4
  0
POLYLINE
  8
4
  6
CONTINUOUS
 66
     1
 70
     0
 40
0.0
 41
0.0
  0
VERTEX
  8
4
 10
105.4121704101563
 20
-275.9952392578125
  0
VERTEX
  8
4
 10
105.4121704101563
 20
-276.4327392578125
  0
SEQEND
  8
4
  0
POLYLINE
  8
4
  6
CONTINUOUS
 66
     1
 70
     0
 40
0.0
 41
0.0
  0
VERTEX
  8
4
 10
105.4746704101563
 20
-276.0264892578125
  0
VERTEX
  8
4
 10
105.4746704101563
 20
-276.4014892578125
  0
SEQEND
  8
4
  0
POLYLINE
  8
4
  6
CONTINUOUS
 66
     1
 70
     0
 40
0.0
 41
0.0
  0
VERTEX
  8
4
 10
105.5371704101563
 20
-276.0577392578125
  0
VERTEX
  8
4
 10
105.5371704101563
 20
-276.3702392578125
  0
SEQEND
  8
4
  0
POLYLINE
  8
4
  6
CONTINUOUS
 66
     1
 70
     0
 40
0.0
 41
0.0
  0
VERTEX
  8
4
 10
105.5996704101563
 20
-276.1202392578125
  0
VERTEX
  8
4
 10
105.5996704101563
 20
-276.3077392578125
  0
SEQEND
  8
4
  0
POLYLINE
  8
4
  6
CONTINUOUS
 66
     1
 70
     0
 40
0.0
 41
0.0
  0
VERTEX
  8
4
 10
105.6621704101563
 20
-276.1514892578125
  0
VERTEX
  8
4
 10
105.6621704101563
 20
-276.2764892578125
  0
SEQEND
  8
4
  0
POLYLINE
  8
4
  6
CONTINUOUS
 66
     1
 70
     0
 40
0.0
 41
0.0
  0
VERTEX
  8
4
 10
105.7246704101563
 20
-276.1827392578125
  0
VERTEX
  8
4
 10
105.7246704101563
 20
-276.2452392578125
  0
SEQEND
  8
4
  0
ENDBLK
  8
4
  0
BLOCK
  8
4
  2
COMP27
 70
    64
 10
0.0
 20
0.0
  0
POLYLINE
  8
4
  6
CONTINUOUS
 66
     1
 70
     0
 40
0.0
 41
0.0
  0
VERTEX
  8
4
 10
96.19647216796875
 20
-276.2139892578125
  0
VERTEX
  8
4
 10
96.69647216796875
 20
-276.2139892578125
 42
0.4142135623731064
  0
VERTEX
  8
4
 10
97.19647216796875
 20
-275.7139892578125
 42
0.4142135623731064
  0
VERTEX
  8
4
 10
96.69647216796875
 20
-275.2139892578125
  0
VERTEX
  8
4
 10
96.19647216796875
 20
-275.2139892578125
  0
VERTEX
  8
4
 10
96.19647216796875
 20
-277.2139892578125
  0
SEQEND
  8
4
  0
POLYLINE
  8
4
  6
CONTINUOUS
 66
     1
 70
     0
 40
0.0
 41
0.0
  0
VERTEX
  8
4
 10
97.19647216796875
 20
-277.2139892578125
  0
VERTEX
  8
4
 10
96.69647216796875
 20
-276.2139892578125
  0
SEQEND
  8
4
  0
POLYLINE
  8
4
  6
CONTINUOUS
 66
     1
 70
     0
 40
0.0
 41
0.0
  0
VERTEX
  8
4
 10
98.57147216796875
 20
-275.5889892578125
 42
0.360107421875
  0
VERTEX
  8
4
 10
98.07147216796875
 20
-275.2139892578125
 42
0.3984595108460807
  0
VERTEX
  8
4
 10
97.57147216796875
 20
-275.6514892578125
 42
0.4141989318642539
  0
VERTEX
  8
4
 10
98.07147216796875
 20
-276.2139892578125
 42
-0.3750000000000001
  0
VERTEX
  8
4
 10
98.57147216796875
 20
-276.7139892578125
 42
-0.4832066787534997
  0
VERTEX
  8
4
 10
98.10272216796875
 20
-277.2139892578125
 42
-0.3193852892056865
  0
VERTEX
  8
4
 10
97.57147216796875
 20
-276.8389892578125
  0
SEQEND
  8
4
  0
POLYLINE
  8
4
  6
CONTINUOUS
 66
     1
 70
     0
 40
0.0
 41
0.0
  0
VERTEX
  8
4
 10
98.94647216796875
 20
-275.5889892578125
  0
VERTEX
  8
4
 10
99.25897216796875
 20
-275.2139892578125
  0
VERTEX
  8
4
 10
99.63397216796875
 20
-275.2139892578125
  0
VERTEX
  8
4
 10
99.94647216796875
 20
-275.5889892578125
  0
VERTEX
  8
4
 10
99.94647216796875
 20
-276.0889892578125
  0
VERTEX
  8
4
 10
98.94647216796875
 20
-276.9639892578125
  0
VERTEX
  8
4
 10
98.94647216796875
 20
-277.2139892578125
  0
VERTEX
  8
4
 10
99.94647216796875
 20
-277.2139892578125
  0
SEQEND
  8
4
  0
POLYLINE
  8
4
  6
CONTINUOUS
 66
     1
 70
     0
 40
0.0
 41
0.0
  0
VERTEX
  8
4
 10
100.3214721679688
 20
-275.5889892578125
  0
VERTEX
  8
4
 10
100.6339721679688
 20
-275.2139892578125
  0
VERTEX
  8
4
 10
101.0089721679688
 20
-275.2139892578125
  0
VERTEX
  8
4
 10
101.3214721679688
 20
-275.5889892578125
  0
VERTEX
  8
4
 10
101.3214721679688
 20
-275.9014892578125
  0
VERTEX
  8
4
 10
100.9464721679688
 20
-276.2139892578125
  0
VERTEX
  8
4
 10
100.5714721679688
 20
-276.2139892578125
  0
SEQEND
  8
4
  0
POLYLINE
  8
4
  6
CONTINUOUS
 66
     1
 70
     0
 40
0.0
 41
0.0
  0
VERTEX
  8
4
 10
100.9464721679688
 20
-276.2139892578125
  0
VERTEX
  8
4
 10
101.3214721679688
 20
-276.5889892578125
  0
VERTEX
  8
4
 10
101.3214721679688
 20
-276.9014892578125
  0
VERTEX
  8
4
 10
101.0089721679688
 20
-277.2139892578125
  0
VERTEX
  8
4
 10
100.6339721679688
 20
-277.2139892578125
  0
VERTEX
  8
4
 10
100.3214721679688
 20
-276.9014892578125
  0
SEQEND
  8
4
  0
POLYLINE
  8
4
  6
CONTINUOUS
 66
     1
 70
     0
 40
0.0
 41
0.0
  0
VERTEX
  8
4
 10
101.6964721679688
 20
-275.5889892578125
  0
VERTEX
  8
4
 10
102.0089721679688
 20
-275.2139892578125
  0
VERTEX
  8
4
 10
102.3839721679688
 20
-275.2139892578125
  0
VERTEX
  8
4
 10
102.6964721679688
 20
-275.5889892578125
  0
VERTEX
  8
4
 10
102.6964721679688
 20
-276.0889892578125
  0
VERTEX
  8
4
 10
101.6964721679688
 20
-276.9639892578125
  0
VERTEX
  8
4
 10
101.6964721679688
 20
-277.2139892578125
  0
VERTEX
  8
4
 10
102.6964721679688
 20
-277.2139892578125
  0
SEQEND
  8
4
  0
POLYLINE
  8
4
  6
CONTINUOUS
 66
     1
 70
     0
 40
0.0
 41
0.0
  0
VERTEX
  8
4
 10
104.0714721679688
 20
-275.6514892578125
 42
0.875
  0
VERTEX
  8
4
 10
103.0714721679688
 20
-275.6514892578125
  0
VERTEX
  8
4
 10
103.0714721679688
 20
-276.8389892578125
 42
0.7500000000000001
  0
VERTEX
  8
4
 10
104.0714721679688
 20
-276.8389892578125
  0
SEQEND
  8
4
  0
ENDBLK
  8
4
  0
BLOCK
  8
4
  2
COMP28
 70
    64
 10
0.0
 20
0.0
  0
POLYLINE
  8
4
  6
CONTINUOUS
 66
     1
 70
     0
 40
0.0
 41
0.0
  0
VERTEX
  8
4
 10
89.25897216796875
 20
-271.7140197753906
  0
VERTEX
  8
4
 10
90.25897216796875
 20
-271.7140197753906
  0
SEQEND
  8
4
  0
POLYLINE
  8
4
  6
CONTINUOUS
 66
     1
 70
     0
 40
0.0
 41
0.0
  0
VERTEX
  8
4
 10
89.75897216796875
 20
-271.7140197753906
  0
VERTEX
  8
4
 10
89.75897216796875
 20
-273.7140197753906
  0
SEQEND
  8
4
  0
POLYLINE
  8
4
  6
CONTINUOUS
 66
     1
 70
     0
 40
0.0
 41
0.0
  0
VERTEX
  8
4
 10
91.63397216796875
 20
-271.7140197753906
  0
VERTEX
  8
4
 10
90.63397216796875
 20
-273.7140197753906
  0
SEQEND
  8
4
  0
POLYLINE
  8
4
  6
CONTINUOUS
 66
     1
 70
     0
 40
0.0
 41
0.0
  0
VERTEX
  8
4
 10
91.63397216796875
 20
-273.7140197753906
  0
VERTEX
  8
4
 10
90.63397216796875
 20
-271.7140197753906
  0
SEQEND
  8
4
  0
POLYLINE
  8
4
  6
CONTINUOUS
 66
     1
 70
     0
 40
0.0
 41
0.0
  0
VERTEX
  8
4
 10
92.00897216796875
 20
-273.7140197753906
  0
VERTEX
  8
4
 10
92.54022216796875
 20
-273.7140197753906
 42
0.4666666666666667
  0
VERTEX
  8
4
 10
93.00897216796875
 20
-273.2452697753906
  0
VERTEX
  8
4
 10
93.00897216796875
 20
-272.1827697753906
 42
0.4666666666666667
  0
VERTEX
  8
4
 10
92.54022216796875
 20
-271.7140197753906
  0
VERTEX
  8
4
 10
92.00897216796875
 20
-271.7140197753906
  0
VERTEX
  8
4
 10
92.00897216796875
 20
-273.7140197753906
  0
SEQEND
  8
4
  0
ENDBLK
  8
4
  0
BLOCK
  8
4
  2
COMP29
 70
    64
 10
0.0
 20
0.0
  0
POLYLINE
  8
4
  6
CONTINUOUS
 66
     1
 70
     0
 40
0.0
 41
0.0
  0
VERTEX
  8
4
 10
82.87147521972656
 20
-276.2764892578125
  0
VERTEX
  8
4
 10
84.05897521972656
 20
-276.2764892578125
 42
0.7500000000000001
  0
VERTEX
  8
4
 10
84.05897521972656
 20
-275.2764892578125
  0
VERTEX
  8
4
 10
82.87147521972656
 20
-275.2764892578125
 42
0.875
  0
VERTEX
  8
4
 10
82.87147521972656
 20
-276.2764892578125
  0
SEQEND
  8
4
  0
POLYLINE
  8
4
  6
CONTINUOUS
 66
     1
 70
     0
 40
0.0
 41
0.0
  0
VERTEX
  8
4
 10
83.43397521972656
 20
-274.9014892578125
  0
VERTEX
  8
4
 10
83.43397521972656
 20
-274.4014892578125
 42
0.4142135623731064
  0
VERTEX
  8
4
 10
82.93397521972656
 20
-273.9014892578125
 42
0.4142135623731064
  0
VERTEX
  8
4
 10
82.43397521972656
 20
-274.4014892578125
  0
VERTEX
  8
4
 10
82.43397521972656
 20
-274.9014892578125
  0
VERTEX
  8
4
 10
84.43397521972656
 20
-274.9014892578125
  0
SEQEND
  8
4
  0
POLYLINE
  8
4
  6
CONTINUOUS
 66
     1
 70
     0
 40
0.0
 41
0.0
  0
VERTEX
  8
4
 10
84.37147521972656
 20
-273.1514892578125
  0
VERTEX
  8
4
 10
84.18397521972656
 20
-273.1514892578125
  0
VERTEX
  8
4
 10
84.18397521972656
 20
-272.9327392578125
  0
VERTEX
  8
4
 10
84.37147521972656
 20
-272.9327392578125
  0
VERTEX
  8
4
 10
84.37147521972656
 20
-273.1514892578125
  0
SEQEND
  8
4
  0
POLYLINE
  8
4
  6
CONTINUOUS
 66
     1
 70
     0
 40
0.0
 41
0.0
  0
VERTEX
  8
4
 10
82.80897521972656
 20
-272.1514892578125
  0
VERTEX
  8
4
 10
82.43397521972656
 20
-271.8389892578125
  0
VERTEX
  8
4
 10
82.43397521972656
 20
-271.4639892578125
  0
VERTEX
  8
4
 10
82.80897521972656
 20
-271.1514892578125
  0
VERTEX
  8
4
 10
83.12147521972656
 20
-271.1514892578125
  0
VERTEX
  8
4
 10
83.43397521972656
 20
-271.5264892578125
  0
VERTEX
  8
4
 10
83.43397521972656
 20
-271.9014892578125
  0
SEQEND
  8
4
  0
POLYLINE
  8
4
  6
CONTINUOUS
 66
     1
 70
     0
 40
0.0
 41
0.0
  0
VERTEX
  8
4
 10
83.43397521972656
 20
-271.5264892578125
  0
VERTEX
  8
4
 10
83.80897521972656
 20
-271.1514892578125
  0
VERTEX
  8
4
 10
84.12147521972656
 20
-271.1514892578125
  0
VERTEX
  8
4
 10
84.43397521972656
 20
-271.4639892578125
  0
VERTEX
  8
4
 10
84.43397521972656
 20
-271.8389892578125
  0
VERTEX
  8
4
 10
84.12147521972656
 20
-272.1514892578125
  0
SEQEND
  8
4
  0
ENDBLK
  8
4
  0
BLOCK
  8
4
  2
COMP30
 70
    64
 10
0.0
 20
0.0
  0
POLYLINE
  8
4
  6
CONTINUOUS
 66
     1
 70
     0
 40
0.0
 41
0.0
  0
VERTEX
  8
4
 10
84.43397521972656
 20
-269.3515319824219
  0
VERTEX
  8
4
 10
82.43397521972656
 20
-269.3515319824219
  0
VERTEX
  8
4
 10
83.02772521972656
 20
-269.6952819824219
  0
SEQEND
  8
4
  0
POLYLINE
  8
4
  6
CONTINUOUS
 66
     1
 70
     0
 40
0.0
 41
0.0
  0
VERTEX
  8
4
 10
84.43397521972656
 20
-267.9765319824219
  0
VERTEX
  8
4
 10
82.43397521972656
 20
-267.9765319824219
  0
VERTEX
  8
4
 10
83.02772521972656
 20
-268.3202819824219
  0
SEQEND
  8
4
  0
ENDBLK
  8
4
  0
BLOCK
  8
4
  2
COMP31
 70
    64
 10
0.0
 20
0.0
  0
POLYLINE
  8
4
  6
CONTINUOUS
 66
     1
 70
     0
 40
0.0
 41
0.0
  0
VERTEX
  8
4
 10
79.43397521972656
 20
-269.3515319824219
  0
VERTEX
  8
4
 10
77.43397521972656
 20
-269.3515319824219
  0
VERTEX
  8
4
 10
78.02772521972656
 20
-269.6952819824219
  0
SEQEND
  8
4
  0
POLYLINE
  8
4
  6
CONTINUOUS
 66
     1
 70
     0
 40
0.0
 41
0.0
  0
VERTEX
  8
4
 10
77.80897521972656
 20
-268.4140319824219
  0
VERTEX
  8
4
 10
79.05897521972656
 20
-268.4140319824219
 42
0.9230769230769231
  0
VERTEX
  8
4
 10
79.05897521972656
 20
-267.6015319824219
  0
VERTEX
  8
4
 10
77.80897521972656
 20
-267.6015319824219
 42
0.9230769230769231
  0
VERTEX
  8
4
 10
77.80897521972656
 20
-268.4140319824219
  0
SEQEND
  8
4
  0
ENDBLK
  8
4
  0
BLOCK
  8
4
  2
COMP32
 70
    64
 10
0.0
 20
0.0
  0
POLYLINE
  8
4
  6
CONTINUOUS
 66
     1
 70
     0
 40
0.0
 41
0.0
  0
VERTEX
  8
4
 10
77.87147521972656
 20
-276.2764892578125
  0
VERTEX
  8
4
 10
79.05897521972656
 20
-276.2764892578125
 42
0.7500000000000001
  0
VERTEX
  8
4
 10
79.05897521972656
 20
-275.2764892578125
  0
VERTEX
  8
4
 10
77.87147521972656
 20
-275.2764892578125
 42
0.875
  0
VERTEX
  8
4
 10
77.87147521972656
 20
-276.2764892578125
  0
SEQEND
  8
4
  0
POLYLINE
  8
4
  6
CONTINUOUS
 66
     1
 70
     0
 40
0.0
 41
0.0
  0
VERTEX
  8
4
 10
78.43397521972656
 20
-274.9014892578125
  0
VERTEX
  8
4
 10
78.43397521972656
 20
-274.4014892578125
 42
0.4142135623731064
  0
VERTEX
  8
4
 10
77.93397521972656
 20
-273.9014892578125
 42
0.4142135623731064
  0
VERTEX
  8
4
 10
77.43397521972656
 20
-274.4014892578125
  0
VERTEX
  8
4
 10
77.43397521972656
 20
-274.9014892578125
  0
VERTEX
  8
4
 10
79.43397521972656
 20
-274.9014892578125
  0
SEQEND
  8
4
  0
POLYLINE
  8
4
  6
CONTINUOUS
 66
     1
 70
     0
 40
0.0
 41
0.0
  0
VERTEX
  8
4
 10
79.37147521972656
 20
-273.1514892578125
  0
VERTEX
  8
4
 10
79.18397521972656
 20
-273.1514892578125
  0
VERTEX
  8
4
 10
79.18397521972656
 20
-272.9327392578125
  0
VERTEX
  8
4
 10
79.37147521972656
 20
-272.9327392578125
  0
VERTEX
  8
4
 10
79.37147521972656
 20
-273.1514892578125
  0
SEQEND
  8
4
  0
POLYLINE
  8
4
  6
CONTINUOUS
 66
     1
 70
     0
 40
0.0
 41
0.0
  0
VERTEX
  8
4
 10
77.80897521972656
 20
-272.1514892578125
  0
VERTEX
  8
4
 10
77.43397521972656
 20
-271.8389892578125
  0
VERTEX
  8
4
 10
77.43397521972656
 20
-271.4639892578125
  0
VERTEX
  8
4
 10
77.80897521972656
 20
-271.1514892578125
  0
VERTEX
  8
4
 10
78.30897521972656
 20
-271.1514892578125
  0
VERTEX
  8
4
 10
79.18397521972656
 20
-272.1514892578125
  0
VERTEX
  8
4
 10
79.43397521972656
 20
-272.1514892578125
  0
VERTEX
  8
4
 10
79.43397521972656
 20
-271.1514892578125
  0
SEQEND
  8
4
  0
ENDBLK
  8
4
  0
BLOCK
  8
4
  2
COMP33
 70
    64
 10
0.0
 20
0.0
  0
POLYLINE
  8
4
  6
CONTINUOUS
 66
     1
 70
     0
 40
0.0
 41
0.0
  0
VERTEX
  8
4
 10
72.87147521972656
 20
-276.2764892578125
  0
VERTEX
  8
4
 10
74.05897521972656
 20
-276.2764892578125
 42
0.7500000000000001
  0
VERTEX
  8
4
 10
74.05897521972656
 20
-275.2764892578125
  0
VERTEX
  8
4
 10
72.87147521972656
 20
-275.2764892578125
 42
0.875
  0
VERTEX
  8
4
 10
72.87147521972656
 20
-276.2764892578125
  0
SEQEND
  8
4
  0
POLYLINE
  8
4
  6
CONTINUOUS
 66
     1
 70
     0
 40
0.0
 41
0.0
  0
VERTEX
  8
4
 10
73.43397521972656
 20
-274.9014892578125
  0
VERTEX
  8
4
 10
73.43397521972656
 20
-274.4014892578125
 42
0.4142135623731064
  0
VERTEX
  8
4
 10
72.93397521972656
 20
-273.9014892578125
 42
0.4142135623731064
  0
VERTEX
  8
4
 10
72.43397521972656
 20
-274.4014892578125
  0
VERTEX
  8
4
 10
72.43397521972656
 20
-274.9014892578125
  0
VERTEX
  8
4
 10
74.43397521972656
 20
-274.9014892578125
  0
SEQEND
  8
4
  0
POLYLINE
  8
4
  6
CONTINUOUS
 66
     1
 70
     0
 40
0.0
 41
0.0
  0
VERTEX
  8
4
 10
74.37147521972656
 20
-273.1514892578125
  0
VERTEX
  8
4
 10
74.18397521972656
 20
-273.1514892578125
  0
VERTEX
  8
4
 10
74.18397521972656
 20
-272.9327392578125
  0
VERTEX
  8
4
 10
74.37147521972656
 20
-272.9327392578125
  0
VERTEX
  8
4
 10
74.37147521972656
 20
-273.1514892578125
  0
SEQEND
  8
4
  0
POLYLINE
  8
4
  6
CONTINUOUS
 66
     1
 70
     0
 40
0.0
 41
0.0
  0
VERTEX
  8
4
 10
74.43397521972656
 20
-271.6514892578125
  0
VERTEX
  8
4
 10
72.43397521972656
 20
-271.6514892578125
  0
VERTEX
  8
4
 10
73.02772521972656
 20
-271.9952392578125
  0
SEQEND
  8
4
  0
ENDBLK
  8
4
  0
BLOCK
  8
4
  2
COMP34
 70
    64
 10
0.0
 20
0.0
  0
POLYLINE
  8
4
  6
CONTINUOUS
 66
     1
 70
     0
 40
0.0
 41
0.0
  0
VERTEX
  8
4
 10
72.43397521972656
 20
-268.4765319824219
  0
VERTEX
  8
4
 10
72.43397521972656
 20
-268.8515319824219
  0
VERTEX
  8
4
 10
72.74647521972656
 20
-269.1640319824219
  0
VERTEX
  8
4
 10
73.30897521972656
 20
-269.1640319824219
  0
VERTEX
  8
4
 10
73.62147521972656
 20
-268.8515319824219
  0
VERTEX
  8
4
 10
73.62147521972656
 20
-268.4765319824219
  0
VERTEX
  8
4
 10
73.55897521972656
 20
-268.2890319824219
  0
VERTEX
  8
4
 10
73.30897521972656
 20
-268.1640319824219
  0
VERTEX
  8
4
 10
72.74647521972656
 20
-268.1640319824219
  0
VERTEX
  8
4
 10
72.43397521972656
 20
-268.4765319824219
  0
SEQEND
  8
4
  0
POLYLINE
  8
4
  6
CONTINUOUS
 66
     1
 70
     0
 40
0.0
 41
0.0
  0
VERTEX
  8
4
 10
73.55897521972656
 20
-268.2890319824219
  0
VERTEX
  8
4
 10
74.12147521972656
 20
-268.5390319824219
  0
VERTEX
  8
4
 10
74.43397521972656
 20
-268.9140319824219
  0
SEQEND
  8
4
  0
ENDBLK
  8
4
  0
BLOCK
  8
4
  2
COMP35
 70
    64
 10
0.0
 20
0.0
  0
POLYLINE
  8
4
  6
CONTINUOUS
 66
     1
 70
     0
 40
0.0
 41
0.0
  0
VERTEX
  8
4
 10
64.41397094726563
 20
-268.4765319824219
  0
VERTEX
  8
4
 10
64.66397094726563
 20
-268.2265319824219
  0
VERTEX
  8
4
 10
65.16397094726563
 20
-268.2265319824219
  0
VERTEX
  8
4
 10
65.35147094726563
 20
-268.4765319824219
  0
VERTEX
  8
4
 10
65.35147094726563
 20
-268.8515319824219
  0
VERTEX
  8
4
 10
65.16397094726563
 20
-269.1015319824219
  0
VERTEX
  8
4
 10
64.66397094726563
 20
-269.1015319824219
  0
VERTEX
  8
4
 10
64.41397094726563
 20
-268.8515319824219
  0
VERTEX
  8
4
 10
64.41397094726563
 20
-268.4765319824219
  0
SEQEND
  8
4
  0
POLYLINE
  8
4
  6
CONTINUOUS
 66
     1
 70
     0
 40
0.0
 41
0.0
  0
VERTEX
  8
4
 10
65.35147094726563
 20
-268.8515319824219
  0
VERTEX
  8
4
 10
65.60147094726563
 20
-269.1640319824219
  0
VERTEX
  8
4
 10
66.10147094726563
 20
-269.1640319824219
  0
VERTEX
  8
4
 10
66.41397094726563
 20
-268.8515319824219
  0
VERTEX
  8
4
 10
66.41397094726563
 20
-268.4765319824219
  0
VERTEX
  8
4
 10
66.10147094726563
 20
-268.1640319824219
  0
VERTEX
  8
4
 10
65.60147094726563
 20
-268.1640319824219
  0
VERTEX
  8
4
 10
65.35147094726563
 20
-268.4765319824219
  0
SEQEND
  8
4
  0
ENDBLK
  8
4
  0
BLOCK
  8
4
  2
COMP36
 70
    64
 10
0.0
 20
0.0
  0
POLYLINE
  8
4
  6
CONTINUOUS
 66
     1
 70
     0
 40
0.0
 41
0.0
  0
VERTEX
  8
4
 10
64.3802490234375
 20
-276.27099609375
  0
VERTEX
  8
4
 10
66.3802490234375
 20
-276.27099609375
  0
VERTEX
  8
4
 10
66.3802490234375
 20
-275.27099609375
  0
SEQEND
  8
4
  0
POLYLINE
  8
4
  6
CONTINUOUS
 66
     1
 70
     0
 40
0.0
 41
0.0
  0
VERTEX
  8
4
 10
64.8177490234375
 20
-274.89599609375
  0
VERTEX
  8
4
 10
66.0052490234375
 20
-274.89599609375
 42
0.7500000000000001
  0
VERTEX
  8
4
 10
66.0052490234375
 20
-273.89599609375
  0
VERTEX
  8
4
 10
64.8177490234375
 20
-273.89599609375
 42
0.875
  0
VERTEX
  8
4
 10
64.8177490234375
 20
-274.89599609375
  0
SEQEND
  8
4
  0
POLYLINE
  8
4
  6
CONTINUOUS
 66
     1
 70
     0
 40
0.0
 41
0.0
  0
VERTEX
  8
4
 10
64.8177490234375
 20
-272.52099609375
 42
0.875
  0
VERTEX
  8
4
 10
64.8177490234375
 20
-273.52099609375
  0
VERTEX
  8
4
 10
66.0052490234375
 20
-273.52099609375
 42
0.7500000000000001
  0
VERTEX
  8
4
 10
66.0052490234375
 20
-272.52099609375
  0
SEQEND
  8
4
  0
POLYLINE
  8
4
  6
CONTINUOUS
 66
     1
 70
     0
 40
0.0
 41
0.0
  0
VERTEX
  8
4
 10
64.3802490234375
 20
-272.14599609375
  0
VERTEX
  8
4
 10
66.3802490234375
 20
-272.14599609375
  0
SEQEND
  8
4
  0
POLYLINE
  8
4
  6
CONTINUOUS
 66
     1
 70
     0
 40
0.0
 41
0.0
  0
VERTEX
  8
4
 10
65.6302490234375
 20
-272.14599609375
  0
VERTEX
  8
4
 10
64.3802490234375
 20
-271.14599609375
  0
SEQEND
  8
4
  0
POLYLINE
  8
4
  6
CONTINUOUS
 66
     1
 70
     0
 40
0.0
 41
0.0
  0
VERTEX
  8
4
 10
65.2552490234375
 20
-271.83349609375
  0
VERTEX
  8
4
 10
66.3802490234375
 20
-271.14599609375
  0
SEQEND
  8
4
  0
ENDBLK
  8
4
  0
BLOCK
  8
4
  2
COMP37
 70
    64
 10
0.0
 20
0.0
  0
POLYLINE
  8
4
  6
CONTINUOUS
 66
     1
 70
     0
 40
0.0
 41
0.0
  0
VERTEX
  8
4
 10
59.44001770019531
 20
-276.27099609375
  0
VERTEX
  8
4
 10
61.44001770019531
 20
-276.27099609375
  0
SEQEND
  8
4
  0
POLYLINE
  8
4
  6
CONTINUOUS
 66
     1
 70
     0
 40
0.0
 41
0.0
  0
VERTEX
  8
4
 10
59.44001770019531
 20
-275.27099609375
  0
VERTEX
  8
4
 10
61.44001770019531
 20
-275.27099609375
  0
SEQEND
  8
4
  0
POLYLINE
  8
4
  6
CONTINUOUS
 66
     1
 70
     0
 40
0.0
 41
0.0
  0
VERTEX
  8
4
 10
60.44001770019531
 20
-276.27099609375
  0
VERTEX
  8
4
 10
60.44001770019531
 20
-275.27099609375
  0
SEQEND
  8
4
  0
POLYLINE
  8
4
  6
CONTINUOUS
 66
     1
 70
     0
 40
0.0
 41
0.0
  0
VERTEX
  8
4
 10
59.87751770019531
 20
-274.89599609375
  0
VERTEX
  8
4
 10
61.06501770019531
 20
-274.89599609375
 42
0.7500000000000001
  0
VERTEX
  8
4
 10
61.06501770019531
 20
-273.89599609375
  0
VERTEX
  8
4
 10
59.87751770019531
 20
-273.89599609375
 42
0.875
  0
VERTEX
  8
4
 10
59.87751770019531
 20
-274.89599609375
  0
SEQEND
  8
4
  0
POLYLINE
  8
4
  6
CONTINUOUS
 66
     1
 70
     0
 40
0.0
 41
0.0
  0
VERTEX
  8
4
 10
59.44001770019531
 20
-273.52099609375
  0
VERTEX
  8
4
 10
61.44001770019531
 20
-273.52099609375
  0
VERTEX
  8
4
 10
61.44001770019531
 20
-272.52099609375
  0
SEQEND
  8
4
  0
POLYLINE
  8
4
  6
CONTINUOUS
 66
     1
 70
     0
 40
0.0
 41
0.0
  0
VERTEX
  8
4
 10
61.44001770019531
 20
-272.14599609375
  0
VERTEX
  8
4
 10
61.44001770019531
 20
-271.61474609375
 42
0.4666666666666667
  0
VERTEX
  8
4
 10
60.97126770019531
 20
-271.14599609375
  0
VERTEX
  8
4
 10
59.90876770019531
 20
-271.14599609375
 42
0.4666666666666667
  0
VERTEX
  8
4
 10
59.44001770019531
 20
-271.61474609375
  0
VERTEX
  8
4
 10
59.44001770019531
 20
-272.14599609375
  0
VERTEX
  8
4
 10
61.44001770019531
 20
-272.14599609375
  0
SEQEND
  8
4
  0
ENDBLK
  8
4
  0
BLOCK
  8
4
  2
COMP38
 70
    64
 10
0.0
 20
0.0
  0
POLYLINE
  8
4
  6
CONTINUOUS
 66
     1
 70
     0
 40
0.0
 41
0.0
  0
VERTEX
  8
4
 10
59.97647476196289
 20
-269.1640319824219
  0
VERTEX
  8
4
 10
59.47647476196289
 20
-269.1640319824219
  0
VERTEX
  8
4
 10
59.47647476196289
 20
-268.1640319824219
  0
VERTEX
  8
4
 10
61.41397476196289
 20
-268.7890319824219
  0
SEQEND
  8
4
  0
ENDBLK
  8
4
  0
BLOCK
  8
4
  2
COMP39
 70
    64
 10
0.0
 20
0.0
  0
POLYLINE
  8
4
  6
CONTINUOUS
 66
     1
 70
     0
 40
0.0
 41
0.0
  0
VERTEX
  8
4
 10
55.53897476196289
 20
-269.1640319824219
  0
VERTEX
  8
4
 10
55.22647476196289
 20
-268.8515319824219
  0
VERTEX
  8
4
 10
55.22647476196289
 20
-268.4765319824219
  0
VERTEX
  8
4
 10
55.53897476196289
 20
-268.1640319824219
  0
VERTEX
  8
4
 10
56.10147476196289
 20
-268.1640319824219
  0
VERTEX
  8
4
 10
56.41397476196289
 20
-268.4765319824219
  0
VERTEX
  8
4
 10
56.41397476196289
 20
-268.8515319824219
  0
VERTEX
  8
4
 10
56.10147476196289
 20
-269.1640319824219
  0
VERTEX
  8
4
 10
54.72647476196289
 20
-269.1640319824219
  0
VERTEX
  8
4
 10
54.41397476196289
 20
-268.8515319824219
  0
VERTEX
  8
4
 10
54.41397476196289
 20
-268.4765319824219
  0
VERTEX
  8
4
 10
54.72647476196289
 20
-268.1640319824219
  0
SEQEND
  8
4
  0
ENDBLK
  8
4
  0
BLOCK
  8
4
  2
COMP40
 70
    64
 10
0.0
 20
0.0
  0
POLYLINE
  8
4
  6
CONTINUOUS
 66
     1
 70
     0
 40
0.0
 41
0.0
  0
VERTEX
  8
4
 10
55.8988037109375
 20
-275.1524658203125
  0
VERTEX
  8
4
 10
57.0863037109375
 20
-275.1524658203125
 42
0.7500000000000001
  0
VERTEX
  8
4
 10
57.0863037109375
 20
-274.1524658203125
  0
VERTEX
  8
4
 10
55.8988037109375
 20
-274.1524658203125
 42
0.875
  0
VERTEX
  8
4
 10
55.8988037109375
 20
-275.1524658203125
  0
SEQEND
  8
4
  0
POLYLINE
  8
4
  6
CONTINUOUS
 66
     1
 70
     0
 40
0.0
 41
0.0
  0
VERTEX
  8
4
 10
55.4613037109375
 20
-272.7774658203125
  0
VERTEX
  8
4
 10
55.4613037109375
 20
-273.7774658203125
  0
VERTEX
  8
4
 10
57.4613037109375
 20
-273.7774658203125
  0
SEQEND
  8
4
  0
POLYLINE
  8
4
  6
CONTINUOUS
 66
     1
 70
     0
 40
0.0
 41
0.0
  0
VERTEX
  8
4
 10
56.4613037109375
 20
-273.7774658203125
  0
VERTEX
  8
4
 10
56.4613037109375
 20
-272.9024658203125
  0
SEQEND
  8
4
  0
POLYLINE
  8
4
  6
CONTINUOUS
 66
     1
 70
     0
 40
0.0
 41
0.0
  0
VERTEX
  8
4
 10
55.4613037109375
 20
-271.4024658203125
  0
VERTEX
  8
4
 10
55.4613037109375
 20
-272.4024658203125
  0
VERTEX
  8
4
 10
57.4613037109375
 20
-272.4024658203125
  0
SEQEND
  8
4
  0
POLYLINE
  8
4
  6
CONTINUOUS
 66
     1
 70
     0
 40
0.0
 41
0.0
  0
VERTEX
  8
4
 10
56.4613037109375
 20
-272.4024658203125
  0
VERTEX
  8
4
 10
56.4613037109375
 20
-271.5274658203125
  0
SEQEND
  8
4
  0
ENDBLK
  8
4
  0
BLOCK
  8
4
  2
COMP41
 70
    64
 10
0.0
 20
0.0
  0
POLYLINE
  8
4
  6
CONTINUOUS
 66
     1
 70
     0
 40
0.0
 41
0.0
  0
VERTEX
  8
4
 10
55.27301025390625
 20
-276.3129272460938
  0
VERTEX
  8
4
 10
53.27301025390625
 20
-275.8129272460938
  0
VERTEX
  8
4
 10
55.27301025390625
 20
-275.3129272460938
  0
SEQEND
  8
4
  0
POLYLINE
  8
4
  6
CONTINUOUS
 66
     1
 70
     0
 40
0.0
 41
0.0
  0
VERTEX
  8
4
 10
54.64801025390625
 20
-275.4691772460938
  0
VERTEX
  8
4
 10
54.64801025390625
 20
-276.1566772460938
  0
SEQEND
  8
4
  0
POLYLINE
  8
4
  6
CONTINUOUS
 66
     1
 70
     0
 40
0.0
 41
0.0
  0
VERTEX
  8
4
 10
55.27301025390625
 20
-274.9379272460938
  0
VERTEX
  8
4
 10
53.27301025390625
 20
-273.9379272460938
  0
SEQEND
  8
4
  0
POLYLINE
  8
4
  6
CONTINUOUS
 66
     1
 70
     0
 40
0.0
 41
0.0
  0
VERTEX
  8
4
 10
53.27301025390625
 20
-273.5629272460938
  0
VERTEX
  8
4
 10
53.27301025390625
 20
-272.5629272460938
  0
VERTEX
  8
4
 10
55.27301025390625
 20
-273.5629272460938
  0
VERTEX
  8
4
 10
55.27301025390625
 20
-272.5629272460938
  0
SEQEND
  8
4
  0
ENDBLK
  8
4
  0
BLOCK
  8
4
  2
COMP42
 70
    64
 10
0.0
 20
0.0
  0
POLYLINE
  8
4
  6
CONTINUOUS
 66
     1
 70
     0
 40
0.0
 41
0.0
  0
VERTEX
  8
4
 10
51.39376449584961
 20
-275.58349609375
  0
VERTEX
  8
4
 10
49.39376449584961
 20
-275.08349609375
  0
VERTEX
  8
4
 10
51.39376449584961
 20
-274.58349609375
  0
SEQEND
  8
4
  0
POLYLINE
  8
4
  6
CONTINUOUS
 66
     1
 70
     0
 40
0.0
 41
0.0
  0
VERTEX
  8
4
 10
50.76876449584961
 20
-274.73974609375
  0
VERTEX
  8
4
 10
50.76876449584961
 20
-275.42724609375
  0
SEQEND
  8
4
  0
POLYLINE
  8
4
  6
CONTINUOUS
 66
     1
 70
     0
 40
0.0
 41
0.0
  0
VERTEX
  8
4
 10
51.39376449584961
 20
-274.20849609375
  0
VERTEX
  8
4
 10
49.39376449584961
 20
-273.20849609375
  0
SEQEND
  8
4
  0
POLYLINE
  8
4
  6
CONTINUOUS
 66
     1
 70
     0
 40
0.0
 41
0.0
  0
VERTEX
  8
4
 10
49.39376449584961
 20
-272.83349609375
  0
VERTEX
  8
4
 10
49.39376449584961
 20
-271.83349609375
  0
VERTEX
  8
4
 10
51.39376449584961
 20
-272.83349609375
  0
VERTEX
  8
4
 10
51.39376449584961
 20
-271.83349609375
  0
SEQEND
  8
4
  0
ENDBLK
  8
4
  0
BLOCK
  8
4
  2
COMP43
 70
    64
 10
0.0
 20
0.0
  0
POLYLINE
  8
4
  6
CONTINUOUS
 66
     1
 70
     0
 40
0.0
 41
0.0
  0
VERTEX
  8
4
 10
49.47647476196289
 20
-268.2265319824219
  0
VERTEX
  8
4
 10
49.47647476196289
 20
-269.0390319824219
  0
VERTEX
  8
4
 10
50.35147476196289
 20
-269.1640319824219
  0
VERTEX
  8
4
 10
50.22647476196289
 20
-268.8515319824219
  0
VERTEX
  8
4
 10
50.22647476196289
 20
-268.4765319824219
  0
VERTEX
  8
4
 10
50.47647476196289
 20
-268.1640319824219
  0
VERTEX
  8
4
 10
51.10147476196289
 20
-268.1640319824219
  0
VERTEX
  8
4
 10
51.41397476196289
 20
-268.4765319824219
  0
VERTEX
  8
4
 10
51.41397476196289
 20
-268.8515319824219
  0
VERTEX
  8
4
 10
51.10147476196289
 20
-269.1640319824219
  0
SEQEND
  8
4
  0
ENDBLK
  8
4
  0
BLOCK
  8
4
  2
COMP44
 70
    64
 10
0.0
 20
0.0
  0
POLYLINE
  8
4
  6
CONTINUOUS
 66
     1
 70
     0
 40
0.0
 41
0.0
  0
VERTEX
  8
4
 10
44.41397476196289
 20
-268.6640319824219
  0
VERTEX
  8
4
 10
45.78897476196289
 20
-269.1640319824219
  0
VERTEX
  8
4
 10
45.78897476196289
 20
-268.1640319824219
  0
SEQEND
  8
4
  0
POLYLINE
  8
4
  6
CONTINUOUS
 66
     1
 70
     0
 40
0.0
 41
0.0
  0
VERTEX
  8
4
 10
46.41397476196289
 20
-268.4765319824219
  0
VERTEX
  8
4
 10
45.10147476196289
 20
-268.4765319824219
  0
SEQEND
  8
4
  0
ENDBLK
  8
4
  0
BLOCK
  8
4
  2
COMP45
 70
    64
 10
0.0
 20
0.0
  0
POLYLINE
  8
4
  6
CONTINUOUS
 66
     1
 70
     0
 40
0.0
 41
0.0
  0
VERTEX
  8
4
 10
44.42037582397461
 20
-276.27099609375
  0
VERTEX
  8
4
 10
44.42037582397461
 20
-275.27099609375
  0
VERTEX
  8
4
 10
46.42037582397461
 20
-276.27099609375
  0
VERTEX
  8
4
 10
46.42037582397461
 20
-275.27099609375
  0
SEQEND
  8
4
  0
POLYLINE
  8
4
  6
CONTINUOUS
 66
     1
 70
     0
 40
0.0
 41
0.0
  0
VERTEX
  8
4
 10
44.42037582397461
 20
-273.89599609375
  0
VERTEX
  8
4
 10
44.42037582397461
 20
-274.89599609375
  0
VERTEX
  8
4
 10
46.42037582397461
 20
-274.89599609375
  0
VERTEX
  8
4
 10
46.42037582397461
 20
-273.89599609375
  0
SEQEND
  8
4
  0
POLYLINE
  8
4
  6
CONTINUOUS
 66
     1
 70
     0
 40
0.0
 41
0.0
  0
VERTEX
  8
4
 10
45.42037582397461
 20
-274.89599609375
  0
VERTEX
  8
4
 10
45.42037582397461
 20
-273.89599609375
  0
SEQEND
  8
4
  0
POLYLINE
  8
4
  6
CONTINUOUS
 66
     1
 70
     0
 40
0.0
 41
0.0
  0
VERTEX
  8
4
 10
45.42037582397461
 20
-273.52099609375
  0
VERTEX
  8
4
 10
45.42037582397461
 20
-273.02099609375
 42
0.4142135623731064
  0
VERTEX
  8
4
 10
44.92037582397461
 20
-272.52099609375
 42
0.4142135623731064
  0
VERTEX
  8
4
 10
44.42037582397461
 20
-273.02099609375
  0
VERTEX
  8
4
 10
44.42037582397461
 20
-273.52099609375
  0
VERTEX
  8
4
 10
46.42037582397461
 20
-273.52099609375
  0
SEQEND
  8
4
  0
POLYLINE
  8
4
  6
CONTINUOUS
 66
     1
 70
     0
 40
0.0
 41
0.0
  0
VERTEX
  8
4
 10
46.42037582397461
 20
-272.52099609375
  0
VERTEX
  8
4
 10
45.42037582397461
 20
-273.02099609375
  0
SEQEND
  8
4
  0
POLYLINE
  8
4
  6
CONTINUOUS
 66
     1
 70
     0
 40
0.0
 41
0.0
  0
VERTEX
  8
4
 10
44.85787582397461
 20
-272.14599609375
  0
VERTEX
  8
4
 10
46.04537582397461
 20
-272.14599609375
 42
0.7500000000000001
  0
VERTEX
  8
4
 10
46.04537582397461
 20
-271.14599609375
  0
VERTEX
  8
4
 10
44.85787582397461
 20
-271.14599609375
 42
0.875
  0
VERTEX
  8
4
 10
44.85787582397461
 20
-272.14599609375
  0
SEQEND
  8
4
  0
ENDBLK
  8
4
  0
BLOCK
  8
13
  2
COMP46
 70
    64
 10
0.0
 20
0.0
  0
POLYLINE
  8
13
  6
CONTINUOUS
 66
     1
 70
     0
 40
0.0
 41
0.0
  0
VERTEX
  8
13
 10
39.85147094726563
 20
-274.7764892578125
 42
0.875
  0
VERTEX
  8
13
 10
39.85147094726563
 20
-275.7764892578125
  0
VERTEX
  8
13
 10
41.03897094726563
 20
-275.7764892578125
 42
0.7500000000000001
  0
VERTEX
  8
13
 10
41.03897094726563
 20
-274.7764892578125
  0
SEQEND
  8
13
  0
POLYLINE
  8
13
  6
CONTINUOUS
 66
     1
 70
     0
 40
0.0
 41
0.0
  0
VERTEX
  8
13
 10
39.85147094726563
 20
-274.4014892578125
  0
VERTEX
  8
13
 10
41.03897094726563
 20
-274.4014892578125
 42
0.7500000000000001
  0
VERTEX
  8
13
 10
41.03897094726563
 20
-273.4014892578125
  0
VERTEX
  8
13
 10
39.85147094726563
 20
-273.4014892578125
 42
0.875
  0
VERTEX
  8
13
 10
39.85147094726563
 20
-274.4014892578125
  0
SEQEND
  8
13
  0
POLYLINE
  8
13
  6
CONTINUOUS
 66
     1
 70
     0
 40
0.0
 41
0.0
  0
VERTEX
  8
13
 10
41.41397094726563
 20
-273.0264892578125
  0
VERTEX
  8
13
 10
39.41397094726563
 20
-273.0264892578125
  0
VERTEX
  8
13
 10
40.72647094726563
 20
-272.5264892578125
  0
VERTEX
  8
13
 10
39.41397094726563
 20
-272.0264892578125
  0
VERTEX
  8
13
 10
41.41397094726563
 20
-272.0264892578125
  0
SEQEND
  8
13
  0
POLYLINE
  8
13
  6
CONTINUOUS
 66
     1
 70
     0
 40
0.0
 41
0.0
  0
VERTEX
  8
13
 10
41.35147094726563
 20
-271.2764892578125
  0
VERTEX
  8
13
 10
41.16397094726563
 20
-271.2764892578125
  0
VERTEX
  8
13
 10
41.16397094726563
 20
-271.0577392578125
  0
VERTEX
  8
13
 10
41.35147094726563
 20
-271.0577392578125
  0
VERTEX
  8
13
 10
41.35147094726563
 20
-271.2764892578125
  0
SEQEND
  8
13
  0
ENDBLK
  8
13
  0
BLOCK
  8
13
  2
COMP47
 70
    64
 10
0.0
 20
0.0
  0
POLYLINE
  8
13
  6
CONTINUOUS
 66
     1
 70
     0
 40
0.0
 41
0.0
  0
VERTEX
  8
13
 10
39.78897476196289
 20
-269.2140197753906
  0
VERTEX
  8
13
 10
39.41397476196289
 20
-268.9015197753906
  0
VERTEX
  8
13
 10
39.41397476196289
 20
-268.5265197753906
  0
VERTEX
  8
13
 10
39.78897476196289
 20
-268.2140197753906
  0
VERTEX
  8
13
 10
40.10147476196289
 20
-268.2140197753906
  0
VERTEX
  8
13
 10
40.41397476196289
 20
-268.5890197753906
  0
VERTEX
  8
13
 10
40.41397476196289
 20
-268.9640197753906
  0
SEQEND
  8
13
  0
POLYLINE
  8
13
  6
CONTINUOUS
 66
     1
 70
     0
 40
0.0
 41
0.0
  0
VERTEX
  8
13
 10
40.41397476196289
 20
-268.5890197753906
  0
VERTEX
  8
13
 10
40.78897476196289
 20
-268.2140197753906
  0
VERTEX
  8
13
 10
41.10147476196289
 20
-268.2140197753906
  0
VERTEX
  8
13
 10
41.41397476196289
 20
-268.5265197753906
  0
VERTEX
  8
13
 10
41.41397476196289
 20
-268.9015197753906
  0
VERTEX
  8
13
 10
41.10147476196289
 20
-269.2140197753906
  0
SEQEND
  8
13
  0
ENDBLK
  8
13
  0
BLOCK
  8
13
  2
COMP48
 70
    64
 10
0.0
 20
0.0
  0
POLYLINE
  8
13
  6
CONTINUOUS
 66
     1
 70
     0
 40
0.0
 41
0.0
  0
VERTEX
  8
13
 10
34.78897094726563
 20
-269.2140197753906
  0
VERTEX
  8
13
 10
34.41397094726563
 20
-268.9015197753906
  0
VERTEX
  8
13
 10
34.41397094726563
 20
-268.5265197753906
  0
VERTEX
  8
13
 10
34.78897094726563
 20
-268.2140197753906
  0
VERTEX
  8
13
 10
35.28897094726563
 20
-268.2140197753906
  0
VERTEX
  8
13
 10
36.16397094726563
 20
-269.2140197753906
  0
VERTEX
  8
13
 10
36.41397094726563
 20
-269.2140197753906
  0
VERTEX
  8
13
 10
36.41397094726563
 20
-268.2140197753906
  0
SEQEND
  8
13
  0
ENDBLK
  8
13
  0
BLOCK
  8
13
  2
COMP49
 70
    64
 10
0.0
 20
0.0
  0
POLYLINE
  8
13
  6
CONTINUOUS
 66
     1
 70
     0
 40
0.0
 41
0.0
  0
VERTEX
  8
13
 10
34.41397476196289
 20
-275.4639892578125
  0
VERTEX
  8
13
 10
34.41397476196289
 20
-276.4639892578125
  0
VERTEX
  8
13
 10
36.41397476196289
 20
-276.4639892578125
  0
VERTEX
  8
13
 10
36.41397476196289
 20
-275.4639892578125
  0
SEQEND
  8
13
  0
POLYLINE
  8
13
  6
CONTINUOUS
 66
     1
 70
     0
 40
0.0
 41
0.0
  0
VERTEX
  8
13
 10
35.41397476196289
 20
-276.4639892578125
  0
VERTEX
  8
13
 10
35.41397476196289
 20
-275.4639892578125
  0
SEQEND
  8
13
  0
POLYLINE
  8
13
  6
CONTINUOUS
 66
     1
 70
     0
 40
0.0
 41
0.0
  0
VERTEX
  8
13
 10
35.41397476196289
 20
-275.0889892578125
  0
VERTEX
  8
13
 10
35.41397476196289
 20
-274.5889892578125
 42
0.4142135623731064
  0
VERTEX
  8
13
 10
34.91397476196289
 20
-274.0889892578125
 42
0.4142135623731064
  0
VERTEX
  8
13
 10
34.41397476196289
 20
-274.5889892578125
  0
VERTEX
  8
13
 10
34.41397476196289
 20
-275.0889892578125
  0
VERTEX
  8
13
 10
36.41397476196289
 20
-275.0889892578125
  0
SEQEND
  8
13
  0
POLYLINE
  8
13
  6
CONTINUOUS
 66
     1
 70
     0
 40
0.0
 41
0.0
  0
VERTEX
  8
13
 10
36.41397476196289
 20
-274.0889892578125
  0
VERTEX
  8
13
 10
35.41397476196289
 20
-274.5889892578125
  0
SEQEND
  8
13
  0
POLYLINE
  8
13
  6
CONTINUOUS
 66
     1
 70
     0
 40
0.0
 41
0.0
  0
VERTEX
  8
13
 10
35.41397476196289
 20
-273.7139892578125
  0
VERTEX
  8
13
 10
35.41397476196289
 20
-273.2139892578125
 42
0.4142135623731064
  0
VERTEX
  8
13
 10
34.91397476196289
 20
-272.7139892578125
 42
0.4142135623731064
  0
VERTEX
  8
13
 10
34.41397476196289
 20
-273.2139892578125
  0
VERTEX
  8
13
 10
34.41397476196289
 20
-273.7139892578125
  0
VERTEX
  8
13
 10
36.41397476196289
 20
-273.7139892578125
  0
SEQEND
  8
13
  0
POLYLINE
  8
13
  6
CONTINUOUS
 66
     1
 70
     0
 40
0.0
 41
0.0
  0
VERTEX
  8
13
 10
36.41397476196289
 20
-272.7139892578125
  0
VERTEX
  8
13
 10
35.41397476196289
 20
-273.2139892578125
  0
SEQEND
  8
13
  0
POLYLINE
  8
13
  6
CONTINUOUS
 66
     1
 70
     0
 40
0.0
 41
0.0
  0
VERTEX
  8
13
 10
34.85147476196289
 20
-272.3389892578125
  0
VERTEX
  8
13
 10
36.03897476196289
 20
-272.3389892578125
 42
0.7500000000000001
  0
VERTEX
  8
13
 10
36.03897476196289
 20
-271.3389892578125
  0
VERTEX
  8
13
 10
34.85147476196289
 20
-271.3389892578125
 42
0.875
  0
VERTEX
  8
13
 10
34.85147476196289
 20
-272.3389892578125
  0
SEQEND
  8
13
  0
POLYLINE
  8
13
  6
CONTINUOUS
 66
     1
 70
     0
 40
0.0
 41
0.0
  0
VERTEX
  8
13
 10
35.41397476196289
 20
-270.9639892578125
  0
VERTEX
  8
13
 10
35.41397476196289
 20
-270.4639892578125
 42
0.4142135623731064
  0
VERTEX
  8
13
 10
34.91397476196289
 20
-269.9639892578125
 42
0.4142135623731064
  0
VERTEX
  8
13
 10
34.41397476196289
 20
-270.4639892578125
  0
VERTEX
  8
13
 10
34.41397476196289
 20
-270.9639892578125
  0
VERTEX
  8
13
 10
36.41397476196289
 20
-270.9639892578125
  0
SEQEND
  8
13
  0
POLYLINE
  8
13
  6
CONTINUOUS
 66
     1
 70
     0
 40
0.0
 41
0.0
  0
VERTEX
  8
13
 10
36.41397476196289
 20
-269.9639892578125
  0
VERTEX
  8
13
 10
35.41397476196289
 20
-270.4639892578125
  0
SEQEND
  8
13
  0
ENDBLK
  8
13
  0
BLOCK
  8
13
  2
COMP50
 70
    64
 10
0.0
 20
0.0
  0
POLYLINE
  8
13
  6
CONTINUOUS
 66
     1
 70
     0
 40
0.0
 41
0.0
  0
VERTEX
  8
13
 10
31.41397094726563
 20
-275.0889587402344
  0
VERTEX
  8
13
 10
31.41397094726563
 20
-274.5889587402344
 42
0.4142135623731023
  0
VERTEX
  8
13
 10
30.91397094726563
 20
-274.0889587402344
 42
0.4142135623730965
  0
VERTEX
  8
13
 10
30.41397094726563
 20
-274.5889587402344
  0
VERTEX
  8
13
 10
30.41397094726563
 20
-275.0889587402344
  0
VERTEX
  8
13
 10
32.41397094726563
 20
-275.0889587402344
  0
SEQEND
  8
13
  0
POLYLINE
  8
13
  6
CONTINUOUS
 66
     1
 70
     0
 40
0.0
 41
0.0
  0
VERTEX
  8
13
 10
32.41397094726563
 20
-274.0889587402344
  0
VERTEX
  8
13
 10
31.41397094726563
 20
-274.5889587402344
  0
SEQEND
  8
13
  0
POLYLINE
  8
13
  6
CONTINUOUS
 66
     1
 70
     0
 40
0.0
 41
0.0
  0
VERTEX
  8
13
 10
30.41397094726563
 20
-273.7139587402344
  0
VERTEX
  8
13
 10
32.03897094726563
 20
-273.7139587402344
 42
0.7500000000000001
  0
VERTEX
  8
13
 10
32.03897094726563
 20
-272.7139587402344
  0
VERTEX
  8
13
 10
30.41397094726563
 20
-272.7139587402344
  0
SEQEND
  8
13
  0
POLYLINE
  8
13
  6
CONTINUOUS
 66
     1
 70
     0
 40
0.0
 41
0.0
  0
VERTEX
  8
13
 10
32.41397094726563
 20
-272.3389587402344
  0
VERTEX
  8
13
 10
30.41397094726563
 20
-272.3389587402344
  0
VERTEX
  8
13
 10
32.41397094726563
 20
-271.3389587402344
  0
VERTEX
  8
13
 10
30.41397094726563
 20
-271.3389587402344
  0
SEQEND
  8
13
  0
ENDBLK
  8
13
  0
BLOCK
  8
13
  2
COMP51
 70
    64
 10
0.0
 20
0.0
  0
POLYLINE
  8
13
  6
CONTINUOUS
 66
     1
 70
     0
 40
0.0
 41
0.0
  0
VERTEX
  8
13
 10
31.41397285461426
 20
-268.7140197753906
  0
VERTEX
  8
13
 10
29.41397285461426
 20
-268.7140197753906
  0
VERTEX
  8
13
 10
30.00772285461426
 20
-269.0577697753906
  0
SEQEND
  8
13
  0
ENDBLK
  8
13
  0
BLOCK
  8
12
  2
COMP52
 70
    64
 10
0.0
 20
0.0
  0
POLYLINE
  8
12
  6
CONTINUOUS
 66
     1
 70
     0
 40
0.0
 41
0.0
  0
VERTEX
  8
12
 10
19.48648071289063
 20
-273.2139892578125
  0
VERTEX
  8
12
 10
19.48648071289063
 20
-271.2139892578125
  0
VERTEX
  8
12
 10
19.14273071289063
 20
-271.8077392578125
  0
SEQEND
  8
12
  0
POLYLINE
  8
12
  6
CONTINUOUS
 66
     1
 70
     0
 40
0.0
 41
0.0
  0
VERTEX
  8
12
 10
20.86148071289063
 20
-273.2139892578125
  0
VERTEX
  8
12
 10
20.86148071289063
 20
-271.2139892578125
  0
VERTEX
  8
12
 10
20.51773071289063
 20
-271.8077392578125
  0
SEQEND
  8
12
  0
ENDBLK
  8
12
  0
BLOCK
  8
12
  2
COMP53
 70
    64
 10
0.0
 20
0.0
  0
POLYLINE
  8
12
  6
CONTINUOUS
 66
     1
 70
     0
 40
0.0
 41
0.0
  0
VERTEX
  8
12
 10
16.97085571289063
 20
-276.9639892578125
  0
VERTEX
  8
12
 10
17.59585571289063
 20
-274.4639892578125
  0
VERTEX
  8
12
 10
18.22085571289063
 20
-276.9639892578125
  0
SEQEND
  8
12
  0
POLYLINE
  8
12
  6
CONTINUOUS
 66
     1
 70
     0
 40
0.0
 41
0.0
  0
VERTEX
  8
12
 10
18.02554321289063
 20
-276.1827392578125
  0
VERTEX
  8
12
 10
17.16616821289063
 20
-276.1827392578125
  0
SEQEND
  8
12
  0
POLYLINE
  8
12
  6
CONTINUOUS
 66
     1
 70
     0
 40
0.0
 41
0.0
  0
VERTEX
  8
12
 10
19.15835571289063
 20
-276.8858642578125
  0
VERTEX
  8
12
 10
19.15835571289063
 20
-276.6514892578125
  0
VERTEX
  8
12
 10
19.43179321289063
 20
-276.6514892578125
  0
VERTEX
  8
12
 10
19.43179321289063
 20
-276.8858642578125
  0
VERTEX
  8
12
 10
19.15835571289063
 20
-276.8858642578125
  0
SEQEND
  8
12
  0
POLYLINE
  8
12
  6
CONTINUOUS
 66
     1
 70
     0
 40
0.0
 41
0.0
  0
VERTEX
  8
12
 10
21.65835571289063
 20
-275.0108642578125
 42
0.875
  0
VERTEX
  8
12
 10
20.40835571289063
 20
-275.0108642578125
  0
VERTEX
  8
12
 10
20.40835571289063
 20
-276.4952392578125
 42
0.75
  0
VERTEX
  8
12
 10
21.65835571289063
 20
-276.4952392578125
  0
SEQEND
  8
12
  0
POLYLINE
  8
12
  6
CONTINUOUS
 66
     1
 70
     0
 40
0.0
 41
0.0
  0
VERTEX
  8
12
 10
21.65835571289063
 20
-276.9639892578125
  0
VERTEX
  8
12
 10
21.65835571289063
 20
-275.7530517578125
  0
VERTEX
  8
12
 10
21.03335571289063
 20
-275.7530517578125
  0
SEQEND
  8
12
  0
POLYLINE
  8
12
  6
CONTINUOUS
 66
     1
 70
     0
 40
0.0
 41
0.0
  0
VERTEX
  8
12
 10
22.59585571289063
 20
-276.8858642578125
  0
VERTEX
  8
12
 10
22.59585571289063
 20
-276.6514892578125
  0
VERTEX
  8
12
 10
22.86929321289063
 20
-276.6514892578125
  0
VERTEX
  8
12
 10
22.86929321289063
 20
-276.8858642578125
  0
VERTEX
  8
12
 10
22.59585571289063
 20
-276.8858642578125
  0
SEQEND
  8
12
  0
ENDBLK
  8
12
  0
BLOCK
  8
12
  2
COMP54
 70
    64
 10
0.0
 20
0.0
  0
POLYLINE
  8
12
  6
CONTINUOUS
 66
     1
 70
     0
 40
0.0
 41
0.0
  0
VERTEX
  8
12
 10
13.17897129058838
 20
-274.4639892578125
  0
VERTEX
  8
12
 10
11.92897129058838
 20
-274.4639892578125
  0
VERTEX
  8
12
 10
11.92897129058838
 20
-276.9639892578125
  0
VERTEX
  8
12
 10
13.17897129058838
 20
-276.9639892578125
  0
SEQEND
  8
12
  0
POLYLINE
  8
12
  6
CONTINUOUS
 66
     1
 70
     0
 40
0.0
 41
0.0
  0
VERTEX
  8
12
 10
11.92897129058838
 20
-275.7139892578125
  0
VERTEX
  8
12
 10
13.17897129058838
 20
-275.7139892578125
  0
SEQEND
  8
12
  0
ENDBLK
  8
12
  0
BLOCK
  8
12
  2
COMP55
 70
    64
 10
0.0
 20
0.0
  0
POLYLINE
  8
12
  6
CONTINUOUS
 66
     1
 70
     0
 40
0.0
 41
0.0
  0
VERTEX
  8
12
 10
11.86647129058838
 20
-273.2139892578125
  0
VERTEX
  8
12
 10
11.86647129058838
 20
-271.2139892578125
  0
VERTEX
  8
12
 10
11.52272129058838
 20
-271.8077392578125
  0
SEQEND
  8
12
  0
POLYLINE
  8
12
  6
CONTINUOUS
 66
     1
 70
     0
 40
0.0
 41
0.0
  0
VERTEX
  8
12
 10
12.80397129058838
 20
-271.5889892578125
  0
VERTEX
  8
12
 10
12.80397129058838
 20
-272.8389892578125
 42
0.9230769230769231
  0
VERTEX
  8
12
 10
13.61647129058838
 20
-272.8389892578125
  0
VERTEX
  8
12
 10
13.61647129058838
 20
-271.5889892578125
 42
0.9230769230769231
  0
VERTEX
  8
12
 10
12.80397129058838
 20
-271.5889892578125
  0
SEQEND
  8
12
  0
ENDBLK
  8
12
  0
BLOCK
  8
12
  2
COMP56
 70
    64
 10
0.0
 20
0.0
  0
POLYLINE
  8
12
  6
CONTINUOUS
 66
     1
 70
     0
 40
0.0
 41
0.0
  0
VERTEX
  8
12
 10
5.121476173400879
 20
-271.2139892578125
  0
VERTEX
  8
12
 10
4.746476173400879
 20
-271.2139892578125
  0
VERTEX
  8
12
 10
4.433976173400879
 20
-271.5264892578125
  0
VERTEX
  8
12
 10
4.433976173400879
 20
-272.0889892578125
  0
VERTEX
  8
12
 10
4.746476173400879
 20
-272.4014892578125
  0
VERTEX
  8
12
 10
5.121476173400879
 20
-272.4014892578125
  0
VERTEX
  8
12
 10
5.308976173400879
 20
-272.3389892578125
  0
VERTEX
  8
12
 10
5.433976173400879
 20
-272.0889892578125
  0
VERTEX
  8
12
 10
5.433976173400879
 20
-271.5264892578125
  0
VERTEX
  8
12
 10
5.121476173400879
 20
-271.2139892578125
  0
SEQEND
  8
12
  0
POLYLINE
  8
12
  6
CONTINUOUS
 66
     1
 70
     0
 40
0.0
 41
0.0
  0
VERTEX
  8
12
 10
5.308976173400879
 20
-272.3389892578125
  0
VERTEX
  8
12
 10
5.058976173400879
 20
-272.9014892578125
  0
VERTEX
  8
12
 10
4.683976173400879
 20
-273.2139892578125
  0
SEQEND
  8
12
  0
ENDBLK
  8
12
  0
BLOCK
  8
12
  2
COMP57
 70
    64
 10
0.0
 20
0.0
  0
POLYLINE
  8
12
  6
CONTINUOUS
 66
     1
 70
     0
 40
0.0
 41
0.0
  0
VERTEX
  8
12
 10
4.308976173400879
 20
-276.9639892578125
  0
VERTEX
  8
12
 10
5.012101173400879
 20
-276.9639892578125
 42
0.875
  0
VERTEX
  8
12
 10
5.012101173400879
 20
-275.7139892578125
 42
0.875
  0
VERTEX
  8
12
 10
5.012101173400879
 20
-274.4639892578125
  0
VERTEX
  8
12
 10
4.308976173400879
 20
-274.4639892578125
  0
VERTEX
  8
12
 10
4.308976173400879
 20
-276.9639892578125
  0
SEQEND
  8
12
  0
POLYLINE
  8
12
  6
CONTINUOUS
 66
     1
 70
     0
 40
0.0
 41
0.0
  0
VERTEX
  8
12
 10
4.308976173400879
 20
-275.7139892578125
  0
VERTEX
  8
12
 10
5.012101173400879
 20
-275.7139892578125
  0
SEQEND
  8
12
  0
ENDBLK
  8
12
  0
BLOCK
  8
12
  2
COMP58
 70
    64
 10
0.0
 20
0.0
  0
POLYLINE
  8
12
  6
CONTINUOUS
 66
     1
 70
     0
 40
0.0
 41
0.0
  0
VERTEX
  8
12
 10
-3.3110191822052
 20
-276.9639892578125
  0
VERTEX
  8
12
 10
-2.6469566822052
 20
-276.9639892578125
 42
0.4666666666666667
  0
VERTEX
  8
12
 10
-2.0610191822052
 20
-276.3780517578125
  0
VERTEX
  8
12
 10
-2.0610191822052
 20
-275.0499267578125
 42
0.4666666666666667
  0
VERTEX
  8
12
 10
-2.6469566822052
 20
-274.4639892578125
  0
VERTEX
  8
12
 10
-3.3110191822052
 20
-274.4639892578125
  0
VERTEX
  8
12
 10
-3.3110191822052
 20
-276.9639892578125
  0
SEQEND
  8
12
  0
ENDBLK
  8
12
  0
BLOCK
  8
12
  2
COMP59
 70
    64
 10
0.0
 20
0.0
  0
POLYLINE
  8
12
  6
CONTINUOUS
 66
     1
 70
     0
 40
0.0
 41
0.0
  0
VERTEX
  8
12
 10
-2.4985191822052
 20
-271.2139892578125
  0
VERTEX
  8
12
 10
-2.2485191822052
 20
-271.4639892578125
  0
VERTEX
  8
12
 10
-2.2485191822052
 20
-271.9639892578125
  0
VERTEX
  8
12
 10
-2.4985191822052
 20
-272.1514892578125
  0
VERTEX
  8
12
 10
-2.8735191822052
 20
-272.1514892578125
  0
VERTEX
  8
12
 10
-3.1235191822052
 20
-271.9639892578125
  0
VERTEX
  8
12
 10
-3.1235191822052
 20
-271.4639892578125
  0
VERTEX
  8
12
 10
-2.8735191822052
 20
-271.2139892578125
  0
VERTEX
  8
12
 10
-2.4985191822052
 20
-271.2139892578125
  0
SEQEND
  8
12
  0
POLYLINE
  8
12
  6
CONTINUOUS
 66
     1
 70
     0
 40
0.0
 41
0.0
  0
VERTEX
  8
12
 10
-2.8735191822052
 20
-272.1514892578125
  0
VERTEX
  8
12
 10
-3.1860191822052
 20
-272.4014892578125
  0
VERTEX
  8
12
 10
-3.1860191822052
 20
-272.9014892578125
  0
VERTEX
  8
12
 10
-2.8735191822052
 20
-273.2139892578125
  0
VERTEX
  8
12
 10
-2.4985191822052
 20
-273.2139892578125
  0
VERTEX
  8
12
 10
-2.1860191822052
 20
-272.9014892578125
  0
VERTEX
  8
12
 10
-2.1860191822052
 20
-272.4014892578125
  0
VERTEX
  8
12
 10
-2.4985191822052
 20
-272.1514892578125
  0
SEQEND
  8
12
  0
ENDBLK
  8
12
  0
BLOCK
  8
12
  2
COMP60
 70
    64
 10
0.0
 20
0.0
  0
POLYLINE
  8
12
  6
CONTINUOUS
 66
     1
 70
     0
 40
0.0
 41
0.0
  0
VERTEX
  8
12
 10
-10.80602550506592
 20
-271.7764892578125
  0
VERTEX
  8
12
 10
-10.80602550506592
 20
-271.2764892578125
  0
VERTEX
  8
12
 10
-9.806025505065918
 20
-271.2764892578125
  0
VERTEX
  8
12
 10
-10.43102550506592
 20
-273.2139892578125
  0
SEQEND
  8
12
  0
ENDBLK
  8
12
  0
BLOCK
  8
12
  2
COMP61
 70
    64
 10
0.0
 20
0.0
  0
POLYLINE
  8
12
  6
CONTINUOUS
 66
     1
 70
     0
 40
0.0
 41
0.0
  0
VERTEX
  8
12
 10
-9.681025505065918
 20
-275.0108642578125
 42
0.875
  0
VERTEX
  8
12
 10
-10.93102550506592
 20
-275.0108642578125
  0
VERTEX
  8
12
 10
-10.93102550506592
 20
-276.4952392578125
 42
0.75
  0
VERTEX
  8
12
 10
-9.681025505065918
 20
-276.4952392578125
  0
SEQEND
  8
12
  0
ENDBLK
  8
12
  0
BLOCK
  8
12
  2
COMP62
 70
    64
 10
0.0
 20
0.0
  0
POLYLINE
  8
12
  6
CONTINUOUS
 66
     1
 70
     0
 40
0.0
 41
0.0
  0
VERTEX
  8
12
 10
-17.301025390625
 20
-275.0108642578125
 42
0.875
  0
VERTEX
  8
12
 10
-18.551025390625
 20
-275.0108642578125
  0
VERTEX
  8
12
 10
-18.551025390625
 20
-276.4952392578125
 42
0.75
  0
VERTEX
  8
12
 10
-17.301025390625
 20
-276.4952392578125
  0
SEQEND
  8
12
  0
POLYLINE
  8
12
  6
CONTINUOUS
 66
     1
 70
     0
 40
0.0
 41
0.0
  0
VERTEX
  8
12
 10
-17.301025390625
 20
-276.9639892578125
  0
VERTEX
  8
12
 10
-17.301025390625
 20
-275.7530517578125
  0
VERTEX
  8
12
 10
-17.926025390625
 20
-275.7530517578125
  0
SEQEND
  8
12
  0
ENDBLK
  8
12
  0
BLOCK
  8
12
  2
COMP63
 70
    64
 10
0.0
 20
0.0
  0
POLYLINE
  8
12
  6
CONTINUOUS
 66
     1
 70
     0
 40
0.0
 41
0.0
  0
VERTEX
  8
12
 10
-18.426025390625
 20
-272.3389892578125
  0
VERTEX
  8
12
 10
-18.113525390625
 20
-272.0264892578125
  0
VERTEX
  8
12
 10
-17.738525390625
 20
-272.0264892578125
  0
VERTEX
  8
12
 10
-17.426025390625
 20
-272.3389892578125
  0
VERTEX
  8
12
 10
-17.426025390625
 20
-272.9014892578125
  0
VERTEX
  8
12
 10
-17.738525390625
 20
-273.2139892578125
  0
VERTEX
  8
12
 10
-18.113525390625
 20
-273.2139892578125
  0
VERTEX
  8
12
 10
-18.426025390625
 20
-272.9014892578125
  0
VERTEX
  8
12
 10
-18.426025390625
 20
-271.5264892578125
  0
VERTEX
  8
12
 10
-18.113525390625
 20
-271.2139892578125
  0
VERTEX
  8
12
 10
-17.738525390625
 20
-271.2139892578125
  0
VERTEX
  8
12
 10
-17.426025390625
 20
-271.5264892578125
  0
SEQEND
  8
12
  0
ENDBLK
  8
12
  0
BLOCK
  8
12
  2
COMP64
 70
    64
 10
0.0
 20
0.0
  0
POLYLINE
  8
12
  6
CONTINUOUS
 66
     1
 70
     0
 40
0.0
 41
0.0
  0
VERTEX
  8
12
 10
-25.10852813720703
 20
-271.2764892578125
  0
VERTEX
  8
12
 10
-25.92102813720703
 20
-271.2764892578125
  0
VERTEX
  8
12
 10
-26.04602813720703
 20
-272.1514892578125
  0
VERTEX
  8
12
 10
-25.73352813720703
 20
-272.0264892578125
  0
VERTEX
  8
12
 10
-25.35852813720703
 20
-272.0264892578125
  0
VERTEX
  8
12
 10
-25.04602813720703
 20
-272.2764892578125
  0
VERTEX
  8
12
 10
-25.04602813720703
 20
-272.9014892578125
  0
VERTEX
  8
12
 10
-25.35852813720703
 20
-273.2139892578125
  0
VERTEX
  8
12
 10
-25.73352813720703
 20
-273.2139892578125
  0
VERTEX
  8
12
 10
-26.04602813720703
 20
-272.9014892578125
  0
SEQEND
  8
12
  0
ENDBLK
  8
12
  0
BLOCK
  8
12
  2
COMP65
 70
    64
 10
0.0
 20
0.0
  0
POLYLINE
  8
12
  6
CONTINUOUS
 66
     1
 70
     0
 40
0.0
 41
0.0
  0
VERTEX
  8
12
 10
-24.92102813720703
 20
-274.4639892578125
  0
VERTEX
  8
12
 10
-26.17102813720703
 20
-274.4639892578125
  0
VERTEX
  8
12
 10
-26.17102813720703
 20
-276.9639892578125
  0
SEQEND
  8
12
  0
POLYLINE
  8
12
  6
CONTINUOUS
 66
     1
 70
     0
 40
0.0
 41
0.0
  0
VERTEX
  8
12
 10
-26.17102813720703
 20
-275.7139892578125
  0
VERTEX
  8
12
 10
-25.07727813720703
 20
-275.7139892578125
  0
SEQEND
  8
12
  0
ENDBLK
  8
12
  0
BLOCK
  8
12
  2
COMP66
 70
    64
 10
0.0
 20
0.0
  0
POLYLINE
  8
12
  6
CONTINUOUS
 66
     1
 70
     0
 40
0.0
 41
0.0
  0
VERTEX
  8
12
 10
-33.79103469848633
 20
-276.9639892578125
  0
VERTEX
  8
12
 10
-33.16603469848633
 20
-274.4639892578125
  0
VERTEX
  8
12
 10
-32.54103469848633
 20
-276.9639892578125
  0
SEQEND
  8
12
  0
POLYLINE
  8
12
  6
CONTINUOUS
 66
     1
 70
     0
 40
0.0
 41
0.0
  0
VERTEX
  8
12
 10
-32.73634719848633
 20
-276.1827392578125
  0
VERTEX
  8
12
 10
-33.59572219848633
 20
-276.1827392578125
  0
SEQEND
  8
12
  0
ENDBLK
  8
12
  0
BLOCK
  8
12
  2
COMP67
 70
    64
 10
0.0
 20
0.0
  0
POLYLINE
  8
12
  6
CONTINUOUS
 66
     1
 70
     0
 40
0.0
 41
0.0
  0
VERTEX
  8
12
 10
-33.16603469848633
 20
-271.2139892578125
  0
VERTEX
  8
12
 10
-33.66603469848633
 20
-272.5889892578125
  0
VERTEX
  8
12
 10
-32.66603469848633
 20
-272.5889892578125
  0
SEQEND
  8
12
  0
POLYLINE
  8
12
  6
CONTINUOUS
 66
     1
 70
     0
 40
0.0
 41
0.0
  0
VERTEX
  8
12
 10
-32.97853469848633
 20
-273.2139892578125
  0
VERTEX
  8
12
 10
-32.97853469848633
 20
-271.9014892578125
  0
SEQEND
  8
12
  0
ENDBLK
  8
12
  0
BLOCK
  8
12
  2
COMP68
 70
    64
 10
0.0
 20
0.0
  0
POLYLINE
  8
12
  6
CONTINUOUS
 66
     1
 70
     0
 40
0.0
 41
0.0
  0
VERTEX
  8
12
 10
-41.28602600097656
 20
-271.5889892578125
  0
VERTEX
  8
12
 10
-40.97352600097656
 20
-271.2139892578125
  0
VERTEX
  8
12
 10
-40.59852600097656
 20
-271.2139892578125
  0
VERTEX
  8
12
 10
-40.28602600097656
 20
-271.5889892578125
  0
VERTEX
  8
12
 10
-40.28602600097656
 20
-271.9014892578125
  0
VERTEX
  8
12
 10
-40.66102600097656
 20
-272.2139892578125
  0
VERTEX
  8
12
 10
-41.03602600097656
 20
-272.2139892578125
  0
SEQEND
  8
12
  0
POLYLINE
  8
12
  6
CONTINUOUS
 66
     1
 70
     0
 40
0.0
 41
0.0
  0
VERTEX
  8
12
 10
-40.66102600097656
 20
-272.2139892578125
  0
VERTEX
  8
12
 10
-40.28602600097656
 20
-272.5889892578125
  0
VERTEX
  8
12
 10
-40.28602600097656
 20
-272.9014892578125
  0
VERTEX
  8
12
 10
-40.59852600097656
 20
-273.2139892578125
  0
VERTEX
  8
12
 10
-40.97352600097656
 20
-273.2139892578125
  0
VERTEX
  8
12
 10
-41.28602600097656
 20
-272.9014892578125
  0
SEQEND
  8
12
  0
ENDBLK
  8
12
  0
BLOCK
  8
12
  2
COMP69
 70
    64
 10
0.0
 20
0.0
  0
POLYLINE
  8
12
  6
CONTINUOUS
 66
     1
 70
     0
 40
0.0
 41
0.0
  0
VERTEX
  8
12
 10
-41.96063613891602
 20
-275.0707702636719
 42
0.875
  0
VERTEX
  8
12
 10
-43.21063613891602
 20
-275.0707702636719
  0
VERTEX
  8
12
 10
-43.21063613891602
 20
-276.5551452636719
 42
0.75
  0
VERTEX
  8
12
 10
-41.96063613891602
 20
-276.5551452636719
  0
SEQEND
  8
12
  0
POLYLINE
  8
12
  6
CONTINUOUS
 66
     1
 70
     0
 40
0.0
 41
0.0
  0
VERTEX
  8
12
 10
-41.96063613891602
 20
-277.0238952636719
  0
VERTEX
  8
12
 10
-41.96063613891602
 20
-275.8129577636719
  0
VERTEX
  8
12
 10
-42.58563613891602
 20
-275.8129577636719
  0
SEQEND
  8
12
  0
POLYLINE
  8
12
  6
CONTINUOUS
 66
     1
 70
     0
 40
0.0
 41
0.0
  0
VERTEX
  8
12
 10
-41.49188613891602
 20
-277.0238952636719
  0
VERTEX
  8
12
 10
-41.49188613891602
 20
-274.5238952636719
  0
VERTEX
  8
12
 10
-40.24188613891602
 20
-277.0238952636719
  0
VERTEX
  8
12
 10
-40.24188613891602
 20
-274.5238952636719
  0
SEQEND
  8
12
  0
POLYLINE
  8
12
  6
CONTINUOUS
 66
     1
 70
     0
 40
0.0
 41
0.0
  0
VERTEX
  8
12
 10
-39.77313613891602
 20
-277.0238952636719
  0
VERTEX
  8
12
 10
-39.10907363891602
 20
-277.0238952636719
 42
0.4666666666666667
  0
VERTEX
  8
12
 10
-38.52313613891602
 20
-276.4379577636719
  0
VERTEX
  8
12
 10
-38.52313613891602
 20
-275.1098327636719
 42
0.4666666666666667
  0
VERTEX
  8
12
 10
-39.10907363891602
 20
-274.5238952636719
  0
VERTEX
  8
12
 10
-39.77313613891602
 20
-274.5238952636719
  0
VERTEX
  8
12
 10
-39.77313613891602
 20
-277.0238952636719
  0
SEQEND
  8
12
  0
ENDBLK
  8
12
  0
BLOCK
  8
12
  2
COMP70
 70
    64
 10
0.0
 20
0.0
  0
POLYLINE
  8
12
  6
CONTINUOUS
 66
     1
 70
     0
 40
0.0
 41
0.0
  0
VERTEX
  8
12
 10
-48.90602493286133
 20
-271.5889892578125
  0
VERTEX
  8
12
 10
-48.59352493286133
 20
-271.2139892578125
  0
VERTEX
  8
12
 10
-48.21852493286133
 20
-271.2139892578125
  0
VERTEX
  8
12
 10
-47.90602493286133
 20
-271.5889892578125
  0
VERTEX
  8
12
 10
-47.90602493286133
 20
-272.0889892578125
  0
VERTEX
  8
12
 10
-48.90602493286133
 20
-272.9639892578125
  0
VERTEX
  8
12
 10
-48.90602493286133
 20
-273.2139892578125
  0
VERTEX
  8
12
 10
-47.90602493286133
 20
-273.2139892578125
  0
SEQEND
  8
12
  0
ENDBLK
  8
12
  0
BLOCK
  8
12
  2
COMP71
 70
    64
 10
0.0
 20
0.0
  0
POLYLINE
  8
12
  6
CONTINUOUS
 66
     1
 70
     0
 40
0.0
 41
0.0
  0
VERTEX
  8
12
 10
-54.66525650024414
 20
-274.9639892578125
  0
VERTEX
  8
12
 10
-54.26681900024414
 20
-274.9639892578125
 42
0.4666666666666667
  0
VERTEX
  8
12
 10
-53.91525650024414
 20
-274.6124267578125
  0
VERTEX
  8
12
 10
-53.91525650024414
 20
-273.8155517578125
 42
0.4666666666666667
  0
VERTEX
  8
12
 10
-54.26681900024414
 20
-273.4639892578125
  0
VERTEX
  8
12
 10
-54.66525650024414
 20
-273.4639892578125
  0
VERTEX
  8
12
 10
-54.66525650024414
 20
-274.9639892578125
  0
SEQEND
  8
12
  0
POLYLINE
  8
12
  6
CONTINUOUS
 66
     1
 70
     0
 40
0.0
 41
0.0
  0
VERTEX
  8
12
 10
-52.88400650024414
 20
-273.7921142578125
 42
0.8749999999999999
  0
VERTEX
  8
12
 10
-53.63400650024414
 20
-273.7921142578125
  0
VERTEX
  8
12
 10
-53.63400650024414
 20
-274.6827392578125
 42
0.75
  0
VERTEX
  8
12
 10
-52.88400650024414
 20
-274.6827392578125
  0
SEQEND
  8
12
  0
POLYLINE
  8
12
  6
CONTINUOUS
 66
     1
 70
     0
 40
0.0
 41
0.0
  0
VERTEX
  8
12
 10
-52.60275650024414
 20
-273.7452392578125
  0
VERTEX
  8
12
 10
-52.36838150024414
 20
-273.4639892578125
  0
VERTEX
  8
12
 10
-52.08713150024414
 20
-273.4639892578125
  0
VERTEX
  8
12
 10
-51.85275650024414
 20
-273.7452392578125
  0
VERTEX
  8
12
 10
-51.85275650024414
 20
-274.1202392578125
  0
VERTEX
  8
12
 10
-52.60275650024414
 20
-274.7764892578125
  0
VERTEX
  8
12
 10
-52.60275650024414
 20
-274.9639892578125
  0
VERTEX
  8
12
 10
-51.85275650024414
 20
-274.9639892578125
  0
SEQEND
  8
12
  0
POLYLINE
  8
12
  6
CONTINUOUS
 66
     1
 70
     0
 40
0.0
 41
0.0
  0
VERTEX
  8
12
 10
-51.19650650024414
 20
-273.4639892578125
  0
VERTEX
  8
12
 10
-51.57150650024414
 20
-274.4952392578125
  0
VERTEX
  8
12
 10
-50.82150650024414
 20
-274.4952392578125
  0
SEQEND
  8
12
  0
POLYLINE
  8
12
  6
CONTINUOUS
 66
     1
 70
     0
 40
0.0
 41
0.0
  0
VERTEX
  8
12
 10
-51.05588150024414
 20
-274.9639892578125
  0
VERTEX
  8
12
 10
-51.05588150024414
 20
-273.9796142578125
  0
SEQEND
  8
12
  0
POLYLINE
  8
12
  6
CONTINUOUS
 66
     1
 70
     0
 40
0.0
 41
0.0
  0
VERTEX
  8
12
 10
-49.79025650024414
 20
-273.4639892578125
  0
VERTEX
  8
12
 10
-50.16525650024414
 20
-274.9639892578125
  0
VERTEX
  8
12
 10
-50.54025650024414
 20
-273.4639892578125
  0
SEQEND
  8
12
  0
ENDBLK
  8
12
  0
BLOCK
  8
12
  2
COMP72
 70
    64
 10
0.0
 20
0.0
  0
POLYLINE
  8
12
  6
CONTINUOUS
 66
     1
 70
     0
 40
0.0
 41
0.0
  0
VERTEX
  8
12
 10
-47.7718620300293
 20
-275.7225036621094
  0
VERTEX
  8
12
 10
-48.8656120300293
 20
-275.7225036621094
  0
SEQEND
  8
12
  0
ENDBLK
  8
12
  0
BLOCK
  8
12
  2
COMP73
 70
    64
 10
0.0
 20
0.0
  0
POLYLINE
  8
12
  6
CONTINUOUS
 66
     1
 70
     0
 40
0.0
 41
0.0
  0
VERTEX
  8
12
 10
-55.37685394287109
 20
-275.7225036621094
  0
VERTEX
  8
12
 10
-56.62685394287109
 20
-275.7225036621094
  0
SEQEND
  8
12
  0
POLYLINE
  8
12
  6
CONTINUOUS
 66
     1
 70
     0
 40
0.0
 41
0.0
  0
VERTEX
  8
12
 10
-56.00185394287109
 20
-276.3475036621094
  0
VERTEX
  8
12
 10
-56.00185394287109
 20
-275.0975036621094
  0
SEQEND
  8
12
  0
ENDBLK
  8
12
  0
BLOCK
  8
12
  2
COMP74
 70
    64
 10
0.0
 20
0.0
  0
POLYLINE
  8
12
  6
CONTINUOUS
 66
     1
 70
     0
 40
0.0
 41
0.0
  0
VERTEX
  8
12
 10
-56.02601623535156
 20
-273.2139892578125
  0
VERTEX
  8
12
 10
-56.02601623535156
 20
-271.2139892578125
  0
VERTEX
  8
12
 10
-56.36976623535156
 20
-271.8077392578125
  0
SEQEND
  8
12
  0
ENDBLK
  8
12
  0
ENDSEC
  0
SECTION
  2
ENTITIES
  0
LINE
  8
1
  6
CONTINUOUS
 10
-73.96602553655933
 20
-147.7139988167341
 11
146.0339744634407
 21
-147.7139988167341
  0
LINE
  8
1
  6
CONTINUOUS
 10
-73.96602476696631
 20
-277.7139988167341
 11
-73.96602476696631
 21
-147.7139988167341
  0
LINE
  8
1
  6
CONTINUOUS
 10
-65.96602476696633
 20
-155.7139988167341
 11
-65.96602476696633
 21
-147.7139988167341
  0
LINE
  8
1
  6
CONTINUOUS
 10
-73.96602476696631
 20
-269.7139988167341
 11
-65.96602476696633
 21
-269.7139988167341
  0
LINE
  8
1
  6
CONTINUOUS
 10
138.0339752330407
 20
-155.7139988167341
 11
146.0339752330407
 21
-155.7139988167341
  0
LINE
  8
1
  6
CONTINUOUS
 10
-65.96602476696633
 20
-277.7139988167341
 11
-65.96602476696633
 21
-269.7139988167341
  0
LINE
  8
1
  6
CONTINUOUS
 10
138.0339752330407
 20
-155.7139988167341
 11
138.0339752330407
 21
-147.7139988167341
  0
LINE
  8
1
  6
CONTINUOUS
 10
-73.96602476696631
 20
-155.7139988167341
 11
-65.96602476696633
 21
-155.7139988167341
  0
LINE
  8
1
  6
CONTINUOUS
 10
138.0339752330407
 20
-277.7139988167341
 11
138.0339752330407
 21
-269.7139988167341
  0
LINE
  8
1
  6
CONTINUOUS
 10
138.0339752330407
 20
-269.7139988167341
 11
146.0339752330407
 21
-269.7139988167341
  0
CIRCLE
  8
1
  6
CONTINUOUS
 10
142.0339752330407
 20
-151.7139988167341
 40
2.0
  0
CIRCLE
  8
1
  6
CONTINUOUS
 10
-69.96602476696633
 20
-151.7139988167341
 40
2.0
  0
CIRCLE
  8
1
  6
CONTINUOUS
 10
-69.96602476696633
 20
-273.7139988167341
 40
2.0
  0
CIRCLE
  8
1
  6
CONTINUOUS
 10
142.0339752330407
 20
-273.7139988167341
 40
2.0
  0
LINE
  8
12
  6
CONTINUOUS
 10
-60.63602476696933
 20
-270.7139988167341
 11
-60.63602476696933
 21
-258.7139988167341
  0
LINE
  8
12
  6
CONTINUOUS
 10
24.78397523303067
 20
-270.7139988167341
 11
24.78397523303067
 21
-258.7139988167341
  0
LINE
  8
12
  6
CONTINUOUS
 10
-60.63602476696933
 20
-258.7139988167341
 11
24.78397523303067
 21
-258.7139988167341
  0
LINE
  8
12
  6
CONTINUOUS
 10
-60.63602476696933
 20
-270.7139988167341
 11
24.78397523303067
 21
-270.7139988167341
  0
LINE
  8
13
  6
CONTINUOUS
 10
27.91397523304067
 20
-266.8139988167341
 11
42.91397523304067
 21
-266.8139988167341
  0
LINE
  8
13
  6
CONTINUOUS
 10
27.91397523304067
 20
-266.8139988167341
 11
27.91397523304067
 21
-258.7139988167341
  0
LINE
  8
3
  6
CONTINUOUS
 10
-53.96602476696933
 20
-152.2139988167341
 11
-18.96602476696933
 21
-152.2139988167341
  0
LINE
  8
3
  6
CONTINUOUS
 10
-18.96602476696933
 20
-163.2139988167341
 11
-18.96602476696933
 21
-152.2139988167341
  0
LINE
  8
3
  6
CONTINUOUS
 10
-53.96602476696933
 20
-163.2139988167341
 11
-18.96602476696933
 21
-163.2139988167341
  0
LINE
  8
3
  6
CONTINUOUS
 10
-25.96602476696933
 20
-163.2139988167341
 11
-25.96602476696933
 21
-152.2139988167341
  0
LINE
  8
3
  6
CONTINUOUS
 10
-32.96602476696933
 20
-163.2139988167341
 11
-32.96602476696933
 21
-152.2139988167341
  0
LINE
  8
3
  6
CONTINUOUS
 10
-39.96602476696933
 20
-163.2139988167341
 11
-39.96602476696933
 21
-152.2139988167341
  0
LINE
  8
3
  6
CONTINUOUS
 10
-46.96602476696933
 20
-163.2139988167341
 11
-46.96602476696933
 21
-152.2139988167341
  0
LINE
  8
3
  6
CONTINUOUS
 10
-53.96602476696933
 20
-163.2139988167341
 11
-53.96602476696933
 21
-152.2139988167341
  0
LINE
  8
3
  6
CONTINUOUS
 10
103.0339752330407
 20
-152.7139988167341
 11
109.0339752330407
 21
-152.7139988167341
  0
LINE
  8
3
  6
CONTINUOUS
 10
103.0339752330407
 20
-158.7139988167341
 11
109.0339752330407
 21
-158.7139988167341
  0
LINE
  8
3
  6
CONTINUOUS
 10
109.0339752330407
 20
-158.7139988167341
 11
109.0339752330407
 21
-152.7139988167341
  0
LINE
  8
3
  6
CONTINUOUS
 10
103.0339752330407
 20
-158.7139988167341
 11
103.0339752330407
 21
-152.7139988167341
  0
LINE
  8
3
  6
CONTINUOUS
 10
93.03397523304068
 20
-158.7139988167341
 11
99.03397523304068
 21
-158.7139988167341
  0
LINE
  8
3
  6
CONTINUOUS
 10
99.03397523304068
 20
-158.7139988167341
 11
99.03397523304068
 21
-152.7139988167341
  0
LINE
  8
3
  6
CONTINUOUS
 10
93.03397523304068
 20
-152.7139988167341
 11
99.03397523304068
 21
-152.7139988167341
  0
LINE
  8
3
  6
CONTINUOUS
 10
93.03397523304068
 20
-158.7139988167341
 11
93.03397523304068
 21
-152.7139988167341
  0
LINE
  8
3
  6
CONTINUOUS
 10
83.03397523304068
 20
-158.7139988167341
 11
89.03397523304068
 21
-158.7139988167341
  0
LINE
  8
3
  6
CONTINUOUS
 10
89.03397523304068
 20
-158.7139988167341
 11
89.03397523304068
 21
-152.7139988167341
  0
LINE
  8
3
  6
CONTINUOUS
 10
83.03397523304068
 20
-158.7139988167341
 11
83.03397523304068
 21
-152.7139988167341
  0
LINE
  8
3
  6
CONTINUOUS
 10
73.03397523304068
 20
-158.7139988167341
 11
79.03397523304068
 21
-158.7139988167341
  0
LINE
  8
3
  6
CONTINUOUS
 10
79.03397523304068
 20
-158.7139988167341
 11
79.03397523304068
 21
-152.7139988167341
  0
LINE
  8
3
  6
CONTINUOUS
 10
73.03397523304068
 20
-158.7139988167341
 11
73.03397523304068
 21
-152.7139988167341
  0
LINE
  8
3
  6
CONTINUOUS
 10
73.03397523304068
 20
-152.7139988167341
 11
79.03397523304068
 21
-152.7139988167341
  0
LINE
  8
3
  6
CONTINUOUS
 10
83.03397523304068
 20
-152.7139988167341
 11
89.03397523304068
 21
-152.7139988167341
  0
LINE
  8
3
  6
CONTINUOUS
 10
63.03397523304068
 20
-158.7139988167341
 11
69.03397523304068
 21
-158.7139988167341
  0
LINE
  8
3
  6
CONTINUOUS
 10
69.03397523304068
 20
-158.7139988167341
 11
69.03397523304068
 21
-152.7139988167341
  0
LINE
  8
3
  6
CONTINUOUS
 10
63.03397523304068
 20
-158.7139988167341
 11
63.03397523304068
 21
-152.7139988167341
  0
LINE
  8
3
  6
CONTINUOUS
 10
53.03397523304068
 20
-158.7139988167341
 11
59.03397523304068
 21
-158.7139988167341
  0
LINE
  8
3
  6
CONTINUOUS
 10
59.03397523304068
 20
-158.7139988167341
 11
59.03397523304068
 21
-152.7139988167341
  0
LINE
  8
3
  6
CONTINUOUS
 10
53.03397523304068
 20
-152.7139988167341
 11
59.03397523304068
 21
-152.7139988167341
  0
LINE
  8
3
  6
CONTINUOUS
 10
63.03397523304068
 20
-152.7139988167341
 11
69.03397523304068
 21
-152.7139988167341
  0
LINE
  8
3
  6
CONTINUOUS
 10
53.03397523304068
 20
-158.7139988167341
 11
53.03397523304068
 21
-152.7139988167341
  0
LINE
  8
12
  6
CONTINUOUS
 10
-56.03775352145933
 20
-274.7139988167341
 11
-56.03775352145933
 21
-274.2139988167341
  0
LINE
  8
12
  6
CONTINUOUS
 10
-56.03775352145933
 20
-274.2139988167341
 11
-55.03775352145933
 21
-274.2139988167341
  0
LINE
  8
12
  6
CONTINUOUS
 10
-49.22100907493933
 20
-274.2139988167341
 11
-48.49029421626933
 21
-274.2139988167341
  0
LINE
  8
12
  6
CONTINUOUS
 10
-48.41775352145933
 20
-274.1565023746341
 11
-48.41775352145933
 21
-274.4788765770341
  0
LINE
  8
12
  6
CONTINUOUS
 10
-49.22100907493933
 20
-274.2139988167341
 11
-48.49029421626933
 21
-274.2139988167341
  0
LINE
  8
12
  6
CONTINUOUS
 10
-48.41775352145933
 20
-274.1565023746341
 11
-48.41775352145933
 21
-274.7139988167341
  0
LINE
  8
12
  6
CONTINUOUS
 10
-56.03775352145933
 20
-274.2139988167341
 11
-55.03775352145933
 21
-274.2139988167341
  0
LINE
  8
12
  6
CONTINUOUS
 10
-56.03775352145933
 20
-274.7139988167341
 11
-56.03775352145933
 21
-274.2139988167341
  0
LINE
  8
14
  6
CONTINUOUS
 10
39.03397446344067
 20
-155.7139988167341
 11
47.03397446344067
 21
-155.7139988167341
  0
LINE
  8
14
  6
CONTINUOUS
 10
39.03397446344067
 20
-147.7139988167341
 11
39.03397446344067
 21
-155.7139988167341
  0
LINE
  8
14
  6
CONTINUOUS
 10
47.03397446344067
 20
-147.7139988167341
 11
47.03397446344067
 21
-155.7139988167341
  0
CIRCLE
  8
14
  6
CONTINUOUS
 10
43.03397446344067
 20
-151.7139988167341
 40
2.0
  0
LINE
  8
14
  6
CONTINUOUS
 10
23.03397446344067
 20
-270.7139988167341
 11
23.03397446344067
 21
-277.7139988167341
  0
LINE
  8
14
  6
CONTINUOUS
 10
31.03397446344067
 20
-269.7139988167341
 11
31.03397446344067
 21
-277.7139988167341
  0
CIRCLE
  8
14
  6
CONTINUOUS
 10
27.03397446344067
 20
-273.7139988167341
 40
2.0
  0
LINE
  8
14
  6
CONTINUOUS
 10
24.78397523303067
 20
-269.7139988167341
 11
31.03397446344067
 21
-269.7139988167341
  0
LINE
  8
14
  6
CONTINUOUS
 10
-72.96602476696633
 20
-175.2139988167341
 11
-72.96602476696633
 21
-158.2139988167341
  0
LINE
  8
14
  6
CONTINUOUS
 10
-71.46602476696633
 20
-156.7139988167341
 11
-64.46602476696633
 21
-156.7139988167341
  0
LINE
  8
14
  6
CONTINUOUS
 10
-62.96602476696933
 20
-175.2139988167341
 11
-62.96602476696933
 21
-158.2139988167341
  0
LINE
  8
14
  6
CONTINUOUS
 10
-71.46602476696633
 20
-176.7139988167341
 11
-64.46602476696633
 21
-176.7139988167341
  0
ARC
  8
14
  6
CONTINUOUS
 10
-64.46602476696633
 20
-158.2139988167341
 40
1.5
 50
0.0
 51
90.0
  0
ARC
  8
14
  6
CONTINUOUS
 10
-64.46602476696633
 20
-175.2139988167341
 40
1.5
 50
270.0
 51
0.0
  0
ARC
  8
14
  6
CONTINUOUS
 10
-71.46602476696633
 20
-175.2139988167341
 40
1.5
 50
180.0
 51
270.0
  0
ARC
  8
14
  6
CONTINUOUS
 10
-71.46602476696633
 20
-158.2139988167341
 40
1.5
 50
90.0
 51
180.0
  0
LINE
  8
14
  6
CONTINUOUS
 10
-17.96602476696933
 20
-160.7139988167341
 11
-17.96602476696933
 21
-154.7139988167341
  0
LINE
  8
14
  6
CONTINUOUS
 10
-9.966024766969326
 20
-160.7139988167341
 11
-9.966024766969326
 21
-154.7139988167341
  0
LINE
  8
14
  6
CONTINUOUS
 10
-17.96602476696933
 20
-154.7139988167341
 11
-9.966024766969326
 21
-154.7139988167341
  0
LINE
  8
14
  6
CONTINUOUS
 10
-17.96602476696933
 20
-160.7139988167341
 11
-9.966024766969326
 21
-160.7139988167341
  0
CIRCLE
  8
10
  6
CONTINUOUS
 10
20.17397523303067
 20
-264.7139988167341
 40
3.15
  0
ARC
  8
10
  6
CONTINUOUS
 10
20.17397523303067
 20
-264.7139988167341
 40
1.75
 50
0.0
 51
8.213210701732983
  0
ARC
  8
10
  6
CONTINUOUS
 10
20.17397523303067
 20
-264.7139988167341
 40
1.75
 50
81.78678929840733
 51
98.21321070159267
  0
ARC
  8
10
  6
CONTINUOUS
 10
20.17397523303067
 20
-264.7139988167341
 40
1.75
 50
171.7867892982671
 51
188.2132107017329
  0
ARC
  8
10
  6
CONTINUOUS
 10
20.17397523303067
 20
-264.7139988167341
 40
1.75
 50
261.7867892984073
 51
278.2132107015927
  0
ARC
  8
10
  6
CONTINUOUS
 10
20.17397523303067
 20
-264.7139988167341
 40
1.75
 50
351.786789298267
 51
0.0
  0
LINE
  8
10
  6
CONTINUOUS
 10
18.44192442546067
 20
-264.4639988167341
 11
19.32397523303067
 21
-264.4639988167341
  0
LINE
  8
10
  6
CONTINUOUS
 10
21.02397523303067
 20
-264.4639988167341
 11
21.90602604060067
 21
-264.4639988167341
  0
LINE
  8
10
  6
CONTINUOUS
 10
18.44192442546067
 20
-264.9639988167341
 11
19.32397523303067
 21
-264.9639988167341
  0
LINE
  8
10
  6
CONTINUOUS
 10
21.02397523303067
 20
-264.9639988167341
 11
21.90602604060067
 21
-264.9639988167341
  0
LINE
  8
10
  6
CONTINUOUS
 10
20.42397523303067
 20
-266.4460496243341
 11
20.42397523303067
 21
-265.5639988167341
  0
LINE
  8
10
  6
CONTINUOUS
 10
20.42397523303067
 20
-263.8639988167341
 11
20.42397523303067
 21
-262.9819480091341
  0
LINE
  8
10
  6
CONTINUOUS
 10
19.92397523303067
 20
-266.4460496243341
 11
19.92397523303067
 21
-265.5639988167341
  0
LINE
  8
10
  6
CONTINUOUS
 10
19.92397523303067
 20
-263.8639988167341
 11
19.92397523303067
 21
-262.9819480091341
  0
ARC
  8
10
  6
CONTINUOUS
 10
21.02397523303067
 20
-263.8639988167341
 40
0.6
 50
180.0
 51
270.0
  0
ARC
  8
10
  6
CONTINUOUS
 10
19.32397523303067
 20
-263.8639988167341
 40
0.6
 50
270.0
 51
0.0
  0
ARC
  8
10
  6
CONTINUOUS
 10
19.32397523303067
 20
-265.5639988167341
 40
0.6
 50
0.0
 51
90.0
  0
ARC
  8
10
  6
CONTINUOUS
 10
21.02397523303067
 20
-265.5639988167341
 40
0.6
 50
90.0
 51
180.0
  0
CIRCLE
  8
10
  6
CONTINUOUS
 10
12.55397523303067
 20
-264.7139988167341
 40
3.15
  0
ARC
  8
10
  6
CONTINUOUS
 10
12.55397523303067
 20
-264.7139988167341
 40
1.75
 50
0.0
 51
8.213210701732916
  0
ARC
  8
10
  6
CONTINUOUS
 10
12.55397523303067
 20
-264.7139988167341
 40
1.75
 50
81.78678929840733
 51
98.21321070159267
  0
ARC
  8
10
  6
CONTINUOUS
 10
12.55397523303067
 20
-264.7139988167341
 40
1.75
 50
171.7867892982671
 51
188.2132107017329
  0
ARC
  8
10
  6
CONTINUOUS
 10
12.55397523303067
 20
-264.7139988167341
 40
1.75
 50
261.7867892984073
 51
278.2132107015927
  0
ARC
  8
10
  6
CONTINUOUS
 10
12.55397523303067
 20
-264.7139988167341
 40
1.75
 50
351.7867892982671
 51
0.0
  0
LINE
  8
10
  6
CONTINUOUS
 10
10.82192442546067
 20
-264.4639988167341
 11
11.70397523303068
 21
-264.4639988167341
  0
LINE
  8
10
  6
CONTINUOUS
 10
13.40397523303068
 20
-264.4639988167341
 11
14.28602604060067
 21
-264.4639988167341
  0
LINE
  8
10
  6
CONTINUOUS
 10
10.82192442546067
 20
-264.9639988167341
 11
11.70397523303068
 21
-264.9639988167341
  0
LINE
  8
10
  6
CONTINUOUS
 10
13.40397523303068
 20
-264.9639988167341
 11
14.28602604060067
 21
-264.9639988167341
  0
LINE
  8
10
  6
CONTINUOUS
 10
12.80397523303067
 20
-266.4460496243341
 11
12.80397523303067
 21
-265.5639988167341
  0
LINE
  8
10
  6
CONTINUOUS
 10
12.80397523303067
 20
-263.8639988167341
 11
12.80397523303067
 21
-262.9819480091341
  0
LINE
  8
10
  6
CONTINUOUS
 10
12.30397523303067
 20
-266.4460496243341
 11
12.30397523303067
 21
-265.5639988167341
  0
LINE
  8
10
  6
CONTINUOUS
 10
12.30397523303067
 20
-263.8639988167341
 11
12.30397523303067
 21
-262.9819480091341
  0
ARC
  8
10
  6
CONTINUOUS
 10
13.40397523303068
 20
-263.8639988167341
 40
0.6
 50
180.0
 51
270.0
  0
ARC
  8
10
  6
CONTINUOUS
 10
11.70397523303068
 20
-263.8639988167341
 40
0.6
 50
270.0
 51
0.0
  0
ARC
  8
10
  6
CONTINUOUS
 10
11.70397523303068
 20
-265.5639988167341
 40
0.6
 50
0.0
 51
90.0
  0
ARC
  8
10
  6
CONTINUOUS
 10
13.40397523303068
 20
-265.5639988167341
 40
0.6
 50
90.0
 51
180.0
  0
CIRCLE
  8
10
  6
CONTINUOUS
 10
4.933975233030665
 20
-264.7139988167341
 40
3.15
  0
ARC
  8
10
  6
CONTINUOUS
 10
4.933975233030665
 20
-264.7139988167341
 40
1.75
 50
0.0
 51
8.213210701732916
  0
ARC
  8
10
  6
CONTINUOUS
 10
4.933975233030665
 20
-264.7139988167341
 40
1.75
 50
81.78678929840733
 51
98.21321070159267
  0
ARC
  8
10
  6
CONTINUOUS
 10
4.933975233030665
 20
-264.7139988167341
 40
1.75
 50
171.786789298267
 51
188.213210701733
  0
ARC
  8
10
  6
CONTINUOUS
 10
4.933975233030665
 20
-264.7139988167341
 40
1.75
 50
261.7867892984073
 51
278.2132107015927
  0
ARC
  8
10
  6
CONTINUOUS
 10
4.933975233030665
 20
-264.7139988167341
 40
1.75
 50
351.7867892982671
 51
0.0
  0
LINE
  8
10
  6
CONTINUOUS
 10
3.201924425460675
 20
-264.4639988167341
 11
4.083975233030671
 21
-264.4639988167341
  0
LINE
  8
10
  6
CONTINUOUS
 10
5.783975233030674
 20
-264.4639988167341
 11
6.66602604060067
 21
-264.4639988167341
  0
LINE
  8
10
  6
CONTINUOUS
 10
3.201924425460675
 20
-264.9639988167341
 11
4.083975233030671
 21
-264.9639988167341
  0
LINE
  8
10
  6
CONTINUOUS
 10
5.783975233030674
 20
-264.9639988167341
 11
6.66602604060067
 21
-264.9639988167341
  0
LINE
  8
10
  6
CONTINUOUS
 10
5.183975233030665
 20
-266.4460496243341
 11
5.183975233030665
 21
-265.5639988167341
  0
LINE
  8
10
  6
CONTINUOUS
 10
5.183975233030665
 20
-263.8639988167341
 11
5.183975233030665
 21
-262.9819480091341
  0
LINE
  8
10
  6
CONTINUOUS
 10
4.683975233030665
 20
-266.4460496243341
 11
4.683975233030665
 21
-265.5639988167341
  0
LINE
  8
10
  6
CONTINUOUS
 10
4.683975233030665
 20
-263.8639988167341
 11
4.683975233030665
 21
-262.9819480091341
  0
ARC
  8
10
  6
CONTINUOUS
 10
5.783975233030674
 20
-263.8639988167341
 40
0.6
 50
180.0
 51
270.0
  0
ARC
  8
10
  6
CONTINUOUS
 10
4.083975233030671
 20
-263.8639988167341
 40
0.6
 50
270.0
 51
0.0
  0
ARC
  8
10
  6
CONTINUOUS
 10
4.083975233030671
 20
-265.5639988167341
 40
0.6
 50
0.0
 51
90.0
  0
ARC
  8
10
  6
CONTINUOUS
 10
5.783975233030674
 20
-265.5639988167341
 40
0.6
 50
90.0
 51
180.0
  0
CIRCLE
  8
10
  6
CONTINUOUS
 10
-2.686024766969325
 20
-264.7139988167341
 40
3.15
  0
ARC
  8
10
  6
CONTINUOUS
 10
-2.686024766969325
 20
-264.7139988167341
 40
1.75
 50
0.0
 51
8.213210701732983
  0
ARC
  8
10
  6
CONTINUOUS
 10
-2.686024766969325
 20
-264.7139988167341
 40
1.75
 50
81.78678929840733
 51
98.21321070159267
  0
ARC
  8
10
  6
CONTINUOUS
 10
-2.686024766969325
 20
-264.7139988167341
 40
1.75
 50
171.7867892982671
 51
188.2132107017329
  0
ARC
  8
10
  6
CONTINUOUS
 10
-2.686024766969325
 20
-264.7139988167341
 40
1.75
 50
261.7867892984073
 51
278.2132107015927
  0
ARC
  8
10
  6
CONTINUOUS
 10
-2.686024766969325
 20
-264.7139988167341
 40
1.75
 50
351.786789298267
 51
0.0
  0
LINE
  8
10
  6
CONTINUOUS
 10
-4.41807557453933
 20
-264.4639988167341
 11
-3.536024766969334
 21
-264.4639988167341
  0
LINE
  8
10
  6
CONTINUOUS
 10
-1.836024766969331
 20
-264.4639988167341
 11
-0.9539739593993346
 21
-264.4639988167341
  0
LINE
  8
10
  6
CONTINUOUS
 10
-4.41807557453933
 20
-264.9639988167341
 11
-3.536024766969334
 21
-264.9639988167341
  0
LINE
  8
10
  6
CONTINUOUS
 10
-1.836024766969331
 20
-264.9639988167341
 11
-0.9539739593993346
 21
-264.9639988167341
  0
LINE
  8
10
  6
CONTINUOUS
 10
-2.436024766969325
 20
-266.4460496243341
 11
-2.436024766969325
 21
-265.5639988167341
  0
LINE
  8
10
  6
CONTINUOUS
 10
-2.436024766969325
 20
-263.8639988167341
 11
-2.436024766969325
 21
-262.9819480091341
  0
LINE
  8
10
  6
CONTINUOUS
 10
-2.936024766969325
 20
-266.4460496243341
 11
-2.936024766969325
 21
-265.5639988167341
  0
LINE
  8
10
  6
CONTINUOUS
 10
-2.936024766969325
 20
-263.8639988167341
 11
-2.936024766969325
 21
-262.9819480091341
  0
ARC
  8
10
  6
CONTINUOUS
 10
-1.836024766969331
 20
-263.8639988167341
 40
0.6
 50
180.0
 51
270.0
  0
ARC
  8
10
  6
CONTINUOUS
 10
-3.536024766969334
 20
-263.8639988167341
 40
0.6
 50
270.0
 51
0.0
  0
ARC
  8
10
  6
CONTINUOUS
 10
-3.536024766969334
 20
-265.5639988167341
 40
0.6
 50
0.0
 51
90.0
  0
ARC
  8
10
  6
CONTINUOUS
 10
-1.836024766969331
 20
-265.5639988167341
 40
0.6
 50
90.0
 51
180.0
  0
CIRCLE
  8
10
  6
CONTINUOUS
 10
-10.30602476696933
 20
-264.7139988167341
 40
3.15
  0
ARC
  8
10
  6
CONTINUOUS
 10
-10.30602476696933
 20
-264.7139988167341
 40
1.75
 50
0.0
 51
8.213210701732916
  0
ARC
  8
10
  6
CONTINUOUS
 10
-10.30602476696933
 20
-264.7139988167341
 40
1.75
 50
81.78678929840733
 51
98.21321070159267
  0
ARC
  8
10
  6
CONTINUOUS
 10
-10.30602476696933
 20
-264.7139988167341
 40
1.75
 50
171.7867892982671
 51
188.213210701733
  0
ARC
  8
10
  6
CONTINUOUS
 10
-10.30602476696933
 20
-264.7139988167341
 40
1.75
 50
261.7867892984073
 51
278.2132107015927
  0
ARC
  8
10
  6
CONTINUOUS
 10
-10.30602476696933
 20
-264.7139988167341
 40
1.75
 50
351.7867892982671
 51
0.0
  0
LINE
  8
10
  6
CONTINUOUS
 10
-12.03807557453933
 20
-264.4639988167341
 11
-11.15602476696933
 21
-264.4639988167341
  0
LINE
  8
10
  6
CONTINUOUS
 10
-9.456024766969335
 20
-264.4639988167341
 11
-8.573973959399325
 21
-264.4639988167341
  0
LINE
  8
10
  6
CONTINUOUS
 10
-12.03807557453933
 20
-264.9639988167341
 11
-11.15602476696933
 21
-264.9639988167341
  0
LINE
  8
10
  6
CONTINUOUS
 10
-9.456024766969335
 20
-264.9639988167341
 11
-8.573973959399325
 21
-264.9639988167341
  0
LINE
  8
10
  6
CONTINUOUS
 10
-10.05602476696933
 20
-266.4460496243341
 11
-10.05602476696933
 21
-265.5639988167341
  0
LINE
  8
10
  6
CONTINUOUS
 10
-10.05602476696933
 20
-263.8639988167341
 11
-10.05602476696933
 21
-262.9819480091341
  0
LINE
  8
10
  6
CONTINUOUS
 10
-10.55602476696933
 20
-266.4460496243341
 11
-10.55602476696933
 21
-265.5639988167341
  0
LINE
  8
10
  6
CONTINUOUS
 10
-10.55602476696933
 20
-263.8639988167341
 11
-10.55602476696933
 21
-262.9819480091341
  0
ARC
  8
10
  6
CONTINUOUS
 10
-9.456024766969335
 20
-263.8639988167341
 40
0.6
 50
180.0
 51
270.0
  0
ARC
  8
10
  6
CONTINUOUS
 10
-11.15602476696933
 20
-263.8639988167341
 40
0.6
 50
270.0
 51
0.0
  0
ARC
  8
10
  6
CONTINUOUS
 10
-11.15602476696933
 20
-265.5639988167341
 40
0.6
 50
0.0
 51
90.0
  0
ARC
  8
10
  6
CONTINUOUS
 10
-9.456024766969335
 20
-265.5639988167341
 40
0.6
 50
90.0
 51
180.0
  0
CIRCLE
  8
10
  6
CONTINUOUS
 10
-17.92602476696933
 20
-264.7139988167341
 40
3.15
  0
ARC
  8
10
  6
CONTINUOUS
 10
-17.92602476696933
 20
-264.7139988167341
 40
1.75
 50
0.0
 51
8.213210701732949
  0
ARC
  8
10
  6
CONTINUOUS
 10
-17.92602476696933
 20
-264.7139988167341
 40
1.75
 50
81.78678929840733
 51
98.21321070159267
  0
ARC
  8
10
  6
CONTINUOUS
 10
-17.92602476696933
 20
-264.7139988167341
 40
1.75
 50
171.7867892982671
 51
188.2132107017329
  0
ARC
  8
10
  6
CONTINUOUS
 10
-17.92602476696933
 20
-264.7139988167341
 40
1.75
 50
261.7867892984073
 51
278.2132107015927
  0
ARC
  8
10
  6
CONTINUOUS
 10
-17.92602476696933
 20
-264.7139988167341
 40
1.75
 50
351.786789298267
 51
0.0
  0
LINE
  8
10
  6
CONTINUOUS
 10
-19.65807557453933
 20
-264.4639988167341
 11
-18.77602476696933
 21
-264.4639988167341
  0
LINE
  8
10
  6
CONTINUOUS
 10
-17.07602476696933
 20
-264.4639988167341
 11
-16.19397395939933
 21
-264.4639988167341
  0
LINE
  8
10
  6
CONTINUOUS
 10
-19.65807557453933
 20
-264.9639988167341
 11
-18.77602476696933
 21
-264.9639988167341
  0
LINE
  8
10
  6
CONTINUOUS
 10
-17.07602476696933
 20
-264.9639988167341
 11
-16.19397395939933
 21
-264.9639988167341
  0
LINE
  8
10
  6
CONTINUOUS
 10
-17.67602476696933
 20
-266.4460496243341
 11
-17.67602476696933
 21
-265.5639988167341
  0
LINE
  8
10
  6
CONTINUOUS
 10
-17.67602476696933
 20
-263.8639988167341
 11
-17.67602476696933
 21
-262.9819480091341
  0
LINE
  8
10
  6
CONTINUOUS
 10
-18.17602476696933
 20
-266.4460496243341
 11
-18.17602476696933
 21
-265.5639988167341
  0
LINE
  8
10
  6
CONTINUOUS
 10
-18.17602476696933
 20
-263.8639988167341
 11
-18.17602476696933
 21
-262.9819480091341
  0
ARC
  8
10
  6
CONTINUOUS
 10
-17.07602476696933
 20
-263.8639988167341
 40
0.6
 50
180.0
 51
270.0
  0
ARC
  8
10
  6
CONTINUOUS
 10
-18.77602476696933
 20
-263.8639988167341
 40
0.6
 50
270.0
 51
0.0
  0
ARC
  8
10
  6
CONTINUOUS
 10
-18.77602476696933
 20
-265.5639988167341
 40
0.6
 50
0.0
 51
90.0
  0
ARC
  8
10
  6
CONTINUOUS
 10
-17.07602476696933
 20
-265.5639988167341
 40
0.6
 50
90.0
 51
180.0
  0
CIRCLE
  8
10
  6
CONTINUOUS
 10
-25.54602476696933
 20
-264.7139988167341
 40
3.15
  0
ARC
  8
10
  6
CONTINUOUS
 10
-25.54602476696933
 20
-264.7139988167341
 40
1.75
 50
0.0
 51
8.213210701732916
  0
ARC
  8
10
  6
CONTINUOUS
 10
-25.54602476696933
 20
-264.7139988167341
 40
1.75
 50
81.78678929840733
 51
98.21321070159267
  0
ARC
  8
10
  6
CONTINUOUS
 10
-25.54602476696933
 20
-264.7139988167341
 40
1.75
 50
171.7867892982671
 51
188.213210701733
  0
ARC
  8
10
  6
CONTINUOUS
 10
-25.54602476696933
 20
-264.7139988167341
 40
1.75
 50
261.7867892984073
 51
278.2132107015927
  0
ARC
  8
10
  6
CONTINUOUS
 10
-25.54602476696933
 20
-264.7139988167341
 40
1.75
 50
351.7867892982671
 51
0.0
  0
LINE
  8
10
  6
CONTINUOUS
 10
-27.27807557453933
 20
-264.4639988167341
 11
-26.39602476696933
 21
-264.4639988167341
  0
LINE
  8
10
  6
CONTINUOUS
 10
-24.69602476696933
 20
-264.4639988167341
 11
-23.81397395939933
 21
-264.4639988167341
  0
LINE
  8
10
  6
CONTINUOUS
 10
-27.27807557453933
 20
-264.9639988167341
 11
-26.39602476696933
 21
-264.9639988167341
  0
LINE
  8
10
  6
CONTINUOUS
 10
-24.69602476696933
 20
-264.9639988167341
 11
-23.81397395939933
 21
-264.9639988167341
  0
LINE
  8
10
  6
CONTINUOUS
 10
-25.29602476696933
 20
-266.4460496243341
 11
-25.29602476696933
 21
-265.5639988167341
  0
LINE
  8
10
  6
CONTINUOUS
 10
-25.29602476696933
 20
-263.8639988167341
 11
-25.29602476696933
 21
-262.9819480091341
  0
LINE
  8
10
  6
CONTINUOUS
 10
-25.79602476696933
 20
-266.4460496243341
 11
-25.79602476696933
 21
-265.5639988167341
  0
LINE
  8
10
  6
CONTINUOUS
 10
-25.79602476696933
 20
-263.8639988167341
 11
-25.79602476696933
 21
-262.9819480091341
  0
ARC
  8
10
  6
CONTINUOUS
 10
-24.69602476696933
 20
-263.8639988167341
 40
0.6
 50
180.0
 51
270.0
  0
ARC
  8
10
  6
CONTINUOUS
 10
-26.39602476696933
 20
-263.8639988167341
 40
0.6
 50
270.0
 51
0.0
  0
ARC
  8
10
  6
CONTINUOUS
 10
-26.39602476696933
 20
-265.5639988167341
 40
0.6
 50
0.0
 51
90.0
  0
ARC
  8
10
  6
CONTINUOUS
 10
-24.69602476696933
 20
-265.5639988167341
 40
0.6
 50
90.0
 51
180.0
  0
CIRCLE
  8
10
  6
CONTINUOUS
 10
-33.16602476696933
 20
-264.7139988167341
 40
3.15
  0
ARC
  8
10
  6
CONTINUOUS
 10
-33.16602476696933
 20
-264.7139988167341
 40
1.75
 50
0.0
 51
8.213210701732949
  0
ARC
  8
10
  6
CONTINUOUS
 10
-33.16602476696933
 20
-264.7139988167341
 40
1.75
 50
81.78678929840733
 51
98.21321070159267
  0
ARC
  8
10
  6
CONTINUOUS
 10
-33.16602476696933
 20
-264.7139988167341
 40
1.75
 50
171.7867892982671
 51
188.213210701733
  0
ARC
  8
10
  6
CONTINUOUS
 10
-33.16602476696933
 20
-264.7139988167341
 40
1.75
 50
261.7867892984073
 51
278.2132107015927
  0
ARC
  8
10
  6
CONTINUOUS
 10
-33.16602476696933
 20
-264.7139988167341
 40
1.75
 50
351.786789298267
 51
0.0
  0
LINE
  8
10
  6
CONTINUOUS
 10
-34.89807557453933
 20
-264.4639988167341
 11
-34.01602476696933
 21
-264.4639988167341
  0
LINE
  8
10
  6
CONTINUOUS
 10
-32.31602476696933
 20
-264.4639988167341
 11
-31.43397395939933
 21
-264.4639988167341
  0
LINE
  8
10
  6
CONTINUOUS
 10
-34.89807557453933
 20
-264.9639988167341
 11
-34.01602476696933
 21
-264.9639988167341
  0
LINE
  8
10
  6
CONTINUOUS
 10
-32.31602476696933
 20
-264.9639988167341
 11
-31.43397395939933
 21
-264.9639988167341
  0
LINE
  8
10
  6
CONTINUOUS
 10
-32.91602476696933
 20
-266.4460496243341
 11
-32.91602476696933
 21
-265.5639988167341
  0
LINE
  8
10
  6
CONTINUOUS
 10
-32.91602476696933
 20
-263.8639988167341
 11
-32.91602476696933
 21
-262.9819480091341
  0
LINE
  8
10
  6
CONTINUOUS
 10
-33.41602476696933
 20
-266.4460496243341
 11
-33.41602476696933
 21
-265.5639988167341
  0
LINE
  8
10
  6
CONTINUOUS
 10
-33.41602476696933
 20
-263.8639988167341
 11
-33.41602476696933
 21
-262.9819480091341
  0
ARC
  8
10
  6
CONTINUOUS
 10
-32.31602476696933
 20
-263.8639988167341
 40
0.6
 50
180.0
 51
270.0
  0
ARC
  8
10
  6
CONTINUOUS
 10
-34.01602476696933
 20
-263.8639988167341
 40
0.6
 50
270.0
 51
0.0
  0
ARC
  8
10
  6
CONTINUOUS
 10
-34.01602476696933
 20
-265.5639988167341
 40
0.6
 50
0.0
 51
90.0
  0
ARC
  8
10
  6
CONTINUOUS
 10
-32.31602476696933
 20
-265.5639988167341
 40
0.6
 50
90.0
 51
180.0
  0
CIRCLE
  8
10
  6
CONTINUOUS
 10
-40.78602476696933
 20
-264.7139988167341
 40
3.15
  0
ARC
  8
10
  6
CONTINUOUS
 10
-40.78602476696933
 20
-264.7139988167341
 40
1.75
 50
0.0
 51
8.213210701732949
  0
ARC
  8
10
  6
CONTINUOUS
 10
-40.78602476696933
 20
-264.7139988167341
 40
1.75
 50
81.78678929840733
 51
98.21321070159267
  0
ARC
  8
10
  6
CONTINUOUS
 10
-40.78602476696933
 20
-264.7139988167341
 40
1.75
 50
171.7867892982671
 51
188.213210701733
  0
ARC
  8
10
  6
CONTINUOUS
 10
-40.78602476696933
 20
-264.7139988167341
 40
1.75
 50
261.7867892984073
 51
278.2132107015927
  0
ARC
  8
10
  6
CONTINUOUS
 10
-40.78602476696933
 20
-264.7139988167341
 40
1.75
 50
351.786789298267
 51
0.0
  0
LINE
  8
10
  6
CONTINUOUS
 10
-42.51807557453932
 20
-264.4639988167341
 11
-41.63602476696933
 21
-264.4639988167341
  0
LINE
  8
10
  6
CONTINUOUS
 10
-39.93602476696933
 20
-264.4639988167341
 11
-39.05397395939933
 21
-264.4639988167341
  0
LINE
  8
10
  6
CONTINUOUS
 10
-42.51807557453932
 20
-264.9639988167341
 11
-41.63602476696933
 21
-264.9639988167341
  0
LINE
  8
10
  6
CONTINUOUS
 10
-39.93602476696933
 20
-264.9639988167341
 11
-39.05397395939933
 21
-264.9639988167341
  0
LINE
  8
10
  6
CONTINUOUS
 10
-40.53602476696933
 20
-266.4460496243341
 11
-40.53602476696933
 21
-265.5639988167341
  0
LINE
  8
10
  6
CONTINUOUS
 10
-40.53602476696933
 20
-263.8639988167341
 11
-40.53602476696933
 21
-262.9819480091341
  0
LINE
  8
10
  6
CONTINUOUS
 10
-41.03602476696933
 20
-266.4460496243341
 11
-41.03602476696933
 21
-265.5639988167341
  0
LINE
  8
10
  6
CONTINUOUS
 10
-41.03602476696933
 20
-263.8639988167341
 11
-41.03602476696933
 21
-262.9819480091341
  0
ARC
  8
10
  6
CONTINUOUS
 10
-39.93602476696933
 20
-263.8639988167341
 40
0.6
 50
180.0
 51
270.0
  0
ARC
  8
10
  6
CONTINUOUS
 10
-41.63602476696933
 20
-263.8639988167341
 40
0.6
 50
270.0
 51
0.0
  0
ARC
  8
10
  6
CONTINUOUS
 10
-41.63602476696933
 20
-265.5639988167341
 40
0.6
 50
0.0
 51
90.0
  0
ARC
  8
10
  6
CONTINUOUS
 10
-39.93602476696933
 20
-265.5639988167341
 40
0.6
 50
90.0
 51
180.0
  0
CIRCLE
  8
10
  6
CONTINUOUS
 10
-48.40602476696932
 20
-264.7139988167341
 40
3.15
  0
ARC
  8
10
  6
CONTINUOUS
 10
-48.40602476696932
 20
-264.7139988167341
 40
1.75
 50
0.0
 51
8.213210701732983
  0
ARC
  8
10
  6
CONTINUOUS
 10
-48.40602476696932
 20
-264.7139988167341
 40
1.75
 50
81.78678929840733
 51
98.21321070159267
  0
ARC
  8
10
  6
CONTINUOUS
 10
-48.40602476696932
 20
-264.7139988167341
 40
1.75
 50
171.7867892982671
 51
188.2132107017329
  0
ARC
  8
10
  6
CONTINUOUS
 10
-48.40602476696932
 20
-264.7139988167341
 40
1.75
 50
261.7867892984073
 51
278.2132107015927
  0
ARC
  8
10
  6
CONTINUOUS
 10
-48.40602476696932
 20
-264.7139988167341
 40
1.75
 50
351.786789298267
 51
0.0
  0
LINE
  8
10
  6
CONTINUOUS
 10
-50.13807557453933
 20
-264.4639988167341
 11
-49.25602476696933
 21
-264.4639988167341
  0
LINE
  8
10
  6
CONTINUOUS
 10
-47.55602476696933
 20
-264.4639988167341
 11
-46.67397395939933
 21
-264.4639988167341
  0
LINE
  8
10
  6
CONTINUOUS
 10
-50.13807557453933
 20
-264.9639988167341
 11
-49.25602476696933
 21
-264.9639988167341
  0
LINE
  8
10
  6
CONTINUOUS
 10
-47.55602476696933
 20
-264.9639988167341
 11
-46.67397395939933
 21
-264.9639988167341
  0
LINE
  8
10
  6
CONTINUOUS
 10
-48.15602476696932
 20
-266.4460496243341
 11
-48.15602476696932
 21
-265.5639988167341
  0
LINE
  8
10
  6
CONTINUOUS
 10
-48.15602476696932
 20
-263.8639988167341
 11
-48.15602476696932
 21
-262.9819480091341
  0
LINE
  8
10
  6
CONTINUOUS
 10
-48.65602476696932
 20
-266.4460496243341
 11
-48.65602476696932
 21
-265.5639988167341
  0
LINE
  8
10
  6
CONTINUOUS
 10
-48.65602476696932
 20
-263.8639988167341
 11
-48.65602476696932
 21
-262.9819480091341
  0
ARC
  8
10
  6
CONTINUOUS
 10
-47.55602476696933
 20
-263.8639988167341
 40
0.6
 50
180.0
 51
270.0
  0
ARC
  8
10
  6
CONTINUOUS
 10
-49.25602476696933
 20
-263.8639988167341
 40
0.6
 50
270.0
 51
0.0
  0
ARC
  8
10
  6
CONTINUOUS
 10
-49.25602476696933
 20
-265.5639988167341
 40
0.6
 50
0.0
 51
90.0
  0
ARC
  8
10
  6
CONTINUOUS
 10
-47.55602476696933
 20
-265.5639988167341
 40
0.6
 50
90.0
 51
180.0
  0
CIRCLE
  8
10
  6
CONTINUOUS
 10
-56.02602476696933
 20
-264.7139988167341
 40
3.15
  0
ARC
  8
10
  6
CONTINUOUS
 10
-56.02602476696933
 20
-264.7139988167341
 40
1.75
 50
0.0
 51
8.213210701732916
  0
ARC
  8
10
  6
CONTINUOUS
 10
-56.02602476696933
 20
-264.7139988167341
 40
1.75
 50
81.78678929840733
 51
98.21321070159267
  0
ARC
  8
10
  6
CONTINUOUS
 10
-56.02602476696933
 20
-264.7139988167341
 40
1.75
 50
171.7867892982671
 51
188.2132107017329
  0
ARC
  8
10
  6
CONTINUOUS
 10
-56.02602476696933
 20
-264.7139988167341
 40
1.75
 50
261.7867892984073
 51
278.2132107015927
  0
ARC
  8
10
  6
CONTINUOUS
 10
-56.02602476696933
 20
-264.7139988167341
 40
1.75
 50
351.7867892982671
 51
0.0
  0
LINE
  8
10
  6
CONTINUOUS
 10
-57.75807557453933
 20
-264.4639988167341
 11
-56.87602476696933
 21
-264.4639988167341
  0
LINE
  8
10
  6
CONTINUOUS
 10
-55.17602476696933
 20
-264.4639988167341
 11
-54.29397395939932
 21
-264.4639988167341
  0
LINE
  8
10
  6
CONTINUOUS
 10
-57.75807557453933
 20
-264.9639988167341
 11
-56.87602476696933
 21
-264.9639988167341
  0
LINE
  8
10
  6
CONTINUOUS
 10
-55.17602476696933
 20
-264.9639988167341
 11
-54.29397395939932
 21
-264.9639988167341
  0
LINE
  8
10
  6
CONTINUOUS
 10
-55.77602476696933
 20
-266.4460496243341
 11
-55.77602476696933
 21
-265.5639988167341
  0
LINE
  8
10
  6
CONTINUOUS
 10
-55.77602476696933
 20
-263.8639988167341
 11
-55.77602476696933
 21
-262.9819480091341
  0
LINE
  8
10
  6
CONTINUOUS
 10
-56.27602476696933
 20
-266.4460496243341
 11
-56.27602476696933
 21
-265.5639988167341
  0
LINE
  8
10
  6
CONTINUOUS
 10
-56.27602476696933
 20
-263.8639988167341
 11
-56.27602476696933
 21
-262.9819480091341
  0
ARC
  8
10
  6
CONTINUOUS
 10
-55.17602476696933
 20
-263.8639988167341
 40
0.6
 50
180.0
 51
270.0
  0
ARC
  8
10
  6
CONTINUOUS
 10
-56.87602476696933
 20
-263.8639988167341
 40
0.6
 50
270.0
 51
0.0
  0
ARC
  8
10
  6
CONTINUOUS
 10
-56.87602476696933
 20
-265.5639988167341
 40
0.6
 50
0.0
 51
90.0
  0
ARC
  8
10
  6
CONTINUOUS
 10
-55.17602476696933
 20
-265.5639988167341
 40
0.6
 50
90.0
 51
180.0
  0
LINE
  8
14
  6
CONTINUOUS
 10
17.01397523303068
 20
-270.7139988167341
 11
17.01397523303068
 21
-258.7139988167341
  0
LINE
  8
14
  6
CONTINUOUS
 10
15.71397523303067
 20
-270.7139988167341
 11
15.71397523303067
 21
-258.7139988167341
  0
LINE
  8
14
  6
CONTINUOUS
 10
9.393975233030673
 20
-270.7139988167341
 11
9.393975233030673
 21
-258.7139988167341
  0
LINE
  8
14
  6
CONTINUOUS
 10
8.093975233030676
 20
-270.7139988167341
 11
8.093975233030676
 21
-258.7139988167341
  0
LINE
  8
14
  6
CONTINUOUS
 10
1.773975233030669
 20
-270.7139988167341
 11
1.773975233030669
 21
-258.7139988167341
  0
LINE
  8
14
  6
CONTINUOUS
 10
0.4739752330306715
 20
-270.7139988167341
 11
0.4739752330306715
 21
-258.7139988167341
  0
LINE
  8
14
  6
CONTINUOUS
 10
-5.846024766969322
 20
-270.7139988167341
 11
-5.846024766969322
 21
-258.7139988167341
  0
LINE
  8
14
  6
CONTINUOUS
 10
-7.146024766969333
 20
-270.7139988167341
 11
-7.146024766969333
 21
-258.7139988167341
  0
LINE
  8
14
  6
CONTINUOUS
 10
-13.46602476696933
 20
-270.7139988167341
 11
-13.46602476696933
 21
-258.7139988167341
  0
LINE
  8
14
  6
CONTINUOUS
 10
-14.76602476696933
 20
-270.7139988167341
 11
-14.76602476696933
 21
-258.7139988167341
  0
LINE
  8
14
  6
CONTINUOUS
 10
-21.08602476696933
 20
-270.7139988167341
 11
-21.08602476696933
 21
-258.7139988167341
  0
LINE
  8
14
  6
CONTINUOUS
 10
-22.38602476696933
 20
-270.7139988167341
 11
-22.38602476696933
 21
-258.7139988167341
  0
LINE
  8
14
  6
CONTINUOUS
 10
-28.70602476696933
 20
-270.7139988167341
 11
-28.70602476696933
 21
-258.7139988167341
  0
LINE
  8
14
  6
CONTINUOUS
 10
-30.00602476696933
 20
-270.7139988167341
 11
-30.00602476696933
 21
-258.7139988167341
  0
LINE
  8
14
  6
CONTINUOUS
 10
-36.32602476696933
 20
-270.7139988167341
 11
-36.32602476696933
 21
-258.7139988167341
  0
LINE
  8
14
  6
CONTINUOUS
 10
-37.62602476696933
 20
-270.7139988167341
 11
-37.62602476696933
 21
-258.7139988167341
  0
LINE
  8
14
  6
CONTINUOUS
 10
-43.94602476696933
 20
-270.7139988167341
 11
-43.94602476696933
 21
-258.7139988167341
  0
LINE
  8
14
  6
CONTINUOUS
 10
-45.24602476696933
 20
-270.7139988167341
 11
-45.24602476696933
 21
-258.7139988167341
  0
LINE
  8
14
  6
CONTINUOUS
 10
-51.56602476696933
 20
-270.7139988167341
 11
-51.56602476696933
 21
-258.7139988167341
  0
LINE
  8
14
  6
CONTINUOUS
 10
-52.86602476696933
 20
-270.7139988167341
 11
-52.86602476696933
 21
-258.7139988167341
  0
LINE
  8
14
  6
CONTINUOUS
 10
-59.18602476696933
 20
-270.7139988167341
 11
-59.18602476696933
 21
-258.7139988167341
  0
LINE
  8
14
  6
CONTINUOUS
 10
23.33397523303067
 20
-270.7139988167341
 11
23.33397523303067
 21
-258.7139988167341
  0
LINE
  8
14
  6
CONTINUOUS
 10
9.393975233030673
 20
-260.2139988167341
 11
15.71397523303067
 21
-260.2139988167341
  0
LINE
  8
14
  6
CONTINUOUS
 10
9.393975233030673
 20
-269.2139988167341
 11
15.71397523303067
 21
-269.2139988167341
  0
LINE
  8
14
  6
CONTINUOUS
 10
1.773975233030669
 20
-260.2139988167341
 11
8.093975233030676
 21
-260.2139988167341
  0
LINE
  8
14
  6
CONTINUOUS
 10
-5.846024766969322
 20
-260.2139988167341
 11
0.4739752330306715
 21
-260.2139988167341
  0
LINE
  8
14
  6
CONTINUOUS
 10
-13.46602476696933
 20
-260.2139988167341
 11
-7.146024766969333
 21
-260.2139988167341
  0
LINE
  8
14
  6
CONTINUOUS
 10
-21.08602476696933
 20
-260.2139988167341
 11
-14.76602476696933
 21
-260.2139988167341
  0
LINE
  8
14
  6
CONTINUOUS
 10
-28.70602476696933
 20
-260.2139988167341
 11
-22.38602476696933
 21
-260.2139988167341
  0
LINE
  8
14
  6
CONTINUOUS
 10
-36.32602476696933
 20
-260.2139988167341
 11
-30.00602476696933
 21
-260.2139988167341
  0
LINE
  8
14
  6
CONTINUOUS
 10
-43.94602476696933
 20
-260.2139988167341
 11
-37.62602476696933
 21
-260.2139988167341
  0
LINE
  8
14
  6
CONTINUOUS
 10
-51.56602476696933
 20
-260.2139988167341
 11
-45.24602476696933
 21
-260.2139988167341
  0
LINE
  8
14
  6
CONTINUOUS
 10
-59.18602476696933
 20
-260.2139988167341
 11
-52.86602476696933
 21
-260.2139988167341
  0
LINE
  8
14
  6
CONTINUOUS
 10
1.773975233030669
 20
-269.2139988167341
 11
8.093975233030676
 21
-269.2139988167341
  0
LINE
  8
14
  6
CONTINUOUS
 10
-5.846024766969322
 20
-269.2139988167341
 11
0.4739752330306715
 21
-269.2139988167341
  0
LINE
  8
14
  6
CONTINUOUS
 10
-13.46602476696933
 20
-269.2139988167341
 11
-7.146024766969333
 21
-269.2139988167341
  0
LINE
  8
14
  6
CONTINUOUS
 10
-21.08602476696933
 20
-269.2139988167341
 11
-14.76602476696933
 21
-269.2139988167341
  0
LINE
  8
14
  6
CONTINUOUS
 10
-28.70602476696933
 20
-269.2139988167341
 11
-22.38602476696933
 21
-269.2139988167341
  0
LINE
  8
14
  6
CONTINUOUS
 10
-36.32602476696933
 20
-269.2139988167341
 11
-30.00602476696933
 21
-269.2139988167341
  0
LINE
  8
14
  6
CONTINUOUS
 10
-43.94602476696933
 20
-269.2139988167341
 11
-37.62602476696933
 21
-269.2139988167341
  0
LINE
  8
14
  6
CONTINUOUS
 10
-51.56602476696933
 20
-269.2139988167341
 11
-45.24602476696933
 21
-269.2139988167341
  0
LINE
  8
14
  6
CONTINUOUS
 10
-59.18602476696933
 20
-269.2139988167341
 11
-52.86602476696933
 21
-269.2139988167341
  0
LINE
  8
14
  6
CONTINUOUS
 10
17.01397523303068
 20
-260.2139988167341
 11
23.33397523303067
 21
-260.2139988167341
  0
LINE
  8
14
  6
CONTINUOUS
 10
17.01397523303068
 20
-269.2139988167341
 11
23.33397523303067
 21
-269.2139988167341
  0
POLYLINE
  8
10
  6
CONTINUOUS
 66
     1
 70
     0
 40
0.0
 41
0.0
  0
VERTEX
  8
10
 10
-51.55604553222656
 20
-154.5897521972656
  0
VERTEX
  8
10
 10
-52.00911712646484
 20
-157.3081970214844
  0
VERTEX
  8
10
 10
-52.33584594726563
 20
-157.6200714111328
  0
VERTEX
  8
10
 10
-52.77067565917969
 20
-157.0113067626953
  0
VERTEX
  8
10
 10
-52.326416015625
 20
-154.3457489013672
  0
VERTEX
  8
10
 10
-51.97490692138672
 20
-154.0655059814453
  0
VERTEX
  8
10
 10
-51.55604553222656
 20
-154.5897521972656
  0
SEQEND
  8
10
  0
POLYLINE
  8
10
  6
CONTINUOUS
 66
     1
 70
     0
 40
0.0
 41
0.0
  0
VERTEX
  8
10
 10
-51.5340461730957
 20
-153.7140045166016
  0
VERTEX
  8
10
 10
-48.10547637939453
 20
-153.7140045166016
  0
VERTEX
  8
10
 10
-47.93465423583984
 20
-153.9531555175781
  0
VERTEX
  8
10
 10
-48.63810348510742
 20
-154.5140075683594
  0
VERTEX
  8
10
 10
-51.47027587890625
 20
-154.5140075683594
  0
VERTEX
  8
10
 10
-51.88554382324219
 20
-153.9942474365234
  0
VERTEX
  8
10
 10
-51.5340461730957
 20
-153.7140045166016
  0
SEQEND
  8
10
  0
POLYLINE
  8
10
  6
CONTINUOUS
 66
     1
 70
     0
 40
0.0
 41
0.0
  0
VERTEX
  8
10
 10
-47.69731521606445
 20
-154.2854461669922
  0
VERTEX
  8
10
 10
-48.16063690185547
 20
-157.0653533935547
  0
VERTEX
  8
10
 10
-48.75665664672852
 20
-157.6342926025391
  0
VERTEX
  8
10
 10
-49.00787353515625
 20
-157.2825927734375
  0
VERTEX
  8
10
 10
-48.56048583984375
 20
-154.5982818603516
  0
VERTEX
  8
10
 10
-47.86813354492188
 20
-154.0462799072266
  0
VERTEX
  8
10
 10
-47.69731521606445
 20
-154.2854461669922
  0
SEQEND
  8
10
  0
POLYLINE
  8
10
  6
CONTINUOUS
 66
     1
 70
     0
 40
0.0
 41
0.0
  0
VERTEX
  8
10
 10
-51.84969711303711
 20
-157.3140106201172
  0
VERTEX
  8
10
 10
-49.12587356567383
 20
-157.3140106201172
  0
VERTEX
  8
10
 10
-48.84016418457031
 20
-157.7140045166016
  0
VERTEX
  8
10
 10
-49.25921630859375
 20
-158.1139984130859
  0
VERTEX
  8
10
 10
-51.98302459716797
 20
-158.1139984130859
  0
VERTEX
  8
10
 10
-52.26874542236328
 20
-157.7140045166016
  0
VERTEX
  8
10
 10
-51.84969711303711
 20
-157.3140106201172
  0
SEQEND
  8
10
  0
POLYLINE
  8
10
  6
CONTINUOUS
 66
     1
 70
     0
 40
0.0
 41
0.0
  0
VERTEX
  8
10
 10
-53.41931533813477
 20
-160.9031982421875
  0
VERTEX
  8
10
 10
-53.00490570068359
 20
-158.4167022705078
  0
VERTEX
  8
10
 10
-52.35224533081055
 20
-157.7937164306641
  0
VERTEX
  8
10
 10
-52.13964462280273
 20
-158.0913543701172
  0
VERTEX
  8
10
 10
-52.59639358520508
 20
-160.8318634033203
  0
VERTEX
  8
10
 10
-53.1629753112793
 20
-161.2620849609375
  0
VERTEX
  8
10
 10
-53.41931533813477
 20
-160.9031982421875
  0
SEQEND
  8
10
  0
POLYLINE
  8
10
  6
CONTINUOUS
 66
     1
 70
     0
 40
0.0
 41
0.0
  0
VERTEX
  8
10
 10
-52.51559448242188
 20
-160.9140014648438
  0
VERTEX
  8
10
 10
-49.69055557250977
 20
-160.9140014648438
  0
VERTEX
  8
10
 10
-49.16979598999023
 20
-161.4832000732422
  0
VERTEX
  8
10
 10
-49.41159439086914
 20
-161.7140045166016
  0
VERTEX
  8
10
 10
-52.84016418457031
 20
-161.7140045166016
  0
VERTEX
  8
10
 10
-53.09651565551758
 20
-161.3551177978516
  0
VERTEX
  8
10
 10
-52.51559448242188
 20
-160.9140014648438
  0
SEQEND
  8
10
  0
POLYLINE
  8
10
  6
CONTINUOUS
 66
     1
 70
     0
 40
0.0
 41
0.0
  0
VERTEX
  8
10
 10
-49.60117721557617
 20
-160.8423919677734
  0
VERTEX
  8
10
 10
-49.15642547607422
 20
-158.1738739013672
  0
VERTEX
  8
10
 10
-48.77306365966797
 20
-157.8079528808594
  0
VERTEX
  8
10
 10
-48.37684631347656
 20
-158.3626556396484
  0
VERTEX
  8
10
 10
-48.84531402587891
 20
-161.1734619140625
  0
VERTEX
  8
10
 10
-49.08711624145508
 20
-161.4042663574219
  0
VERTEX
  8
10
 10
-49.60117721557617
 20
-160.8423919677734
  0
SEQEND
  8
10
  0
POLYLINE
  8
10
  6
CONTINUOUS
 66
     1
 70
     0
 40
0.0
 41
0.0
  0
VERTEX
  8
10
 10
-48.30596542358398
 20
-161.3419036865234
 42
0.9999999999999999
  0
VERTEX
  8
10
 10
-47.50594711303711
 20
-161.3419036865234
 42
0.9999999999999999
  0
VERTEX
  8
10
 10
-48.30594635009766
 20
-161.3419036865234
  0
SEQEND
  8
10
  0
POLYLINE
  8
10
  6
CONTINUOUS
 66
     1
 70
     0
 40
0.0
 41
0.0
  0
VERTEX
  8
10
 10
-44.55604553222656
 20
-154.5897521972656
  0
VERTEX
  8
10
 10
-45.00911712646484
 20
-157.3081970214844
  0
VERTEX
  8
10
 10
-45.33584594726563
 20
-157.6200714111328
  0
VERTEX
  8
10
 10
-45.77067565917969
 20
-157.0113067626953
  0
VERTEX
  8
10
 10
-45.326416015625
 20
-154.3457489013672
  0
VERTEX
  8
10
 10
-44.97490692138672
 20
-154.0655059814453
  0
VERTEX
  8
10
 10
-44.55604553222656
 20
-154.5897521972656
  0
SEQEND
  8
10
  0
POLYLINE
  8
10
  6
CONTINUOUS
 66
     1
 70
     0
 40
0.0
 41
0.0
  0
VERTEX
  8
10
 10
-44.5340461730957
 20
-153.7140045166016
  0
VERTEX
  8
10
 10
-41.10547637939453
 20
-153.7140045166016
  0
VERTEX
  8
10
 10
-40.93465805053711
 20
-153.9531555175781
  0
VERTEX
  8
10
 10
-41.63810729980469
 20
-154.5140075683594
  0
VERTEX
  8
10
 10
-44.47027587890625
 20
-154.5140075683594
  0
VERTEX
  8
10
 10
-44.88554382324219
 20
-153.9942474365234
  0
VERTEX
  8
10
 10
-44.5340461730957
 20
-153.7140045166016
  0
SEQEND
  8
10
  0
POLYLINE
  8
10
  6
CONTINUOUS
 66
     1
 70
     0
 40
0.0
 41
0.0
  0
VERTEX
  8
10
 10
-40.69731521606445
 20
-154.2854461669922
  0
VERTEX
  8
10
 10
-41.16063690185547
 20
-157.0653533935547
  0
VERTEX
  8
10
 10
-41.75665664672852
 20
-157.6342926025391
  0
VERTEX
  8
10
 10
-42.00787353515625
 20
-157.2825927734375
  0
VERTEX
  8
10
 10
-41.56048583984375
 20
-154.5982818603516
  0
VERTEX
  8
10
 10
-40.86813735961914
 20
-154.0462799072266
  0
VERTEX
  8
10
 10
-40.69731521606445
 20
-154.2854461669922
  0
SEQEND
  8
10
  0
POLYLINE
  8
10
  6
CONTINUOUS
 66
     1
 70
     0
 40
0.0
 41
0.0
  0
VERTEX
  8
10
 10
-44.84969711303711
 20
-157.3140106201172
  0
VERTEX
  8
10
 10
-42.12587356567383
 20
-157.3140106201172
  0
VERTEX
  8
10
 10
-41.84016799926758
 20
-157.7140045166016
  0
VERTEX
  8
10
 10
-42.25921630859375
 20
-158.1139984130859
  0
VERTEX
  8
10
 10
-44.98302459716797
 20
-158.1139984130859
  0
VERTEX
  8
10
 10
-45.26874542236328
 20
-157.7140045166016
  0
VERTEX
  8
10
 10
-44.84969711303711
 20
-157.3140106201172
  0
SEQEND
  8
10
  0
POLYLINE
  8
10
  6
CONTINUOUS
 66
     1
 70
     0
 40
0.0
 41
0.0
  0
VERTEX
  8
10
 10
-46.41931533813477
 20
-160.9031982421875
  0
VERTEX
  8
10
 10
-46.00490570068359
 20
-158.4167022705078
  0
VERTEX
  8
10
 10
-45.35224533081055
 20
-157.7937164306641
  0
VERTEX
  8
10
 10
-45.13964462280273
 20
-158.0913543701172
  0
VERTEX
  8
10
 10
-45.59639358520508
 20
-160.8318634033203
  0
VERTEX
  8
10
 10
-46.1629753112793
 20
-161.2620849609375
  0
VERTEX
  8
10
 10
-46.41931533813477
 20
-160.9031982421875
  0
SEQEND
  8
10
  0
POLYLINE
  8
10
  6
CONTINUOUS
 66
     1
 70
     0
 40
0.0
 41
0.0
  0
VERTEX
  8
10
 10
-45.51559448242188
 20
-160.9140014648438
  0
VERTEX
  8
10
 10
-42.69055557250977
 20
-160.9140014648438
  0
VERTEX
  8
10
 10
-42.16979598999023
 20
-161.4832000732422
  0
VERTEX
  8
10
 10
-42.41159439086914
 20
-161.7140045166016
  0
VERTEX
  8
10
 10
-45.84016418457031
 20
-161.7140045166016
  0
VERTEX
  8
10
 10
-46.09651565551758
 20
-161.3551177978516
  0
VERTEX
  8
10
 10
-45.51559448242188
 20
-160.9140014648438
  0
SEQEND
  8
10
  0
POLYLINE
  8
10
  6
CONTINUOUS
 66
     1
 70
     0
 40
0.0
 41
0.0
  0
VERTEX
  8
10
 10
-42.60117721557617
 20
-160.8423919677734
  0
VERTEX
  8
10
 10
-42.15642547607422
 20
-158.1738739013672
  0
VERTEX
  8
10
 10
-41.77306747436523
 20
-157.8079528808594
  0
VERTEX
  8
10
 10
-41.37684631347656
 20
-158.3626556396484
  0
VERTEX
  8
10
 10
-41.84531784057617
 20
-161.1734619140625
  0
VERTEX
  8
10
 10
-42.08711624145508
 20
-161.4042663574219
  0
VERTEX
  8
10
 10
-42.60117721557617
 20
-160.8423919677734
  0
SEQEND
  8
10
  0
POLYLINE
  8
10
  6
CONTINUOUS
 66
     1
 70
     0
 40
0.0
 41
0.0
  0
VERTEX
  8
10
 10
-41.30596542358398
 20
-161.3419036865234
 42
0.9999999999999999
  0
VERTEX
  8
10
 10
-40.50594711303711
 20
-161.3419036865234
 42
0.9999999999999999
  0
VERTEX
  8
10
 10
-41.30594635009766
 20
-161.3419036865234
  0
SEQEND
  8
10
  0
POLYLINE
  8
10
  6
CONTINUOUS
 66
     1
 70
     0
 40
0.0
 41
0.0
  0
VERTEX
  8
10
 10
-37.55604553222656
 20
-154.5897521972656
  0
VERTEX
  8
10
 10
-38.00911712646484
 20
-157.3081970214844
  0
VERTEX
  8
10
 10
-38.33584594726563
 20
-157.6200714111328
  0
VERTEX
  8
10
 10
-38.77067565917969
 20
-157.0113067626953
  0
VERTEX
  8
10
 10
-38.326416015625
 20
-154.3457489013672
  0
VERTEX
  8
10
 10
-37.97490692138672
 20
-154.0655059814453
  0
VERTEX
  8
10
 10
-37.55604553222656
 20
-154.5897521972656
  0
SEQEND
  8
10
  0
POLYLINE
  8
10
  6
CONTINUOUS
 66
     1
 70
     0
 40
0.0
 41
0.0
  0
VERTEX
  8
10
 10
-37.5340461730957
 20
-153.7140045166016
  0
VERTEX
  8
10
 10
-34.10547637939453
 20
-153.7140045166016
  0
VERTEX
  8
10
 10
-33.93465805053711
 20
-153.9531555175781
  0
VERTEX
  8
10
 10
-34.63810729980469
 20
-154.5140075683594
  0
VERTEX
  8
10
 10
-37.47027587890625
 20
-154.5140075683594
  0
VERTEX
  8
10
 10
-37.88554763793945
 20
-153.9942474365234
  0
VERTEX
  8
10
 10
-37.5340461730957
 20
-153.7140045166016
  0
SEQEND
  8
10
  0
POLYLINE
  8
10
  6
CONTINUOUS
 66
     1
 70
     0
 40
0.0
 41
0.0
  0
VERTEX
  8
10
 10
-33.69731521606445
 20
-154.2854461669922
  0
VERTEX
  8
10
 10
-34.16063690185547
 20
-157.0653533935547
  0
VERTEX
  8
10
 10
-34.75665664672852
 20
-157.6342926025391
  0
VERTEX
  8
10
 10
-35.00787734985352
 20
-157.2825927734375
  0
VERTEX
  8
10
 10
-34.56048583984375
 20
-154.5982818603516
  0
VERTEX
  8
10
 10
-33.86813735961914
 20
-154.0462799072266
  0
VERTEX
  8
10
 10
-33.69731521606445
 20
-154.2854461669922
  0
SEQEND
  8
10
  0
POLYLINE
  8
10
  6
CONTINUOUS
 66
     1
 70
     0
 40
0.0
 41
0.0
  0
VERTEX
  8
10
 10
-37.84969711303711
 20
-157.3140106201172
  0
VERTEX
  8
10
 10
-35.12587738037109
 20
-157.3140106201172
  0
VERTEX
  8
10
 10
-34.84016799926758
 20
-157.7140045166016
  0
VERTEX
  8
10
 10
-35.25921630859375
 20
-158.1139984130859
  0
VERTEX
  8
10
 10
-37.98302459716797
 20
-158.1139984130859
  0
VERTEX
  8
10
 10
-38.26874542236328
 20
-157.7140045166016
  0
VERTEX
  8
10
 10
-37.84969711303711
 20
-157.3140106201172
  0
SEQEND
  8
10
  0
POLYLINE
  8
10
  6
CONTINUOUS
 66
     1
 70
     0
 40
0.0
 41
0.0
  0
VERTEX
  8
10
 10
-39.41931533813477
 20
-160.9031982421875
  0
VERTEX
  8
10
 10
-39.00490570068359
 20
-158.4167022705078
  0
VERTEX
  8
10
 10
-38.35224533081055
 20
-157.7937164306641
  0
VERTEX
  8
10
 10
-38.13964462280273
 20
-158.0913543701172
  0
VERTEX
  8
10
 10
-38.59639739990234
 20
-160.8318634033203
  0
VERTEX
  8
10
 10
-39.1629753112793
 20
-161.2620849609375
  0
VERTEX
  8
10
 10
-39.41931533813477
 20
-160.9031982421875
  0
SEQEND
  8
10
  0
POLYLINE
  8
10
  6
CONTINUOUS
 66
     1
 70
     0
 40
0.0
 41
0.0
  0
VERTEX
  8
10
 10
-38.51559448242188
 20
-160.9140014648438
  0
VERTEX
  8
10
 10
-35.69055557250977
 20
-160.9140014648438
  0
VERTEX
  8
10
 10
-35.16979598999023
 20
-161.4832000732422
  0
VERTEX
  8
10
 10
-35.41159820556641
 20
-161.7140045166016
  0
VERTEX
  8
10
 10
-38.84016799926758
 20
-161.7140045166016
  0
VERTEX
  8
10
 10
-39.09651565551758
 20
-161.3551177978516
  0
VERTEX
  8
10
 10
-38.51559448242188
 20
-160.9140014648438
  0
SEQEND
  8
10
  0
POLYLINE
  8
10
  6
CONTINUOUS
 66
     1
 70
     0
 40
0.0
 41
0.0
  0
VERTEX
  8
10
 10
-35.60117721557617
 20
-160.8423919677734
  0
VERTEX
  8
10
 10
-35.15642547607422
 20
-158.1738739013672
  0
VERTEX
  8
10
 10
-34.77306747436523
 20
-157.8079528808594
  0
VERTEX
  8
10
 10
-34.37684631347656
 20
-158.3626556396484
  0
VERTEX
  8
10
 10
-34.84531784057617
 20
-161.1734619140625
  0
VERTEX
  8
10
 10
-35.08711624145508
 20
-161.4042663574219
  0
VERTEX
  8
10
 10
-35.60117721557617
 20
-160.8423919677734
  0
SEQEND
  8
10
  0
POLYLINE
  8
10
  6
CONTINUOUS
 66
     1
 70
     0
 40
0.0
 41
0.0
  0
VERTEX
  8
10
 10
-34.30596542358398
 20
-161.3419036865234
 42
0.9999999999999999
  0
VERTEX
  8
10
 10
-33.50594711303711
 20
-161.3419036865234
 42
0.9999999999999999
  0
VERTEX
  8
10
 10
-34.30594635009766
 20
-161.3419036865234
  0
SEQEND
  8
10
  0
POLYLINE
  8
10
  6
CONTINUOUS
 66
     1
 70
     0
 40
0.0
 41
0.0
  0
VERTEX
  8
10
 10
-30.55604553222656
 20
-154.5897521972656
  0
VERTEX
  8
10
 10
-31.00911712646484
 20
-157.3081970214844
  0
VERTEX
  8
10
 10
-31.33584594726563
 20
-157.6200714111328
  0
VERTEX
  8
10
 10
-31.77067565917969
 20
-157.0113067626953
  0
VERTEX
  8
10
 10
-31.326416015625
 20
-154.3457489013672
  0
VERTEX
  8
10
 10
-30.97490692138672
 20
-154.0655059814453
  0
VERTEX
  8
10
 10
-30.55604553222656
 20
-154.5897521972656
  0
SEQEND
  8
10
  0
POLYLINE
  8
10
  6
CONTINUOUS
 66
     1
 70
     0
 40
0.0
 41
0.0
  0
VERTEX
  8
10
 10
-30.5340461730957
 20
-153.7140045166016
  0
VERTEX
  8
10
 10
-27.10547637939453
 20
-153.7140045166016
  0
VERTEX
  8
10
 10
-26.93465805053711
 20
-153.9531555175781
  0
VERTEX
  8
10
 10
-27.63810729980469
 20
-154.5140075683594
  0
VERTEX
  8
10
 10
-30.47027587890625
 20
-154.5140075683594
  0
VERTEX
  8
10
 10
-30.88554763793945
 20
-153.9942474365234
  0
VERTEX
  8
10
 10
-30.5340461730957
 20
-153.7140045166016
  0
SEQEND
  8
10
  0
POLYLINE
  8
10
  6
CONTINUOUS
 66
     1
 70
     0
 40
0.0
 41
0.0
  0
VERTEX
  8
10
 10
-26.69731521606445
 20
-154.2854461669922
  0
VERTEX
  8
10
 10
-27.16063690185547
 20
-157.0653533935547
  0
VERTEX
  8
10
 10
-27.75665664672852
 20
-157.6342926025391
  0
VERTEX
  8
10
 10
-28.00787734985352
 20
-157.2825927734375
  0
VERTEX
  8
10
 10
-27.56048583984375
 20
-154.5982818603516
  0
VERTEX
  8
10
 10
-26.86813735961914
 20
-154.0462799072266
  0
VERTEX
  8
10
 10
-26.69731521606445
 20
-154.2854461669922
  0
SEQEND
  8
10
  0
POLYLINE
  8
10
  6
CONTINUOUS
 66
     1
 70
     0
 40
0.0
 41
0.0
  0
VERTEX
  8
10
 10
-30.84969711303711
 20
-157.3140106201172
  0
VERTEX
  8
10
 10
-28.12588500976563
 20
-157.3140106201172
  0
VERTEX
  8
10
 10
-27.84016799926758
 20
-157.7140045166016
  0
VERTEX
  8
10
 10
-28.25921630859375
 20
-158.1139984130859
  0
VERTEX
  8
10
 10
-30.98303604125977
 20
-158.1139984130859
  0
VERTEX
  8
10
 10
-31.26874542236328
 20
-157.7140045166016
  0
VERTEX
  8
10
 10
-30.84969711303711
 20
-157.3140106201172
  0
SEQEND
  8
10
  0
POLYLINE
  8
10
  6
CONTINUOUS
 66
     1
 70
     0
 40
0.0
 41
0.0
  0
VERTEX
  8
10
 10
-32.41931533813477
 20
-160.9031982421875
  0
VERTEX
  8
10
 10
-32.00490570068359
 20
-158.4167022705078
  0
VERTEX
  8
10
 10
-31.35224533081055
 20
-157.7937164306641
  0
VERTEX
  8
10
 10
-31.13964462280273
 20
-158.0913543701172
  0
VERTEX
  8
10
 10
-31.59639739990234
 20
-160.8318634033203
  0
VERTEX
  8
10
 10
-32.1629753112793
 20
-161.2620849609375
  0
VERTEX
  8
10
 10
-32.41931533813477
 20
-160.9031982421875
  0
SEQEND
  8
10
  0
POLYLINE
  8
10
  6
CONTINUOUS
 66
     1
 70
     0
 40
0.0
 41
0.0
  0
VERTEX
  8
10
 10
-31.51559448242188
 20
-160.9140014648438
  0
VERTEX
  8
10
 10
-28.69055557250977
 20
-160.9140014648438
  0
VERTEX
  8
10
 10
-28.16979598999023
 20
-161.4832000732422
  0
VERTEX
  8
10
 10
-28.41159820556641
 20
-161.7140045166016
  0
VERTEX
  8
10
 10
-31.84016799926758
 20
-161.7140045166016
  0
VERTEX
  8
10
 10
-32.09651565551758
 20
-161.3551177978516
  0
VERTEX
  8
10
 10
-31.51559448242188
 20
-160.9140014648438
  0
SEQEND
  8
10
  0
POLYLINE
  8
10
  6
CONTINUOUS
 66
     1
 70
     0
 40
0.0
 41
0.0
  0
VERTEX
  8
10
 10
-28.60117721557617
 20
-160.8423919677734
  0
VERTEX
  8
10
 10
-28.15642547607422
 20
-158.1738739013672
  0
VERTEX
  8
10
 10
-27.77306747436523
 20
-157.8079528808594
  0
VERTEX
  8
10
 10
-27.37684631347656
 20
-158.3626556396484
  0
VERTEX
  8
10
 10
-27.84531784057617
 20
-161.1734619140625
  0
VERTEX
  8
10
 10
-28.08711624145508
 20
-161.4042663574219
  0
VERTEX
  8
10
 10
-28.60117721557617
 20
-160.8423919677734
  0
SEQEND
  8
10
  0
POLYLINE
  8
10
  6
CONTINUOUS
 66
     1
 70
     0
 40
0.0
 41
0.0
  0
VERTEX
  8
10
 10
-27.30596542358398
 20
-161.3419036865234
 42
0.9999999999999999
  0
VERTEX
  8
10
 10
-26.50594711303711
 20
-161.3419036865234
 42
0.9999999999999999
  0
VERTEX
  8
10
 10
-27.30594635009766
 20
-161.3419036865234
  0
SEQEND
  8
10
  0
POLYLINE
  8
10
  6
CONTINUOUS
 66
     1
 70
     0
 40
0.0
 41
0.0
  0
VERTEX
  8
10
 10
-23.55604553222656
 20
-154.5897521972656
  0
VERTEX
  8
10
 10
-24.00911712646484
 20
-157.3081970214844
  0
VERTEX
  8
10
 10
-24.33584594726563
 20
-157.6200714111328
  0
VERTEX
  8
10
 10
-24.77067565917969
 20
-157.0113067626953
  0
VERTEX
  8
10
 10
-24.326416015625
 20
-154.3457489013672
  0
VERTEX
  8
10
 10
-23.97490692138672
 20
-154.0655059814453
  0
VERTEX
  8
10
 10
-23.55604553222656
 20
-154.5897521972656
  0
SEQEND
  8
10
  0
POLYLINE
  8
10
  6
CONTINUOUS
 66
     1
 70
     0
 40
0.0
 41
0.0
  0
VERTEX
  8
10
 10
-23.5340461730957
 20
-153.7140045166016
  0
VERTEX
  8
10
 10
-20.10547637939453
 20
-153.7140045166016
  0
VERTEX
  8
10
 10
-19.93465805053711
 20
-153.9531555175781
  0
VERTEX
  8
10
 10
-20.63810729980469
 20
-154.5140075683594
  0
VERTEX
  8
10
 10
-23.47027587890625
 20
-154.5140075683594
  0
VERTEX
  8
10
 10
-23.88554763793945
 20
-153.9942474365234
  0
VERTEX
  8
10
 10
-23.5340461730957
 20
-153.7140045166016
  0
SEQEND
  8
10
  0
POLYLINE
  8
10
  6
CONTINUOUS
 66
     1
 70
     0
 40
0.0
 41
0.0
  0
VERTEX
  8
10
 10
-19.69731521606445
 20
-154.2854461669922
  0
VERTEX
  8
10
 10
-20.16063690185547
 20
-157.0653533935547
  0
VERTEX
  8
10
 10
-20.75665664672852
 20
-157.6342926025391
  0
VERTEX
  8
10
 10
-21.00787734985352
 20
-157.2825927734375
  0
VERTEX
  8
10
 10
-20.56048583984375
 20
-154.5982818603516
  0
VERTEX
  8
10
 10
-19.86813735961914
 20
-154.0462799072266
  0
VERTEX
  8
10
 10
-19.69731521606445
 20
-154.2854461669922
  0
SEQEND
  8
10
  0
POLYLINE
  8
10
  6
CONTINUOUS
 66
     1
 70
     0
 40
0.0
 41
0.0
  0
VERTEX
  8
10
 10
-23.84969711303711
 20
-157.3140106201172
  0
VERTEX
  8
10
 10
-21.12588500976563
 20
-157.3140106201172
  0
VERTEX
  8
10
 10
-20.84016799926758
 20
-157.7140045166016
  0
VERTEX
  8
10
 10
-21.25921630859375
 20
-158.1139984130859
  0
VERTEX
  8
10
 10
-23.98303604125977
 20
-158.1139984130859
  0
VERTEX
  8
10
 10
-24.26874542236328
 20
-157.7140045166016
  0
VERTEX
  8
10
 10
-23.84969711303711
 20
-157.3140106201172
  0
SEQEND
  8
10
  0
POLYLINE
  8
10
  6
CONTINUOUS
 66
     1
 70
     0
 40
0.0
 41
0.0
  0
VERTEX
  8
10
 10
-25.41931533813477
 20
-160.9031982421875
  0
VERTEX
  8
10
 10
-25.00490570068359
 20
-158.4167022705078
  0
VERTEX
  8
10
 10
-24.35224533081055
 20
-157.7937164306641
  0
VERTEX
  8
10
 10
-24.13964462280273
 20
-158.0913543701172
  0
VERTEX
  8
10
 10
-24.59639739990234
 20
-160.8318634033203
  0
VERTEX
  8
10
 10
-25.1629753112793
 20
-161.2620849609375
  0
VERTEX
  8
10
 10
-25.41931533813477
 20
-160.9031982421875
  0
SEQEND
  8
10
  0
POLYLINE
  8
10
  6
CONTINUOUS
 66
     1
 70
     0
 40
0.0
 41
0.0
  0
VERTEX
  8
10
 10
-24.51559448242188
 20
-160.9140014648438
  0
VERTEX
  8
10
 10
-21.69055557250977
 20
-160.9140014648438
  0
VERTEX
  8
10
 10
-21.16979598999023
 20
-161.4832000732422
  0
VERTEX
  8
10
 10
-21.41159820556641
 20
-161.7140045166016
  0
VERTEX
  8
10
 10
-24.84016799926758
 20
-161.7140045166016
  0
VERTEX
  8
10
 10
-25.09651565551758
 20
-161.3551177978516
  0
VERTEX
  8
10
 10
-24.51559448242188
 20
-160.9140014648438
  0
SEQEND
  8
10
  0
POLYLINE
  8
10
  6
CONTINUOUS
 66
     1
 70
     0
 40
0.0
 41
0.0
  0
VERTEX
  8
10
 10
-21.60117721557617
 20
-160.8423919677734
  0
VERTEX
  8
10
 10
-21.15642547607422
 20
-158.1738739013672
  0
VERTEX
  8
10
 10
-20.77306747436523
 20
-157.8079528808594
  0
VERTEX
  8
10
 10
-20.37684631347656
 20
-158.3626556396484
  0
VERTEX
  8
10
 10
-20.84531784057617
 20
-161.1734619140625
  0
VERTEX
  8
10
 10
-21.08711624145508
 20
-161.4042663574219
  0
VERTEX
  8
10
 10
-21.60117721557617
 20
-160.8423919677734
  0
SEQEND
  8
10
  0
POLYLINE
  8
10
  6
CONTINUOUS
 66
     1
 70
     0
 40
0.0
 41
0.0
  0
VERTEX
  8
10
 10
-20.30596542358398
 20
-161.3419036865234
 42
0.9999999999999999
  0
VERTEX
  8
10
 10
-19.50594711303711
 20
-161.3419036865234
 42
0.9999999999999999
  0
VERTEX
  8
10
 10
-20.30594635009766
 20
-161.3419036865234
  0
SEQEND
  8
10
  0
CIRCLE
  8
14
  6
CONTINUOUS
 10
56.03397523304068
 20
-155.7139988167341
 40
1.5
  0
CIRCLE
  8
14
  6
CONTINUOUS
 10
66.03397523304068
 20
-155.7139988167341
 40
1.5
  0
CIRCLE
  8
14
  6
CONTINUOUS
 10
76.03397523304068
 20
-155.7139988167341
 40
1.5
  0
CIRCLE
  8
14
  6
CONTINUOUS
 10
86.03397523304068
 20
-155.7139988167341
 40
1.5
  0
CIRCLE
  8
14
  6
CONTINUOUS
 10
96.03397523304068
 20
-155.7139988167341
 40
1.5
  0
CIRCLE
  8
14
  6
CONTINUOUS
 10
106.0339752330407
 20
-155.7139988167341
 40
1.5
  0
LINE
  8
14
  6
CONTINUOUS
 10
217.6238451765407
 20
-277.7139988167341
 11
217.6238451765407
 21
-147.7139988167341
  0
LINE
  8
14
  6
CONTINUOUS
 10
219.2238451765407
 20
-277.7139988167341
 11
219.2238451765407
 21
-147.7139988167341
  0
LINE
  8
14
  6
CONTINUOUS
 10
217.6238451765407
 20
-147.7139988167341
 11
219.2238451765407
 21
-147.7139988167341
  0
LINE
  8
14
  6
CONTINUOUS
 10
217.6238451765407
 20
-277.7139988167341
 11
219.2238451765407
 21
-277.7139988167341
  0
LINE
  8
14
  6
CONTINUOUS
 10
-9.466024766969326
 20
-160.2139988167341
 11
-9.466024766969326
 21
-155.2139988167341
  0
LINE
  8
14
  6
CONTINUOUS
 10
-9.466024766969326
 20
-155.2139988167341
 11
-4.466024766969326
 21
-155.2139988167341
  0
LINE
  8
14
  6
CONTINUOUS
 10
-4.466024766969326
 20
-160.2139988167341
 11
-4.466024766969326
 21
-155.2139988167341
  0
LINE
  8
14
  6
CONTINUOUS
 10
-9.466024766969326
 20
-160.2139988167341
 11
-4.466024766969326
 21
-160.2139988167341
  0
LINE
  8
14
  6
CONTINUOUS
 10
0.5339752330306737
 20
-160.2139988167341
 11
0.5339752330306737
 21
-155.2139988167341
  0
LINE
  8
14
  6
CONTINUOUS
 10
0.5339752330306737
 20
-155.2139988167341
 11
5.533975233030674
 21
-155.2139988167341
  0
LINE
  8
14
  6
CONTINUOUS
 10
5.533975233030674
 20
-160.2139988167341
 11
5.533975233030674
 21
-155.2139988167341
  0
LINE
  8
14
  6
CONTINUOUS
 10
0.5339752330306737
 20
-160.2139988167341
 11
5.533975233030674
 21
-160.2139988167341
  0
LINE
  8
14
  6
CONTINUOUS
 10
10.53397523303067
 20
-160.2139988167341
 11
10.53397523303067
 21
-155.2139988167341
  0
LINE
  8
14
  6
CONTINUOUS
 10
10.53397523303067
 20
-155.2139988167341
 11
15.53397523303067
 21
-155.2139988167341
  0
LINE
  8
14
  6
CONTINUOUS
 10
15.53397523303067
 20
-160.2139988167341
 11
15.53397523303067
 21
-155.2139988167341
  0
LINE
  8
14
  6
CONTINUOUS
 10
10.53397523303067
 20
-160.2139988167341
 11
15.53397523303067
 21
-160.2139988167341
  0
LINE
  8
14
  6
CONTINUOUS
 10
20.53397523303067
 20
-160.2139988167341
 11
20.53397523303067
 21
-155.2139988167341
  0
LINE
  8
14
  6
CONTINUOUS
 10
20.53397523303067
 20
-155.2139988167341
 11
25.53397523303067
 21
-155.2139988167341
  0
LINE
  8
14
  6
CONTINUOUS
 10
25.53397523303067
 20
-160.2139988167341
 11
25.53397523303067
 21
-155.2139988167341
  0
LINE
  8
14
  6
CONTINUOUS
 10
20.53397523303067
 20
-160.2139988167341
 11
25.53397523303067
 21
-160.2139988167341
  0
LINE
  8
14
  6
CONTINUOUS
 10
30.53397523304068
 20
-160.2139988167341
 11
30.53397523304068
 21
-155.2139988167341
  0
LINE
  8
14
  6
CONTINUOUS
 10
30.53397523304068
 20
-155.2139988167341
 11
35.53397523304068
 21
-155.2139988167341
  0
LINE
  8
14
  6
CONTINUOUS
 10
35.53397523304068
 20
-160.2139988167341
 11
35.53397523304068
 21
-155.2139988167341
  0
LINE
  8
14
  6
CONTINUOUS
 10
30.53397523304068
 20
-160.2139988167341
 11
35.53397523304068
 21
-160.2139988167341
  0
LINE
  8
14
  6
CONTINUOUS
 10
-69.96602476696633
 20
-264.7139988167341
 11
-65.96602476696633
 21
-264.7139988167341
  0
LINE
  8
14
  6
CONTINUOUS
 10
-69.96602476696633
 20
-248.2139988167341
 11
-69.96602476696633
 21
-242.7139988167341
  0
LINE
  8
14
  6
CONTINUOUS
 10
-69.96602476696633
 20
-242.7139988167341
 11
-65.96602476696633
 21
-242.7139988167341
  0
LINE
  8
14
  6
CONTINUOUS
 10
-69.96602476696633
 20
-264.7139988167341
 11
-69.96602476696633
 21
-259.2139988167341
  0
LINE
  8
14
  6
CONTINUOUS
 10
-65.96602476696633
 20
-248.2139988167341
 11
-65.96602476696633
 21
-242.7139988167341
  0
LINE
  8
14
  6
CONTINUOUS
 10
-65.96602476696633
 20
-259.2139988167341
 11
-65.96602476696633
 21
-264.7139988167341
  0
LINE
  8
14
  6
CONTINUOUS
 10
-65.96602476696633
 20
-222.7139988167341
 11
-65.96602476696633
 21
-187.7139988167341
  0
LINE
  8
14
  6
CONTINUOUS
 10
-65.96602476696633
 20
-222.7139988167341
 11
-20.96602476696933
 21
-222.7139988167341
  0
LINE
  8
14
  6
CONTINUOUS
 10
-20.96602476696933
 20
-222.7139988167341
 11
-20.96602476696933
 21
-187.7139988167341
  0
LINE
  8
14
  6
CONTINUOUS
 10
-65.96602476696633
 20
-187.7139988167341
 11
-20.96602476696933
 21
-187.7139988167341
  0
LINE
  8
14
  6
CONTINUOUS
 10
-60.96602476696933
 20
-183.7139988167341
 11
-33.46602476696933
 21
-183.7139988167341
  0
LINE
  8
14
  6
CONTINUOUS
 10
-60.96602476696933
 20
-183.7139988167341
 11
-60.96602476696933
 21
-165.7139988167341
  0
LINE
  8
14
  6
CONTINUOUS
 10
-60.96602476696933
 20
-165.7139988167341
 11
-33.46602476696933
 21
-165.7139988167341
  0
LINE
  8
14
  6
CONTINUOUS
 10
-33.46602476696933
 20
-183.7139988167341
 11
-33.46602476696933
 21
-165.7139988167341
  0
LINE
  8
14
  6
CONTINUOUS
 10
-12.46602476696933
 20
-199.7139988167341
 11
-12.46602476696933
 21
-188.2139988167341
  0
LINE
  8
14
  6
CONTINUOUS
 10
5.033975233030674
 20
-199.7139988167341
 11
5.033975233030674
 21
-188.2139988167341
  0
LINE
  8
14
  6
CONTINUOUS
 10
-12.46602476696933
 20
-188.2139988167341
 11
5.033975233030674
 21
-188.2139988167341
  0
LINE
  8
14
  6
CONTINUOUS
 10
-12.46602476696933
 20
-199.7139988167341
 11
5.033975233030674
 21
-199.7139988167341
  0
LINE
  8
14
  6
CONTINUOUS
 10
64.53397523304068
 20
-179.7139988167341
 11
64.53397523304068
 21
-162.2139988167341
  0
LINE
  8
14
  6
CONTINUOUS
 10
29.03397523304068
 20
-162.2139988167341
 11
64.53397523304068
 21
-162.2139988167341
  0
LINE
  8
14
  6
CONTINUOUS
 10
29.03397523304068
 20
-179.7139988167341
 11
64.53397523304068
 21
-179.7139988167341
  0
CIRCLE
  8
14
  6
CONTINUOUS
 10
78.03397523304068
 20
-190.2139988167341
 40
11.5
  0
ARC
  8
14
  6
CONTINUOUS
 10
29.03397523304068
 20
-170.9639988167341
 40
1.25
 50
270.0
 51
90.0
  0
LINE
  8
14
  6
CONTINUOUS
 10
29.03397523304068
 20
-169.7139988167341
 11
29.03397523304068
 21
-162.2139988167341
  0
LINE
  8
14
  6
CONTINUOUS
 10
29.03397523304068
 20
-179.7139988167341
 11
29.03397523304068
 21
-172.2139988167341
  0
LINE
  8
14
  6
CONTINUOUS
 10
-8.466024766969326
 20
-231.7139988167341
 11
-8.466024766969326
 21
-224.2139988167341
  0
LINE
  8
14
  6
CONTINUOUS
 10
8.033975233030674
 20
-231.7139988167341
 11
8.033975233030674
 21
-224.2139988167341
  0
LINE
  8
14
  6
CONTINUOUS
 10
-4.716024766969326
 20
-234.7139988167341
 11
4.283975233030674
 21
-234.7139988167341
  0
LINE
  8
14
  6
CONTINUOUS
 10
-8.466024766969326
 20
-231.7139988167341
 11
8.033975233030674
 21
-231.7139988167341
  0
LINE
  8
14
  6
CONTINUOUS
 10
-8.466024766969326
 20
-224.2139988167341
 11
8.033975233030674
 21
-224.2139988167341
  0
LINE
  8
14
  6
CONTINUOUS
 10
-4.716024766969326
 20
-221.2139988167341
 11
4.283975233030674
 21
-221.2139988167341
  0
LINE
  8
14
  6
CONTINUOUS
 10
4.283975233030674
 20
-224.2139988167341
 11
4.283975233030674
 21
-221.2139988167341
  0
LINE
  8
14
  6
CONTINUOUS
 10
-4.716024766969326
 20
-224.2139988167341
 11
-4.716024766969326
 21
-221.2139988167341
  0
LINE
  8
14
  6
CONTINUOUS
 10
4.283975233030674
 20
-234.7139988167341
 11
4.283975233030674
 21
-231.7139988167341
  0
LINE
  8
14
  6
CONTINUOUS
 10
-4.716024766969326
 20
-234.7139988167341
 11
-4.716024766969326
 21
-231.7139988167341
  0
LINE
  8
14
  6
CONTINUOUS
 10
-69.46602476696633
 20
-259.2139988167341
 11
-69.46602476696633
 21
-248.2139988167341
  0
LINE
  8
14
  6
CONTINUOUS
 10
-66.46602476696633
 20
-248.2139988167341
 11
-66.46602476696633
 21
-259.2139988167341
  0
LINE
  8
14
  6
CONTINUOUS
 10
-68.96602476696633
 20
-243.7139988167341
 11
-66.96602476696633
 21
-243.7139988167341
  0
LINE
  8
14
  6
CONTINUOUS
 10
-68.96602476696633
 20
-263.7139988167341
 11
-66.96602476696633
 21
-263.7139988167341
  0
LINE
  8
14
  6
CONTINUOUS
 10
-69.46602476696633
 20
-258.7139988167341
 11
-66.46602476696633
 21
-258.7139988167341
  0
LINE
  8
14
  6
CONTINUOUS
 10
-69.46602476696633
 20
-248.7139988167341
 11
-66.46602476696633
 21
-248.7139988167341
  0
LINE
  8
14
  6
CONTINUOUS
 10
-68.96602476696633
 20
-264.7139988167341
 11
-68.96602476696633
 21
-259.2139988167341
  0
LINE
  8
14
  6
CONTINUOUS
 10
-66.96602476696633
 20
-259.2139988167341
 11
-66.96602476696633
 21
-264.7139988167341
  0
LINE
  8
14
  6
CONTINUOUS
 10
-68.96602476696633
 20
-248.2139988167341
 11
-68.96602476696633
 21
-242.7139988167341
  0
LINE
  8
14
  6
CONTINUOUS
 10
-66.96602476696633
 20
-248.2139988167341
 11
-66.96602476696633
 21
-242.7139988167341
  0
LINE
  8
14
  6
CONTINUOUS
 10
-66.96602476696633
 20
-248.2139988167341
 11
-65.96602476696633
 21
-248.2139988167341
  0
LINE
  8
14
  6
CONTINUOUS
 10
-66.96602476696633
 20
-259.2139988167341
 11
-65.96602476696633
 21
-259.2139988167341
  0
LINE
  8
14
  6
CONTINUOUS
 10
-69.96602476696633
 20
-259.2139988167341
 11
-68.96602476696633
 21
-259.2139988167341
  0
LINE
  8
14
  6
CONTINUOUS
 10
-69.96602476696633
 20
-248.2139988167341
 11
-68.96602476696633
 21
-248.2139988167341
  0
LINE
  8
14
  6
CONTINUOUS
 10
-73.96602476696631
 20
-277.7139988167341
 11
146.0339752330407
 21
-277.7139988167341
  0
LINE
  8
1
  6
CONTINUOUS
 10
146.0339752330407
 20
-277.7139988167341
 11
146.0339752330407
 21
-147.7139988167341
  0
LINE
  8
13
  6
CONTINUOUS
 10
27.91397446344067
 20
-266.7639988167341
 11
27.91397446344067
 21
-258.6639988167341
  0
LINE
  8
13
  6
CONTINUOUS
 10
27.91397446344067
 20
-258.6639988167341
 11
67.91397446344067
 21
-258.6639988167341
  0
LINE
  8
13
  6
CONTINUOUS
 10
27.91397446344067
 20
-266.7639988167341
 11
67.91397446344067
 21
-266.7639988167341
  0
LINE
  8
13
  6
CONTINUOUS
 10
67.91397446344067
 20
-266.7639988167341
 11
67.91397446344067
 21
-258.6639988167341
  0
LINE
  8
13
  6
CONTINUOUS
 10
70.93397446344066
 20
-258.6639988167341
 11
85.93397446344066
 21
-258.6639988167341
  0
LINE
  8
13
  6
CONTINUOUS
 10
70.93397446344066
 20
-266.7639988167341
 11
70.93397446344066
 21
-258.6639988167341
  0
LINE
  8
13
  6
CONTINUOUS
 10
71.04397446344066
 20
-266.7639988167341
 11
86.04397446344066
 21
-266.7639988167341
  0
LINE
  8
13
  6
CONTINUOUS
 10
85.93397446344066
 20
-266.7639988167341
 11
85.93397446344066
 21
-258.6639988167341
  0
CIRCLE
  8
16
  6
CONTINUOUS
 10
91.14748038020089
 20
-267.6731545763777
 40
2.5
  0
CIRCLE
  8
16
  6
CONTINUOUS
 10
101.1487483769108
 20
-267.717552507558
 40
2.5
  0
CIRCLE
  8
14
  6
CONTINUOUS
 10
55.41397600264067
 20
-262.7639988167341
 40
1.5
  0
LINE
  8
14
  6
CONTINUOUS
 10
53.41397600264067
 20
-266.8139988167341
 11
53.41397600264067
 21
-265.8139988167341
  0
LINE
  8
14
  6
CONTINUOUS
 10
57.41397600264067
 20
-266.8139988167341
 11
57.41397600264067
 21
-265.8139988167341
  0
LINE
  8
14
  6
CONTINUOUS
 10
54.00810715684067
 20
-263.2870024386341
 11
56.56984484834067
 21
-261.8079824929341
  0
LINE
  8
14
  6
CONTINUOUS
 10
54.25810715684067
 20
-263.7200151405341
 11
56.81984484834067
 21
-262.2409951948341
  0
LINE
  8
14
  6
CONTINUOUS
 10
53.41397600264067
 20
-265.8139988167341
 11
57.41397600264067
 21
-265.8139988167341
  0
CIRCLE
  8
14
  6
CONTINUOUS
 10
60.41397677224067
 20
-262.7639988167341
 40
1.5
  0
CIRCLE
  8
14
  6
CONTINUOUS
 10
65.41397677224067
 20
-262.7639988167341
 40
1.5
  0
LINE
  8
14
  6
CONTINUOUS
 10
58.41397677224067
 20
-266.8139988167341
 11
58.41397677224067
 21
-265.8139988167341
  0
LINE
  8
14
  6
CONTINUOUS
 10
62.41397677224067
 20
-266.8139988167341
 11
62.41397677224067
 21
-265.8139988167341
  0
LINE
  8
14
  6
CONTINUOUS
 10
63.41397677224067
 20
-266.8139988167341
 11
63.41397677224067
 21
-265.8139988167341
  0
LINE
  8
14
  6
CONTINUOUS
 10
67.41397677224067
 20
-266.8139988167341
 11
67.41397677224067
 21
-265.8139988167341
  0
LINE
  8
14
  6
CONTINUOUS
 10
64.00810792644067
 20
-263.2870024386341
 11
66.56984561794067
 21
-261.8079824929341
  0
LINE
  8
14
  6
CONTINUOUS
 10
59.00810792644067
 20
-263.2870024386341
 11
61.56984561794067
 21
-261.8079824929341
  0
LINE
  8
14
  6
CONTINUOUS
 10
59.25810792644067
 20
-263.7200151405341
 11
61.81984561794067
 21
-262.2409951948341
  0
LINE
  8
14
  6
CONTINUOUS
 10
64.25810792644067
 20
-263.7200151405341
 11
66.81984561794067
 21
-262.2409951948341
  0
LINE
  8
14
  6
CONTINUOUS
 10
58.41397677224067
 20
-265.8139988167341
 11
62.41397677224067
 21
-265.8139988167341
  0
LINE
  8
14
  6
CONTINUOUS
 10
63.41397677224067
 20
-265.8139988167341
 11
67.41397677224067
 21
-265.8139988167341
  0
CIRCLE
  8
14
  6
CONTINUOUS
 10
45.41397600264067
 20
-262.7639988167341
 40
1.5
  0
CIRCLE
  8
14
  6
CONTINUOUS
 10
50.41397600264067
 20
-262.7639988167341
 40
1.5
  0
LINE
  8
14
  6
CONTINUOUS
 10
43.41397600264067
 20
-266.8139988167341
 11
43.41397600264067
 21
-265.8139988167341
  0
LINE
  8
14
  6
CONTINUOUS
 10
47.41397600264067
 20
-266.8139988167341
 11
47.41397600264067
 21
-265.8139988167341
  0
LINE
  8
14
  6
CONTINUOUS
 10
48.41397600264067
 20
-266.8139988167341
 11
48.41397600264067
 21
-265.8139988167341
  0
LINE
  8
14
  6
CONTINUOUS
 10
52.41397600264067
 20
-266.8139988167341
 11
52.41397600264067
 21
-265.8139988167341
  0
LINE
  8
14
  6
CONTINUOUS
 10
49.00810715684067
 20
-263.2870024386341
 11
51.56984484834067
 21
-261.8079824929341
  0
LINE
  8
14
  6
CONTINUOUS
 10
44.00810715684067
 20
-263.2870024386341
 11
46.56984484834067
 21
-261.8079824929341
  0
LINE
  8
14
  6
CONTINUOUS
 10
44.25810715684067
 20
-263.7200151405341
 11
46.81984484834067
 21
-262.2409951948341
  0
LINE
  8
14
  6
CONTINUOUS
 10
49.25810715684067
 20
-263.7200151405341
 11
51.81984484834067
 21
-262.2409951948341
  0
LINE
  8
14
  6
CONTINUOUS
 10
43.41397600264067
 20
-265.8139988167341
 11
47.41397600264067
 21
-265.8139988167341
  0
LINE
  8
14
  6
CONTINUOUS
 10
48.41397600264067
 20
-265.8139988167341
 11
52.41397600264067
 21
-265.8139988167341
  0
CIRCLE
  8
14
  6
CONTINUOUS
 10
73.43443127903437
 20
-262.7639988167341
 40
1.5
  0
CIRCLE
  8
14
  6
CONTINUOUS
 10
78.43443127903437
 20
-262.7639988167341
 40
1.5
  0
LINE
  8
14
  6
CONTINUOUS
 10
71.43443127903437
 20
-266.8139988167341
 11
71.43443127903437
 21
-265.8139988167341
  0
LINE
  8
14
  6
CONTINUOUS
 10
75.43443127903437
 20
-266.8139988167341
 11
75.43443127903437
 21
-265.8139988167341
  0
LINE
  8
14
  6
CONTINUOUS
 10
76.43443127903437
 20
-266.8139988167341
 11
76.43443127903437
 21
-265.8139988167341
  0
LINE
  8
14
  6
CONTINUOUS
 10
80.43443127903437
 20
-266.8139988167341
 11
80.43443127903437
 21
-265.8139988167341
  0
LINE
  8
14
  6
CONTINUOUS
 10
77.02856243323437
 20
-263.2870024386341
 11
79.59030012473437
 21
-261.8079824929341
  0
LINE
  8
14
  6
CONTINUOUS
 10
72.02856243323437
 20
-263.2870024386341
 11
74.59030012473437
 21
-261.8079824929341
  0
LINE
  8
14
  6
CONTINUOUS
 10
72.27856243323437
 20
-263.7200151405341
 11
74.84030012473437
 21
-262.2409951948341
  0
LINE
  8
14
  6
CONTINUOUS
 10
77.27856243323437
 20
-263.7200151405341
 11
79.84030012473437
 21
-262.2409951948341
  0
LINE
  8
14
  6
CONTINUOUS
 10
71.43443127903437
 20
-265.8139988167341
 11
75.43443127903437
 21
-265.8139988167341
  0
LINE
  8
14
  6
CONTINUOUS
 10
76.43443127903437
 20
-265.8139988167341
 11
80.43443127903437
 21
-265.8139988167341
  0
CIRCLE
  8
14
  6
CONTINUOUS
 10
83.43443127903437
 20
-262.7639988167341
 40
1.5
  0
LINE
  8
14
  6
CONTINUOUS
 10
81.43443127903437
 20
-266.8139988167341
 11
81.43443127903437
 21
-265.8139988167341
  0
LINE
  8
14
  6
CONTINUOUS
 10
85.43443127903437
 20
-266.8139988167341
 11
85.43443127903437
 21
-265.8139988167341
  0
LINE
  8
14
  6
CONTINUOUS
 10
82.02856243323437
 20
-263.2870024386341
 11
84.59030012473437
 21
-261.8079824929341
  0
LINE
  8
14
  6
CONTINUOUS
 10
82.27856243323437
 20
-263.7200151405341
 11
84.84030012473437
 21
-262.2409951948341
  0
LINE
  8
14
  6
CONTINUOUS
 10
81.43443127903437
 20
-265.8139988167341
 11
85.43443127903437
 21
-265.8139988167341
  0
LINE
  8
13
  6
CONTINUOUS
 10
27.91397523304067
 20
-266.7639988167341
 11
27.91397523304067
 21
-258.6639988167341
  0
CIRCLE
  8
14
  6
CONTINUOUS
 10
30.41443204863438
 20
-262.7639988167341
 40
1.5
  0
CIRCLE
  8
14
  6
CONTINUOUS
 10
35.41443204863438
 20
-262.7639988167341
 40
1.5
  0
LINE
  8
14
  6
CONTINUOUS
 10
28.41443204863438
 20
-266.8139988167341
 11
28.41443204863438
 21
-265.8139988167341
  0
LINE
  8
14
  6
CONTINUOUS
 10
32.41443204863438
 20
-266.8139988167341
 11
32.41443204863438
 21
-265.8139988167341
  0
LINE
  8
14
  6
CONTINUOUS
 10
33.41443204863438
 20
-266.8139988167341
 11
33.41443204863438
 21
-265.8139988167341
  0
LINE
  8
14
  6
CONTINUOUS
 10
37.41443204863438
 20
-266.8139988167341
 11
37.41443204863438
 21
-265.8139988167341
  0
LINE
  8
14
  6
CONTINUOUS
 10
34.00856320283438
 20
-263.2870024386341
 11
36.57030089433438
 21
-261.8079824929341
  0
LINE
  8
14
  6
CONTINUOUS
 10
29.00856320283438
 20
-263.2870024386341
 11
31.57030089433438
 21
-261.8079824929341
  0
LINE
  8
14
  6
CONTINUOUS
 10
29.25856320283438
 20
-263.7200151405341
 11
31.82030089433438
 21
-262.2409951948341
  0
LINE
  8
14
  6
CONTINUOUS
 10
34.25856320283438
 20
-263.7200151405341
 11
36.82030089433438
 21
-262.2409951948341
  0
LINE
  8
14
  6
CONTINUOUS
 10
28.41443204863438
 20
-265.8139988167341
 11
32.41443204863438
 21
-265.8139988167341
  0
LINE
  8
14
  6
CONTINUOUS
 10
33.41443204863438
 20
-265.8139988167341
 11
37.41443204863438
 21
-265.8139988167341
  0
CIRCLE
  8
14
  6
CONTINUOUS
 10
40.41443204863438
 20
-262.7639988167341
 40
1.5
  0
LINE
  8
14
  6
CONTINUOUS
 10
38.41443204863438
 20
-266.8139988167341
 11
38.41443204863438
 21
-265.8139988167341
  0
LINE
  8
14
  6
CONTINUOUS
 10
42.41443204863438
 20
-266.8139988167341
 11
42.41443204863438
 21
-265.8139988167341
  0
LINE
  8
14
  6
CONTINUOUS
 10
39.00856320283438
 20
-263.2870024386341
 11
41.57030089433438
 21
-261.8079824929341
  0
LINE
  8
14
  6
CONTINUOUS
 10
39.25856320283438
 20
-263.7200151405341
 11
41.82030089433438
 21
-262.2409951948341
  0
LINE
  8
14
  6
CONTINUOUS
 10
38.41443204863438
 20
-265.8139988167341
 11
42.41443204863438
 21
-265.8139988167341
  0
LINE
  8
16
  6
CONTINUOUS
 10
130.6139744634407
 20
-272.2139988167341
 11
137.1139744634407
 21
-272.2139988167341
  0
LINE
  8
16
  6
CONTINUOUS
 10
130.6139744634407
 20
-275.2139988167341
 11
130.6139744634407
 21
-272.2139988167341
  0
LINE
  8
16
  6
CONTINUOUS
 10
112.6139744634407
 20
-275.2139988167341
 11
130.6139744634407
 21
-275.2139988167341
  0
LINE
  8
16
  6
CONTINUOUS
 10
112.6139744634407
 20
-275.2139988167341
 11
112.6139744634407
 21
-272.2139988167341
  0
LINE
  8
16
  6
CONTINUOUS
 10
106.1139744634407
 20
-272.2139988167341
 11
112.6139744634407
 21
-272.2139988167341
  0
LINE
  8
16
  6
CONTINUOUS
 10
106.1139744634407
 20
-265.2139988167341
 11
114.1139744634407
 21
-265.2139988167341
  0
LINE
  8
16
  6
CONTINUOUS
 10
129.1139744634407
 20
-265.2139988167341
 11
137.1139744634407
 21
-265.2139988167341
  0
LINE
  8
16
  6
CONTINUOUS
 10
114.1139744634407
 20
-266.7139988167341
 11
129.1139744634407
 21
-266.7139988167341
  0
LINE
  8
16
  6
CONTINUOUS
 10
129.1139744634407
 20
-275.2139988167341
 11
129.1139744634407
 21
-265.2139988167341
  0
LINE
  8
16
  6
CONTINUOUS
 10
114.1139744634407
 20
-275.2139988167341
 11
114.1139744634407
 21
-265.2139988167341
  0
LINE
  8
16
  6
CONTINUOUS
 10
137.1139744634407
 20
-278.2139988167341
 11
137.1139744634407
 21
-265.2139988167341
  0
LINE
  8
16
  6
CONTINUOUS
 10
106.1139744634407
 20
-278.2139988167341
 11
137.1139744634407
 21
-278.2139988167341
  0
LINE
  8
16
  6
CONTINUOUS
 10
106.1139744634407
 20
-278.2139988167341
 11
106.1139744634407
 21
-265.2139988167341
  0
LINE
  8
16
  6
CONTINUOUS
 10
110.5689744634407
 20
-283.2139988167341
 11
110.5689744634407
 21
-278.2139988167341
  0
LINE
  8
16
  6
CONTINUOUS
 10
107.6689744634407
 20
-283.2139988167341
 11
107.6689744634407
 21
-278.2139988167341
  0
LINE
  8
16
  6
CONTINUOUS
 10
132.6589744634407
 20
-283.2139988167341
 11
132.6589744634407
 21
-278.2139988167341
  0
LINE
  8
16
  6
CONTINUOUS
 10
135.5589744634407
 20
-283.2139988167341
 11
135.5589744634407
 21
-278.2139988167341
  0
LINE
  8
16
  6
CONTINUOUS
 10
136.7589744634407
 20
-283.2139988167341
 11
136.7589744634407
 21
-278.2139988167341
  0
LINE
  8
16
  6
CONTINUOUS
 10
131.4589744634407
 20
-283.2139988167341
 11
136.7589744634407
 21
-283.2139988167341
  0
LINE
  8
16
  6
CONTINUOUS
 10
131.4589744634407
 20
-283.2139988167341
 11
131.4589744634407
 21
-278.2139988167341
  0
LINE
  8
16
  6
CONTINUOUS
 10
111.7689744634407
 20
-283.2139988167341
 11
111.7689744634407
 21
-278.2139988167341
  0
LINE
  8
16
  6
CONTINUOUS
 10
106.4689744634407
 20
-283.2139988167341
 11
111.7689744634407
 21
-283.2139988167341
  0
LINE
  8
16
  6
CONTINUOUS
 10
106.4689744634407
 20
-283.2139988167341
 11
106.4689744634407
 21
-278.2139988167341
  0
LINE
  8
16
  6
CONTINUOUS
 10
112.8639744634407
 20
-284.2139988167341
 11
112.8639744634407
 21
-278.2139988167341
  0
LINE
  8
16
  6
CONTINUOUS
 10
112.8639744634407
 20
-284.2139988167341
 11
130.3639744634407
 21
-284.2139988167341
  0
LINE
  8
16
  6
CONTINUOUS
 10
130.3639744634407
 20
-284.2139988167341
 11
130.3639744634407
 21
-278.2139988167341
  0
LINE
  8
16
  6
CONTINUOUS
 10
205.1238451765407
 20
-277.7139988167341
 11
205.1238451765407
 21
-272.2139988167341
  0
LINE
  8
16
  6
CONTINUOUS
 10
215.6238451765407
 20
-265.2139988167341
 11
217.6238451765407
 21
-265.2139988167341
  0
LINE
  8
16
  6
CONTINUOUS
 10
207.5238451765407
 20
-266.7139988167341
 11
215.6238451765407
 21
-266.7139988167341
  0
LINE
  8
16
  6
CONTINUOUS
 10
207.5238451765407
 20
-272.2139988167341
 11
207.5238451765407
 21
-266.7139988167341
  0
LINE
  8
16
  6
CONTINUOUS
 10
205.1238451765407
 20
-272.2139988167341
 11
215.6238451765407
 21
-272.2139988167341
  0
LINE
  8
16
  6
CONTINUOUS
 10
215.6238451765407
 20
-272.2139988167341
 11
215.6238451765407
 21
-265.2139988167341
  0
LINE
  8
16
  6
CONTINUOUS
 10
206.9238451765407
 20
-284.2139988167341
 11
215.8238451765407
 21
-284.2139988167341
  0
LINE
  8
16
  6
CONTINUOUS
 10
206.9238451765407
 20
-284.2139988167341
 11
206.9238451765407
 21
-277.7139988167341
  0
LINE
  8
16
  6
CONTINUOUS
 10
215.8238451765407
 20
-284.2139988167341
 11
215.8238451765407
 21
-277.7139988167341
  0
LINE
  8
16
  6
CONTINUOUS
 10
209.1238451765407
 20
-283.2139988167341
 11
214.1238451765407
 21
-283.2139988167341
  0
LINE
  8
16
  6
CONTINUOUS
 10
209.1238451765407
 20
-283.2139988167341
 11
209.1238451765407
 21
-277.7139988167341
  0
LINE
  8
16
  6
CONTINUOUS
 10
214.1238451765407
 20
-283.2139988167341
 11
214.1238451765407
 21
-277.7139988167341
  0
LINE
  8
16
  6
CONTINUOUS
 10
211.6238451765407
 20
-283.2139988167341
 11
211.6238451765407
 21
-277.7139988167341
  0
LINE
  8
16
  6
CONTINUOUS
 10
205.1238451765407
 20
-277.7139988167341
 11
217.6238451765407
 21
-277.7139988167341
  0
LINE
  8
14
  6
CONTINUOUS
 10
-61.73392039605908
 20
-160.4099010884464
 11
-56.75099690755209
 21
-160.4099010884464
  0
LINE
  8
14
  6
CONTINUOUS
 10
-56.75099690755209
 20
-160.4099010884464
 11
-56.75099690755209
 21
-155.4110926994804
  0
LINE
  8
14
  6
CONTINUOUS
 10
-61.73392039605908
 20
-155.4110926994804
 11
-56.75099690755209
 21
-155.4110926994804
  0
LINE
  8
14
  6
CONTINUOUS
 10
-61.73392039605908
 20
-160.4099010884464
 11
-61.73392039605908
 21
-155.4110926994804
  0
INSERT
  8
4
  6
CONTINUOUS
  2
COMP1
 10
0.0
 20
0.0
 41
1.0
 42
1.0
 50
0.0
  0
INSERT
  8
4
  6
CONTINUOUS
  2
COMP2
 10
0.0
 20
0.0
 41
1.0
 42
1.0
 50
0.0
  0
INSERT
  8
4
  6
CONTINUOUS
  2
COMP3
 10
0.0
 20
0.0
 41
1.0
 42
1.0
 50
0.0
  0
INSERT
  8
4
  6
CONTINUOUS
  2
COMP4
 10
0.0
 20
0.0
 41
1.0
 42
1.0
 50
0.0
  0
INSERT
  8
4
  6
CONTINUOUS
  2
COMP5
 10
0.0
 20
0.0
 41
1.0
 42
1.0
 50
0.0
  0
INSERT
  8
4
  6
CONTINUOUS
  2
COMP6
 10
0.0
 20
0.0
 41
1.0
 42
1.0
 50
0.0
  0
INSERT
  8
4
  6
CONTINUOUS
  2
COMP7
 10
0.0
 20
0.0
 41
1.0
 42
1.0
 50
0.0
  0
INSERT
  8
4
  6
CONTINUOUS
  2
COMP8
 10
0.0
 20
0.0
 41
1.0
 42
1.0
 50
0.0
  0
INSERT
  8
4
  6
CONTINUOUS
  2
COMP9
 10
0.0
 20
0.0
 41
1.0
 42
1.0
 50
0.0
  0
INSERT
  8
4
  6
CONTINUOUS
  2
COMP10
 10
0.0
 20
0.0
 41
1.0
 42
1.0
 50
0.0
  0
INSERT
  8
4
  6
CONTINUOUS
  2
COMP11
 10
0.0
 20
0.0
 41
1.0
 42
1.0
 50
0.0
  0
INSERT
  8
4
  6
CONTINUOUS
  2
COMP12
 10
0.0
 20
0.0
 41
1.0
 42
1.0
 50
0.0
  0
INSERT
  8
4
  6
CONTINUOUS
  2
COMP13
 10
0.0
 20
0.0
 41
1.0
 42
1.0
 50
0.0
  0
INSERT
  8
4
  6
CONTINUOUS
  2
COMP14
 10
0.0
 20
0.0
 41
1.0
 42
1.0
 50
0.0
  0
INSERT
  8
4
  6
CONTINUOUS
  2
COMP15
 10
0.0
 20
0.0
 41
1.0
 42
1.0
 50
0.0
  0
INSERT
  8
4
  6
CONTINUOUS
  2
COMP16
 10
0.0
 20
0.0
 41
1.0
 42
1.0
 50
0.0
  0
INSERT
  8
4
  6
CONTINUOUS
  2
COMP17
 10
0.0
 20
0.0
 41
1.0
 42
1.0
 50
0.0
  0
INSERT
  8
4
  6
CONTINUOUS
  2
COMP18
 10
0.0
 20
0.0
 41
1.0
 42
1.0
 50
0.0
  0
INSERT
  8
4
  6
CONTINUOUS
  2
COMP19
 10
0.0
 20
0.0
 41
1.0
 42
1.0
 50
0.0
  0
INSERT
  8
4
  6
CONTINUOUS
  2
COMP20
 10
0.0
 20
0.0
 41
1.0
 42
1.0
 50
0.0
  0
INSERT
  8
4
  6
CONTINUOUS
  2
COMP21
 10
0.0
 20
0.0
 41
1.0
 42
1.0
 50
0.0
  0
INSERT
  8
4
  6
CONTINUOUS
  2
COMP22
 10
0.0
 20
0.0
 41
1.0
 42
1.0
 50
0.0
  0
INSERT
  8
4
  6
CONTINUOUS
  2
COMP23
 10
0.0
 20
0.0
 41
1.0
 42
1.0
 50
0.0
  0
INSERT
  8
4
  6
CONTINUOUS
  2
COMP24
 10
0.0
 20
0.0
 41
1.0
 42
1.0
 50
0.0
  0
INSERT
  8
4
  6
CONTINUOUS
  2
COMP25
 10
0.0
 20
0.0
 41
1.0
 42
1.0
 50
0.0
  0
INSERT
  8
4
  6
CONTINUOUS
  2
COMP26
 10
0.0
 20
0.0
 41
1.0
 42
1.0
 50
0.0
  0
INSERT
  8
4
  6
CONTINUOUS
  2
COMP27
 10
0.0
 20
0.0
 41
1.0
 42
1.0
 50
0.0
  0
INSERT
  8
4
  6
CONTINUOUS
  2
COMP28
 10
0.0
 20
0.0
 41
1.0
 42
1.0
 50
0.0
  0
INSERT
  8
4
  6
CONTINUOUS
  2
COMP29
 10
0.0
 20
0.0
 41
1.0
 42
1.0
 50
0.0
  0
INSERT
  8
4
  6
CONTINUOUS
  2
COMP30
 10
0.0
 20
0.0
 41
1.0
 42
1.0
 50
0.0
  0
INSERT
  8
4
  6
CONTINUOUS
  2
COMP31
 10
0.0
 20
0.0
 41
1.0
 42
1.0
 50
0.0
  0
INSERT
  8
4
  6
CONTINUOUS
  2
COMP32
 10
0.0
 20
0.0
 41
1.0
 42
1.0
 50
0.0
  0
INSERT
  8
4
  6
CONTINUOUS
  2
COMP33
 10
0.0
 20
0.0
 41
1.0
 42
1.0
 50
0.0
  0
INSERT
  8
4
  6
CONTINUOUS
  2
COMP34
 10
0.0
 20
0.0
 41
1.0
 42
1.0
 50
0.0
  0
INSERT
  8
4
  6
CONTINUOUS
  2
COMP35
 10
0.0
 20
0.0
 41
1.0
 42
1.0
 50
0.0
  0
INSERT
  8
4
  6
CONTINUOUS
  2
COMP36
 10
0.0
 20
0.0
 41
1.0
 42
1.0
 50
0.0
  0
INSERT
  8
4
  6
CONTINUOUS
  2
COMP37
 10
0.0
 20
0.0
 41
1.0
 42
1.0
 50
0.0
  0
INSERT
  8
4
  6
CONTINUOUS
  2
COMP38
 10
0.0
 20
0.0
 41
1.0
 42
1.0
 50
0.0
  0
INSERT
  8
4
  6
CONTINUOUS
  2
COMP39
 10
0.0
 20
0.0
 41
1.0
 42
1.0
 50
0.0
  0
INSERT
  8
4
  6
CONTINUOUS
  2
COMP40
 10
0.0
 20
0.0
 41
1.0
 42
1.0
 50
0.0
  0
INSERT
  8
4
  6
CONTINUOUS
  2
COMP41
 10
0.0
 20
0.0
 41
1.0
 42
1.0
 50
0.0
  0
INSERT
  8
4
  6
CONTINUOUS
  2
COMP42
 10
0.0
 20
0.0
 41
1.0
 42
1.0
 50
0.0
  0
INSERT
  8
4
  6
CONTINUOUS
  2
COMP43
 10
0.0
 20
0.0
 41
1.0
 42
1.0
 50
0.0
  0
INSERT
  8
4
  6
CONTINUOUS
  2
COMP44
 10
0.0
 20
0.0
 41
1.0
 42
1.0
 50
0.0
  0
INSERT
  8
4
  6
CONTINUOUS
  2
COMP45
 10
0.0
 20
0.0
 41
1.0
 42
1.0
 50
0.0
  0
INSERT
  8
13
  6
CONTINUOUS
  2
COMP46
 10
0.0
 20
0.0
 41
1.0
 42
1.0
 50
0.0
  0
INSERT
  8
13
  6
CONTINUOUS
  2
COMP47
 10
0.0
 20
0.0
 41
1.0
 42
1.0
 50
0.0
  0
INSERT
  8
13
  6
CONTINUOUS
  2
COMP48
 10
0.0
 20
0.0
 41
1.0
 42
1.0
 50
0.0
  0
INSERT
  8
13
  6
CONTINUOUS
  2
COMP49
 10
0.0
 20
0.0
 41
1.0
 42
1.0
 50
0.0
  0
INSERT
  8
13
  6
CONTINUOUS
  2
COMP50
 10
0.0
 20
0.0
 41
1.0
 42
1.0
 50
0.0
  0
INSERT
  8
13
  6
CONTINUOUS
  2
COMP51
 10
0.0
 20
0.0
 41
1.0
 42
1.0
 50
0.0
  0
INSERT
  8
12
  6
CONTINUOUS
  2
COMP52
 10
0.0
 20
0.0
 41
1.0
 42
1.0
 50
0.0
  0
INSERT
  8
12
  6
CONTINUOUS
  2
COMP53
 10
0.0
 20
0.0
 41
1.0
 42
1.0
 50
0.0
  0
INSERT
  8
12
  6
CONTINUOUS
  2
COMP54
 10
0.0
 20
0.0
 41
1.0
 42
1.0
 50
0.0
  0
INSERT
  8
12
  6
CONTINUOUS
  2
COMP55
 10
0.0
 20
0.0
 41
1.0
 42
1.0
 50
0.0
  0
INSERT
  8
12
  6
CONTINUOUS
  2
COMP56
 10
0.0
 20
0.0
 41
1.0
 42
1.0
 50
0.0
  0
INSERT
  8
12
  6
CONTINUOUS
  2
COMP57
 10
0.0
 20
0.0
 41
1.0
 42
1.0
 50
0.0
  0
INSERT
  8
12
  6
CONTINUOUS
  2
COMP58
 10
0.0
 20
0.0
 41
1.0
 42
1.0
 50
0.0
  0
INSERT
  8
12
  6
CONTINUOUS
  2
COMP59
 10
0.0
 20
0.0
 41
1.0
 42
1.0
 50
0.0
  0
INSERT
  8
12
  6
CONTINUOUS
  2
COMP60
 10
0.0
 20
0.0
 41
1.0
 42
1.0
 50
0.0
  0
INSERT
  8
12
  6
CONTINUOUS
  2
COMP61
 10
0.0
 20
0.0
 41
1.0
 42
1.0
 50
0.0
  0
INSERT
  8
12
  6
CONTINUOUS
  2
COMP62
 10
0.0
 20
0.0
 41
1.0
 42
1.0
 50
0.0
  0
INSERT
  8
12
  6
CONTINUOUS
  2
COMP63
 10
0.0
 20
0.0
 41
1.0
 42
1.0
 50
0.0
  0
INSERT
  8
12
  6
CONTINUOUS
  2
COMP64
 10
0.0
 20
0.0
 41
1.0
 42
1.0
 50
0.0
  0
INSERT
  8
12
  6
CONTINUOUS
  2
COMP65
 10
0.0
 20
0.0
 41
1.0
 42
1.0
 50
0.0
  0
INSERT
  8
12
  6
CONTINUOUS
  2
COMP66
 10
0.0
 20
0.0
 41
1.0
 42
1.0
 50
0.0
  0
INSERT
  8
12
  6
CONTINUOUS
  2
COMP67
 10
0.0
 20
0.0
 41
1.0
 42
1.0
 50
0.0
  0
INSERT
  8
12
  6
CONTINUOUS
  2
COMP68
 10
0.0
 20
0.0
 41
1.0
 42
1.0
 50
0.0
  0
INSERT
  8
12
  6
CONTINUOUS
  2
COMP69
 10
0.0
 20
0.0
 41
1.0
 42
1.0
 50
0.0
  0
INSERT
  8
12
  6
CONTINUOUS
  2
COMP70
 10
0.0
 20
0.0
 41
1.0
 42
1.0
 50
0.0
  0
INSERT
  8
12
  6
CONTINUOUS
  2
COMP71
 10
0.0
 20
0.0
 41
1.0
 42
1.0
 50
0.0
  0
INSERT
  8
12
  6
CONTINUOUS
  2
COMP72
 10
0.0
 20
0.0
 41
1.0
 42
1.0
 50
0.0
  0
INSERT
  8
12
  6
CONTINUOUS
  2
COMP73
 10
0.0
 20
0.0
 41
1.0
 42
1.0
 50
0.0
  0
INSERT
  8
12
  6
CONTINUOUS
  2
COMP74
 10
0.0
 20
0.0
 41
1.0
 42
1.0
 50
0.0
  0
ENDSEC
  0
EOF
