  0
SECTION
  2
HEADER
  9
$ACADVER
  1
AC1006
  9
$INSBASE
 10
0.0
 20
0.0
 30
0.0
  9
$EXTMIN
 10
68.73718538119999
 20
199.3257820328
  9
$EXTMAX
 10
357.6773211846
 20
413.3257820328
  9
$LIMMIN
 10
68.73718538119999
 20
199.3257820328
  9
$LIMMAX
 10
357.6773211846
 20
413.3257820328
  9
$ORTHOMODE
 70
     0
  9
$REGENMODE
 70
     1
  9
$FILLMODE
 70
     1
  9
$QTEXTMODE
 70
     0
  9
$MIRRTEXT
 70
     1
  9
$DRAGMODE
 70
     2
  9
$LTSCALE
 40
1.0
  9
$OSMODE
 70
     0
  9
$ATTMODE
 70
     1
  9
$TEXTSIZE
 40
3.0
  9
$TRACEWID
 40
0.5
  9
$TEXTSTYLE
  7
STANDARD
  9
$CLAYER
  8
0
  9
$CELTYPE
  6
BYLAYER
  9
$CECOLOR
 62
   256
  9
$DIMSCALE
 40
1.0
  9
$DIMASZ
 40
3.0
  9
$DIMEXO
 40
1.0
  9
$DIMDLI
 40
5.0
  9
$DIMRND
 40
0.0
  9
$DIMDLE
 40
5.0
  9
$DIMEXE
 40
2.0
  9
$DIMTP
 40
0.0
  9
$DIMTM
 40
0.0
  9
$DIMTXT
 40
3.0
  9
$DIMCEN
 40
2.0
  9
$DIMTSZ
 40
0.0
  9
$DIMTOL
 70
     0
  9
$DIMLIM
 70
     0
  9
$DIMTIH
 70
     0
  9
$DIMTOH
 70
     0
  9
$DIMSE1
 70
     0
  9
$DIMSE2
 70
     0
  9
$DIMTAD
 70
     1
  9
$DIMZIN
 70
     8
  9
$DIMBLK
  1

  9
$DIMASO
 70
     1
  9
$DIMSHO
 70
     0
  9
$DIMPOST
  1

  9
$DIMAPOST
  1

  9
$DIMALT
 70
     0
  9
$DIMALTD
 70
     4
  9
$DIMALTF
 40
25.4
  9
$DIMLFAC
 40
1.0
  9
$DIMTOFL
 70
     1
  9
$DIMTVP
 40
1.0
  9
$DIMTIX
 70
     0
  9
$DIMSOXD
 70
     0
  9
$DIMSAH
 70
     0
  9
$DIMBLK1
  1

  9
$DIMBLK2
  1

  9
$LUNITS
 70
     2
  9
$LUPREC
 70
     4
  9
$AXISMODE
 70
     0
  9
$AXISUNIT
 10
0.0
 20
0.0
  9
$SKETCHINC
 40
1.0
  9
$FILLETRAD
 40
0.0
  9
$AUNITS
 70
     0
  9
$AUPREC
 70
     0
  9
$MENU
  1
acad
  9
$ELEVATION
 40
0.0
  9
$THICKNESS
 40
0.0
  9
$LIMCHECK
 70
     0
  9
$BLIPMODE
 70
     1
  9
$CHAMFERA
 40
0.0
  9
$CHAMFERB
 40
0.0
  9
$SKPOLY
 70
     0
  9
$TDCREATE
 40
2454060.643356482
  9
$TDUPDATE
 40
2454060.643356482
  9
$TDINDWG
 40
0.0
  9
$TDUSRTIMER
 40
0.0
  9
$USRTIMER
 70
     1
  9
$ANGBASE
 50
0.0
  9
$ANGDIR
 70
     0
  9
$PDMODE
 70
     0
  9
$PDSIZE
 40
0.0
  9
$PLINEWID
 40
0.0
  9
$COORDS
 70
     0
  9
$SPLFRAME
 70
     0
  9
$SPLINETYPE
 70
     6
  9
$SPLINESEGS
 70
     8
  9
$ATTDIA
 70
     0
  9
$ATTREQ
 70
     1
  9
$HANDLING
 70
     0
  9
$HANDSEED
  5
0
  9
$SURFTAB1
 70
     6
  9
$SURFTAB2
 70
     6
  9
$SURFTYPE
 70
     6
  9
$SURFU
 70
     6
  9
$SURFV
 70
     6
  9
$FLATLAND
 70
     0
  9
$UCSNAME
  2

  9
$UCSORG
 10
0.0
 20
0.0
 30
0.0
  9
$UCSXDIR
 10
1.0
 20
0.0
 30
0.0
  9
$UCSYDIR
 10
0.0
 20
1.0
 30
0.0
  9
$USERI1
 70
     0
  9
$USERI2
 70
     0
  9
$USERI3
 70
     0
  9
$USERI4
 70
     0
  9
$USERI5
 70
     0
  9
$USERR1
 40
0.0
  9
$USERR2
 40
0.0
  9
$USERR3
 40
0.0
  9
$USERR4
 40
0.0
  9
$USERR5
 40
0.0
  9
$WORLDVIEW
 70
     1
  0
ENDSEC
  0
SECTION
  2
TABLES
  0
TABLE
  2
VPORT
 70
     1
  0
VPORT
  2
*ACTIVE
 70
     0
 10
0.0
 20
0.0
 11
1.0
 21
1.0
 12
213.2072532829
 22
306.3257820328
 13
0.0
 23
0.0
 14
0.0
 24
0.0
 15
0.0
 25
0.0
 16
0.0
 26
0.0
 36
1.0
 17
0.0
 27
0.0
 37
0.0
 40
214.0
 41
1.5
 42
50.0
 43
0.0
 44
0.0
 50
0.0
 51
0.0
 71
     0
 72
   100
 73
     1
 74
     1
 75
     0
 76
     0
 77
     0
 78
     0
  0
ENDTAB
  0
TABLE
  2
LTYPE
 70
    20
  0
LTYPE
  2
CONTINUOUS
 70
    64
  3
solid line
 72
    65
 73
     0
 40
0.0
  0
LTYPE
  2
CENTER
 70
    64
  3
--- - --- - --- - --- - --- - 
 72
    65
 73
     4
 40
6.0
 49
3.0
 49
-1.0
 49
1.0
 49
-1.0
  0
ENDTAB
  0
TABLE
  2
LAYER
 70
    20
  0
LAYER
  2
0
 70
    64
 62
     7
  6
CONTINUOUS
  0
LAYER
  2
1
 70
    64
 62
     7
  6
CONTINUOUS
  0
LAYER
  2
14
 70
    64
 62
     7
  6
CONTINUOUS
  0
ENDTAB
  0
TABLE
  2
STYLE
 70
     4
  0
ENDTAB
  0
TABLE
  2
VIEW
 70
     0
  0
ENDTAB
  0
TABLE
  2
UCS
 70
     0
  0
ENDTAB
  0
TABLE
  2
DWGMGR
 70
     0
  0
ENDTAB
  0
ENDSEC
  0
SECTION
  2
BLOCKS
  0
ENDSEC
  0
SECTION
  2
ENTITIES
  0
ARC
  8
1
  6
CONTINUOUS
 10
316.2773208642003
 20
302.975782032803
 40
6.999999999997024
 50
78.46304096719683
 51
85.90395624180022
  0
LINE
  8
1
  6
CONTINUOUS
 10
355.6773208642
 20
398.8257820328
 11
331.1773208642
 21
398.8257820328
  0
LINE
  8
1
  6
CONTINUOUS
 10
357.6773208642
 20
215.8257820328
 11
357.6773208642
 21
396.8257820328
  0
ARC
  8
1
  6
CONTINUOUS
 10
292.6773208641999
 20
215.8257820328
 40
1.999999999999943
 50
179.9999999999992
 51
270.0
  0
LINE
  8
1
  6
CONTINUOUS
 10
292.6773208642
 20
398.8257820328
 11
317.1773208642
 21
398.8257820328
  0
ARC
  8
1
  6
CONTINUOUS
 10
355.6773208642001
 20
215.8257820328
 40
1.999999999999972
 50
270.0
 51
8.142219984546603E-013
  0
LINE
  8
1
  6
CONTINUOUS
 10
355.6773208642
 20
213.8257820328
 11
331.1773208642
 21
213.8257820328
  0
ARC
  8
1
  6
CONTINUOUS
 10
355.6773208642001
 20
396.8257820328001
 40
1.999999999999943
 50
359.9999999999984
 51
90.0
  0
LINE
  8
1
  6
CONTINUOUS
 10
290.6773208642
 20
396.8257820328
 11
290.6773208642
 21
215.8257820328
  0
ARC
  8
1
  6
CONTINUOUS
 10
292.6773208641999
 20
396.8257820328001
 40
1.999999999999943
 50
90.0
 51
180.0000000000016
  0
LINE
  8
1
  6
CONTINUOUS
 10
292.6773208642
 20
213.8257820328
 11
317.1773208642
 21
213.8257820328
  0
LINE
  8
1
  6
CONTINUOUS
 10
321.6773208642
 20
307.8257820328
 11
352.6773208642
 21
307.8257820328
  0
ARC
  8
1
  6
CONTINUOUS
 10
352.6773208642001
 20
309.3257820328
 40
1.5
 50
270.0
 51
0.0
  0
LINE
  8
1
  6
CONTINUOUS
 10
354.1773208642
 20
309.3257820328
 11
354.1773208642
 21
394.3257820328
  0
ARC
  8
1
  6
CONTINUOUS
 10
352.6773208642001
 20
394.3257820328
 40
1.499999999999943
 50
0.0
 51
90.0
  0
LINE
  8
1
  6
CONTINUOUS
 10
352.6773208642
 20
395.8257820328
 11
331.1773208642
 21
395.8257820328
  0
ARC
  8
1
  6
CONTINUOUS
 10
331.1773208641999
 20
394.3257820328
 40
1.5
 50
90.0
 51
180.0
  0
LINE
  8
1
  6
CONTINUOUS
 10
329.6773208642
 20
394.3257820328
 11
329.6773208642
 21
392.8257820328
  0
ARC
  8
1
  6
CONTINUOUS
 10
324.1773208642
 20
392.8257820328
 40
5.5
 50
180.0
 51
0.0
  0
LINE
  8
1
  6
CONTINUOUS
 10
318.6773208642
 20
392.8257820328
 11
318.6773208642
 21
394.3257820328
  0
ARC
  8
1
  6
CONTINUOUS
 10
317.1773208642001
 20
394.3257820328
 40
1.499999999999943
 50
0.0
 51
90.0
  0
LINE
  8
1
  6
CONTINUOUS
 10
317.1773208642
 20
395.8257820328
 11
295.6773208642
 21
395.8257820328
  0
ARC
  8
1
  6
CONTINUOUS
 10
295.6773208641999
 20
394.3257820328
 40
1.5
 50
90.0
 51
180.0
  0
LINE
  8
1
  6
CONTINUOUS
 10
294.1773208642
 20
394.3257820328
 11
294.1773208642
 21
355.3257820328
  0
ARC
  8
1
  6
CONTINUOUS
 10
295.6773208641999
 20
355.3257820328
 40
1.499999999999943
 50
180.0
 51
270.0
  0
LINE
  8
1
  6
CONTINUOUS
 10
295.6773208642
 20
353.8257820328
 11
318.1773208642
 21
353.8257820328
  0
ARC
  8
1
  6
CONTINUOUS
 10
318.1773208642001
 20
351.8257820328001
 40
1.999999999999943
 50
359.9999999999984
 51
90.0
  0
LINE
  8
1
  6
CONTINUOUS
 10
320.1773208642
 20
351.8257820328
 11
320.1773208642
 21
309.3257820328
  0
ARC
  8
1
  6
CONTINUOUS
 10
321.6773208641999
 20
309.3257820328
 40
1.499999999999943
 50
180.0
 51
270.0
  0
LINE
  8
1
  6
CONTINUOUS
 10
292.1213470644
 20
395.8838115306
 11
292.1213470644
 21
352.8257820328
  0
ARC
  8
1
  6
CONTINUOUS
 10
293.6184432604
 20
395.8846596368
 40
1.497096436199981
 50
89.9675418995994
 51
180.0324581004006
  0
LINE
  8
1
  6
CONTINUOUS
 10
323.0227201824
 20
397.3817558328
 11
293.6192913664
 21
397.3817558328
  0
ARC
  8
1
  6
CONTINUOUS
 10
324.1773208642
 20
392.8257820328
 40
4.699999999999968
 50
104.2208244444999
 51
75.77917555550015
  0
LINE
  8
1
  6
CONTINUOUS
 10
354.735350362
 20
397.3817558328
 11
325.3319215462
 21
397.3817558328
  0
ARC
  8
1
  6
CONTINUOUS
 10
354.7361984682
 20
395.8846596368
 40
1.497096436199981
 50
359.9675418995994
 51
90.0324581004006
  0
LINE
  8
1
  6
CONTINUOUS
 10
356.2332946642
 20
301.8257820328
 11
356.2332946642
 21
395.8838115306
  0
LINE
  8
1
  6
CONTINUOUS
 10
356.2332946642
 20
301.8257820328
 11
322.1773208642
 21
301.8257820328
  0
LINE
  8
1
  6
CONTINUOUS
 10
322.1773208642
 20
301.8257820328
 11
322.1773208642
 21
230.8257820328
  0
LINE
  8
1
  6
CONTINUOUS
 10
322.1773208642
 20
230.8257820328
 11
356.2332946642
 21
230.8257820328
  0
LINE
  8
1
  6
CONTINUOUS
 10
356.2332946642
 20
216.7677525352
 11
356.2332946642
 21
230.8257820328
  0
ARC
  8
1
  6
CONTINUOUS
 10
354.7361984682
 20
216.766904429
 40
1.497096436199981
 50
269.9675418995994
 51
0.03245810040060497
  0
LINE
  8
1
  6
CONTINUOUS
 10
325.3319215462
 20
215.269808233
 11
354.735350362
 21
215.269808233
  0
ARC
  8
1
  6
CONTINUOUS
 10
324.1773208642
 20
219.8257820328
 40
4.699999999999996
 50
284.2208244444998
 51
255.7791755555002
  0
LINE
  8
1
  6
CONTINUOUS
 10
293.6192913664
 20
215.269808233
 11
323.0227201824
 21
215.269808233
  0
ARC
  8
1
  6
CONTINUOUS
 10
293.6184432604
 20
216.766904429
 40
1.497096436199981
 50
179.9675418996005
 51
270.0324581004006
  0
LINE
  8
1
  6
CONTINUOUS
 10
292.1213470644
 20
230.3257820328
 11
292.1213470644
 21
216.7677525352
  0
LINE
  8
1
  6
CONTINUOUS
 10
292.1213470644
 20
230.3257820328
 11
318.5773208642
 21
230.3257820328
  0
LINE
  8
1
  6
CONTINUOUS
 10
318.5773208642
 20
230.3257820328
 11
318.5773208642
 21
352.8257820328
  0
LINE
  8
1
  6
CONTINUOUS
 10
318.5773208642
 20
352.8257820328
 11
292.1213470644
 21
352.8257820328
  0
LINE
  8
1
  6
CONTINUOUS
 10
293.6192913664
 20
397.8810706002
 11
293.6192913664
 21
397.3817558328
  0
LINE
  8
1
  6
CONTINUOUS
 10
293.6192913664
 20
397.8810706002
 11
354.735350362
 21
397.8810706002
  0
LINE
  8
1
  6
CONTINUOUS
 10
354.735350362
 20
397.8810706002
 11
354.735350362
 21
397.3817558328
  0
POLYLINE
  8
1
  6
CONTINUOUS
 66
     1
 70
     0
 40
0.0
 41
0.0
  0
VERTEX
  8
1
 10
325.3319215462
 20
397.3817558328
  0
VERTEX
  8
1
 10
324.336128748
 20
397.523098294
  0
VERTEX
  8
1
 10
323.0227201824
 20
397.3817558328
  0
SEQEND
  8
1
  0
LINE
  8
1
  6
CONTINUOUS
 10
354.735350362
 20
214.7704934656
 11
354.735350362
 21
215.269808233
  0
LINE
  8
1
  6
CONTINUOUS
 10
354.735350362
 20
214.7704934656
 11
293.6192913664
 21
214.7704934656
  0
LINE
  8
1
  6
CONTINUOUS
 10
293.6192913664
 20
214.7704934656
 11
293.6192913664
 21
215.269808233
  0
POLYLINE
  8
1
  6
CONTINUOUS
 66
     1
 70
     0
 40
0.0
 41
0.0
  0
VERTEX
  8
1
 10
323.0227201824
 20
215.269808233
  0
VERTEX
  8
1
 10
324.0185129804
 20
215.1284657718
  0
VERTEX
  8
1
 10
325.3319215462
 20
215.269808233
  0
SEQEND
  8
1
  0
LINE
  8
1
  6
CONTINUOUS
 10
318.5424107344
 20
352.790871903
 11
318.5773208642
 21
352.8257820328
  0
LINE
  8
1
  6
CONTINUOUS
 10
318.3678600852
 20
352.6163212538
 11
318.5424107344
 21
352.790871903
  0
LINE
  8
1
  6
CONTINUOUS
 10
318.3678600852
 20
352.6163212538
 11
297.1773208642
 21
352.6163212538
  0
LINE
  8
1
  6
CONTINUOUS
 10
297.1773208642
 20
352.6163212538
 11
291.0179714296
 21
352.6163212538
  0
LINE
  8
1
  6
CONTINUOUS
 10
291.622032297
 20
352.8175112642
 11
291.0179714296
 21
352.6163212538
  0
POLYLINE
  8
1
  6
CONTINUOUS
 66
     1
 70
     0
 40
0.0
 41
0.0
  0
VERTEX
  8
1
 10
292.1213470644
 20
352.8257820328
  0
VERTEX
  8
1
 10
292.027013582
 20
352.8256252962
  0
VERTEX
  8
1
 10
291.9360683456
 20
352.825160716
  0
VERTEX
  8
1
 10
291.851777903
 20
352.8244049786
  0
VERTEX
  8
1
 10
291.7771697766
 20
352.8233852288
  0
VERTEX
  8
1
 10
291.714923722
 20
352.8221380934
  0
VERTEX
  8
1
 10
291.6672754774
 20
352.8207083668
  0
VERTEX
  8
1
 10
291.6359364602
 20
352.8191474016
  0
VERTEX
  8
1
 10
291.622032297
 20
352.8175112642
  0
SEQEND
  8
1
  0
LINE
  8
1
  6
CONTINUOUS
 10
356.7326094316
 20
230.8340528016
 11
356.7326094316
 21
216.7677525352
  0
LINE
  8
1
  6
CONTINUOUS
 10
356.7326094316
 20
216.7677525352
 11
356.2332946642
 21
216.7677525352
  0
POLYLINE
  8
1
  6
CONTINUOUS
 66
     1
 70
     0
 40
0.0
 41
0.0
  0
VERTEX
  8
1
 10
356.2332946642
 20
230.8257820328
  0
VERTEX
  8
1
 10
356.3276281466
 20
230.8259387696
  0
VERTEX
  8
1
 10
356.418573383
 20
230.8264033498
  0
VERTEX
  8
1
 10
356.5028638256
 20
230.8271590872
  0
VERTEX
  8
1
 10
356.577471952
 20
230.828178837
  0
VERTEX
  8
1
 10
356.6397180064
 20
230.8294259724
  0
VERTEX
  8
1
 10
356.687366251
 20
230.830855699
  0
VERTEX
  8
1
 10
356.7187052684
 20
230.8324166642
  0
VERTEX
  8
1
 10
356.7326094316
 20
230.8340528016
  0
SEQEND
  8
1
  0
ARC
  8
1
  6
CONTINUOUS
 10
293.6200905812
 20
395.8830123158
 40
1.998058444199946
 50
90.02291806570015
 51
179.9770819343015
  0
LINE
  8
1
  6
CONTINUOUS
 10
291.622032297
 20
395.8838115306
 11
292.1213470644
 21
395.8838115306
  0
ARC
  8
1
  6
CONTINUOUS
 10
354.7345511472
 20
216.7685517498
 40
1.998058444200032
 50
270.0229180657001
 51
359.977081932299
  0
LINE
  8
1
  6
CONTINUOUS
 10
318.5424107344
 20
230.3606921628
 11
318.5773208642
 21
230.3257820328
  0
LINE
  8
1
  6
CONTINUOUS
 10
318.5424107344
 20
230.3606921628
 11
318.5424107344
 21
352.790871903
  0
LINE
  8
1
  6
CONTINUOUS
 10
291.622032297
 20
216.7677525352
 11
292.1213470644
 21
216.7677525352
  0
LINE
  8
1
  6
CONTINUOUS
 10
291.622032297
 20
216.7677525352
 11
291.622032297
 21
230.3340528016
  0
POLYLINE
  8
1
  6
CONTINUOUS
 66
     1
 70
     0
 40
0.0
 41
0.0
  0
VERTEX
  8
1
 10
291.622032297
 20
230.3340528016
  0
VERTEX
  8
1
 10
291.6359364602
 20
230.3324166642
  0
VERTEX
  8
1
 10
291.6672754774
 20
230.330855699
  0
VERTEX
  8
1
 10
291.714923722
 20
230.3294259724
  0
VERTEX
  8
1
 10
291.7771697766
 20
230.328178837
  0
VERTEX
  8
1
 10
291.851777903
 20
230.3271590872
  0
VERTEX
  8
1
 10
291.9360683456
 20
230.3264033498
  0
VERTEX
  8
1
 10
292.027013582
 20
230.3259387696
  0
VERTEX
  8
1
 10
292.1213470644
 20
230.3257820328
  0
SEQEND
  8
1
  0
LINE
  8
1
  6
CONTINUOUS
 10
291.622032297
 20
352.8175112642
 11
291.622032297
 21
395.8838115306
  0
LINE
  8
1
  6
CONTINUOUS
 10
356.7326094316
 20
395.8838115306
 11
356.7326094316
 21
301.8175112642
  0
POLYLINE
  8
1
  6
CONTINUOUS
 66
     1
 70
     0
 40
0.0
 41
0.0
  0
VERTEX
  8
1
 10
356.7326094316
 20
301.8175112642
  0
VERTEX
  8
1
 10
356.7187052684
 20
301.8191474016
  0
VERTEX
  8
1
 10
356.687366251
 20
301.8207083668
  0
VERTEX
  8
1
 10
356.6397180064
 20
301.8221380934
  0
VERTEX
  8
1
 10
356.577471952
 20
301.8233852288
  0
VERTEX
  8
1
 10
356.5028638256
 20
301.8244049786
  0
VERTEX
  8
1
 10
356.418573383
 20
301.825160716
  0
VERTEX
  8
1
 10
356.3276281466
 20
301.8256252962
  0
VERTEX
  8
1
 10
356.2332946642
 20
301.8257820328
  0
SEQEND
  8
1
  0
LINE
  8
1
  6
CONTINUOUS
 10
356.7326094316
 20
395.8838115306
 11
356.2332946642
 21
395.8838115306
  0
LINE
  8
1
  6
CONTINUOUS
 10
322.2820512538
 20
230.9305124224
 11
322.1773208642
 21
230.8257820328
  0
LINE
  8
1
  6
CONTINUOUS
 10
322.2820512538
 20
230.9305124224
 11
349.1773208642
 21
230.9305124224
  0
LINE
  8
1
  6
CONTINUOUS
 10
349.1773208642
 20
230.9305124224
 11
357.0222236232
 21
230.9305124224
  0
LINE
  8
1
  6
CONTINUOUS
 10
356.7326094316
 20
230.8340528016
 11
357.0222236232
 21
230.9305124224
  0
ARC
  8
1
  6
CONTINUOUS
 10
293.6200905812
 20
216.7685517498
 40
1.998058444200003
 50
180.0229180657001
 51
269.9770819342999
  0
ARC
  8
1
  6
CONTINUOUS
 10
354.7345511472001
 20
395.8830123158001
 40
1.998058444199947
 50
0.02291806979640631
 51
89.97708193430148
  0
LINE
  8
1
  6
CONTINUOUS
 10
291.0179714296
 20
230.535242812
 11
291.622032297
 21
230.3340528016
  0
LINE
  8
1
  6
CONTINUOUS
 10
291.0179714296
 20
230.535242812
 11
297.1773208642
 21
230.535242812
  0
LINE
  8
1
  6
CONTINUOUS
 10
318.3678600852
 20
230.535242812
 11
297.1773208642
 21
230.535242812
  0
LINE
  8
1
  6
CONTINUOUS
 10
318.3678600852
 20
230.535242812
 11
318.5424107344
 21
230.3606921628
  0
LINE
  8
1
  6
CONTINUOUS
 10
322.2820512538
 20
301.7210516434
 11
322.1773208642
 21
301.8257820328
  0
LINE
  8
1
  6
CONTINUOUS
 10
322.2820512538
 20
301.7210516434
 11
322.2820512538
 21
230.9305124224
  0
LINE
  8
1
  6
CONTINUOUS
 10
357.0222236232
 20
301.7210516434
 11
356.7326094316
 21
301.8175112642
  0
LINE
  8
1
  6
CONTINUOUS
 10
357.0222236232
 20
301.7210516434
 11
349.1773208642
 21
301.7210516434
  0
LINE
  8
1
  6
CONTINUOUS
 10
322.2820512538
 20
301.7210516434
 11
349.1773208642
 21
301.7210516434
  0
ARC
  8
1
  6
CONTINUOUS
 10
292.6734491256
 20
215.8219102942
 40
1.996128581600012
 50
179.9675418996002
 51
270.0324581004006
  0
LINE
  8
1
  6
CONTINUOUS
 10
290.6773208642
 20
215.8230411024
 11
291.622032297
 21
216.7677525352
  0
LINE
  8
1
  6
CONTINUOUS
 10
293.6192913664
 20
214.7704934656
 11
292.6745799338
 21
213.8257820328
  0
ARC
  8
1
  6
CONTINUOUS
 10
292.6734491256001
 20
396.8296537716
 40
1.996128581600069
 50
89.96754189960103
 51
180.0324581032983
  0
LINE
  8
1
  6
CONTINUOUS
 10
292.6745799338
 20
398.8257820328
 11
293.6192913664
 21
397.8810706002
  0
LINE
  8
1
  6
CONTINUOUS
 10
291.622032297
 20
395.8838115306
 11
290.6773208642
 21
396.8285229634
  0
ARC
  8
1
  6
CONTINUOUS
 10
355.681192603
 20
396.8296537716
 40
1.996128581600012
 50
359.967541899601
 51
90.0324581004006
  0
LINE
  8
1
  6
CONTINUOUS
 10
357.6773208642
 20
396.8285229634
 11
356.7326094316
 21
395.8838115306
  0
LINE
  8
1
  6
CONTINUOUS
 10
354.735350362
 20
397.8810706002
 11
355.6800617948
 21
398.8257820328
  0
ARC
  8
1
  6
CONTINUOUS
 10
355.6811926030001
 20
215.8219102941999
 40
1.996128581599955
 50
269.9675418995978
 51
0.03245810040142107
  0
LINE
  8
1
  6
CONTINUOUS
 10
355.6800617948
 20
213.8257820328
 11
354.735350362
 21
214.7704934656
  0
LINE
  8
1
  6
CONTINUOUS
 10
356.7326094316
 20
216.7677525352
 11
357.6773208642
 21
215.8230411024
  0
LINE
  8
1
  6
CONTINUOUS
 10
357.6773208642
 20
215.8230411024
 11
357.6773208642
 21
396.8285229634
  0
LINE
  8
1
  6
CONTINUOUS
 10
357.0222236232
 20
230.9305124224
 11
357.0222236232
 21
301.7210516434
  0
LINE
  8
1
  6
CONTINUOUS
 10
292.6745799338
 20
213.8257820328
 11
355.6800617948
 21
213.8257820328
  0
LINE
  8
1
  6
CONTINUOUS
 10
355.6800617948
 20
398.8257820328
 11
292.6745799338
 21
398.8257820328
  0
LINE
  8
1
  6
CONTINUOUS
 10
291.0179714296
 20
230.535242812
 11
291.0179714296
 21
352.6163212538
  0
LINE
  8
1
  6
CONTINUOUS
 10
290.6773208642
 20
396.8285229634
 11
290.6773208642
 21
215.8230411024
  0
LINE
  8
1
  6
CONTINUOUS
 10
347.203524754
 20
385.3257820328
 11
347.203524754
 21
372.3257820328
  0
LINE
  8
1
  6
CONTINUOUS
 10
349.1773208642
 20
230.9305124224
 11
349.1773208642
 21
301.7210516434
  0
LINE
  8
1
  6
CONTINUOUS
 10
297.1773208642
 20
230.535242812
 11
297.1773208642
 21
352.6163212538
  0
LINE
  8
1
  6
CONTINUOUS
 10
327.7444344212
 20
347.0311759662
 11
327.532775632
 21
346.158083461
  0
LINE
  8
1
  6
CONTINUOUS
 10
327.532775632
 20
346.158083461
 11
327.982550559
 21
346.158083461
  0
LINE
  8
1
  6
CONTINUOUS
 10
327.982550559
 20
346.158083461
 11
327.7708917698
 21
347.0311759662
  0
LINE
  8
1
  6
CONTINUOUS
 10
327.2814308198
 20
345.1536841142
 11
326.963942636
 21
345.1536841142
  0
LINE
  8
1
  6
CONTINUOUS
 10
326.963942636
 20
345.1536841142
 11
327.6253763522
 21
347.7322957054
  0
LINE
  8
1
  6
CONTINUOUS
 10
327.6253763522
 20
347.7322957054
 11
327.8899498386
 21
347.7322957054
  0
LINE
  8
1
  6
CONTINUOUS
 10
327.8899498386
 20
347.7322957054
 11
328.5513835548
 21
345.1536841142
  0
LINE
  8
1
  6
CONTINUOUS
 10
328.5513835548
 20
345.1536841142
 11
328.233895371
 21
345.1536841142
  0
LINE
  8
1
  6
CONTINUOUS
 10
328.233895371
 20
345.1536841142
 11
328.0486939306
 21
345.9077185506
  0
LINE
  8
1
  6
CONTINUOUS
 10
328.0486939306
 20
345.9077185506
 11
327.4666322604
 21
345.9077185506
  0
LINE
  8
1
  6
CONTINUOUS
 10
327.4666322604
 20
345.9077185506
 11
327.2814308198
 21
345.1536841142
  0
LINE
  8
1
  6
CONTINUOUS
 10
327.7708917698
 20
347.0311759662
 11
327.7444344212
 21
347.0311759662
  0
LINE
  8
1
  6
CONTINUOUS
 10
328.802728367
 20
344.7558439826
 11
328.6704416238
 21
344.8352160286
  0
LINE
  8
1
  6
CONTINUOUS
 10
328.6704416238
 20
344.8352160286
 11
330.0726811020001
 21
347.917497146
  0
LINE
  8
1
  6
CONTINUOUS
 10
330.0726811020001
 20
347.917497146
 11
330.2049678452
 21
347.8381251
  0
LINE
  8
1
  6
CONTINUOUS
 10
330.2049678452
 20
347.8381251
 11
328.802728367
 21
344.7558439826
  0
POLYLINE
  8
1
  6
CONTINUOUS
 66
     1
 70
     0
 40
0.0
 41
0.0
  0
VERTEX
  8
1
 10
346.6990402216
 20
333.4819125944
  0
VERTEX
  8
1
 10
346.7307808168
 20
332.9316138088
  0
VERTEX
  8
1
 10
346.7758420758
 20
332.7198181062
  0
VERTEX
  8
1
 10
346.87586543
 20
332.529776857
  0
SEQEND
  8
1
  0
POLYLINE
  8
1
  6
CONTINUOUS
 66
     1
 70
     0
 40
0.0
 41
0.0
  0
VERTEX
  8
1
 10
346.87586543
 20
332.529776857
  0
VERTEX
  8
1
 10
347.01644599
 20
332.4332527192
  0
VERTEX
  8
1
 10
347.147904212
 20
332.4073594052
  0
SEQEND
  8
1
  0
POLYLINE
  8
1
  6
CONTINUOUS
 66
     1
 70
     0
 40
0.0
 41
0.0
  0
VERTEX
  8
1
 10
347.147904212
 20
332.4073594052
  0
VERTEX
  8
1
 10
347.304732231
 20
332.450731795
  0
VERTEX
  8
1
 10
347.406341055
 20
332.529776857
  0
SEQEND
  8
1
  0
POLYLINE
  8
1
  6
CONTINUOUS
 66
     1
 70
     0
 40
0.0
 41
0.0
  0
VERTEX
  8
1
 10
347.406341055
 20
332.529776857
  0
VERTEX
  8
1
 10
347.5220201266
 20
332.7768066334
  0
VERTEX
  8
1
 10
347.5654108518
 20
333.0489891906
  0
VERTEX
  8
1
 10
347.5831662634
 20
333.4819125944
  0
SEQEND
  8
1
  0
POLYLINE
  8
1
  6
CONTINUOUS
 66
     1
 70
     0
 40
0.0
 41
0.0
  0
VERTEX
  8
1
 10
347.5831662634
 20
333.4819125944
  0
VERTEX
  8
1
 10
347.5512280226
 20
334.0247078986
  0
VERTEX
  8
1
 10
347.505773249
 20
334.2334042112
  0
VERTEX
  8
1
 10
347.406341055
 20
334.4204463926
  0
SEQEND
  8
1
  0
POLYLINE
  8
1
  6
CONTINUOUS
 66
     1
 70
     0
 40
0.0
 41
0.0
  0
VERTEX
  8
1
 10
347.406341055
 20
334.4204463926
  0
VERTEX
  8
1
 10
347.2732310032
 20
334.515471455
  0
VERTEX
  8
1
 10
347.147904212
 20
334.5428638444
  0
SEQEND
  8
1
  0
POLYLINE
  8
1
  6
CONTINUOUS
 66
     1
 70
     0
 40
0.0
 41
0.0
  0
VERTEX
  8
1
 10
347.147904212
 20
334.5428638444
  0
VERTEX
  8
1
 10
346.9831467658
 20
334.501351504
  0
VERTEX
  8
1
 10
346.87586543
 20
334.4204463926
  0
SEQEND
  8
1
  0
POLYLINE
  8
1
  6
CONTINUOUS
 66
     1
 70
     0
 40
0.0
 41
0.0
  0
VERTEX
  8
1
 10
346.87586543
 20
334.4204463926
  0
VERTEX
  8
1
 10
346.7605635892
 20
334.1773033662
  0
VERTEX
  8
1
 10
346.7169170926
 20
333.908953507
  0
VERTEX
  8
1
 10
346.6990402216
 20
333.4819125944
  0
SEQEND
  8
1
  0
POLYLINE
  8
1
  6
CONTINUOUS
 66
     1
 70
     0
 40
0.0
 41
0.0
  0
VERTEX
  8
1
 10
347.5967682024
 20
334.624475479
  0
VERTEX
  8
1
 10
347.773398481
 20
334.3386596292
  0
VERTEX
  8
1
 10
347.8582270114
 20
334.0117110512
  0
VERTEX
  8
1
 10
347.8960108628
 20
333.4819125944
  0
SEQEND
  8
1
  0
POLYLINE
  8
1
  6
CONTINUOUS
 66
     1
 70
     0
 40
0.0
 41
0.0
  0
VERTEX
  8
1
 10
347.8960108628
 20
333.4819125944
  0
VERTEX
  8
1
 10
347.830609653
 20
332.8023613632
  0
VERTEX
  8
1
 10
347.7458674594
 20
332.5477511696
  0
VERTEX
  8
1
 10
347.5967682024
 20
332.3257477706
  0
SEQEND
  8
1
  0
POLYLINE
  8
1
  6
CONTINUOUS
 66
     1
 70
     0
 40
0.0
 41
0.0
  0
VERTEX
  8
1
 10
347.5967682024
 20
332.3257477706
  0
VERTEX
  8
1
 10
347.3626361154
 20
332.1818235228
  0
VERTEX
  8
1
 10
347.147904212
 20
332.1499301132
  0
SEQEND
  8
1
  0
POLYLINE
  8
1
  6
CONTINUOUS
 66
     1
 70
     0
 40
0.0
 41
0.0
  0
VERTEX
  8
1
 10
346.6854382826
 20
332.3257477706
  0
VERTEX
  8
1
 10
346.5080202854
 20
332.6153520238
  0
VERTEX
  8
1
 10
346.4236857908
 20
332.9462764094
  0
VERTEX
  8
1
 10
346.3861956222
 20
333.4819125944
  0
SEQEND
  8
1
  0
POLYLINE
  8
1
  6
CONTINUOUS
 66
     1
 70
     0
 40
0.0
 41
0.0
  0
VERTEX
  8
1
 10
346.3861956222
 20
333.4819125944
  0
VERTEX
  8
1
 10
346.4523876932
 20
334.153875836
  0
VERTEX
  8
1
 10
346.5372137854
 20
334.4053852898
  0
VERTEX
  8
1
 10
346.6854382826
 20
334.624475479
  0
SEQEND
  8
1
  0
POLYLINE
  8
1
  6
CONTINUOUS
 66
     1
 70
     0
 40
0.0
 41
0.0
  0
VERTEX
  8
1
 10
346.6854382826
 20
334.624475479
  0
VERTEX
  8
1
 10
346.9270588162
 20
334.7701999326
  0
VERTEX
  8
1
 10
347.147904212
 20
334.8013006874
  0
SEQEND
  8
1
  0
POLYLINE
  8
1
  6
CONTINUOUS
 66
     1
 70
     0
 40
0.0
 41
0.0
  0
VERTEX
  8
1
 10
347.147904212
 20
334.8013006874
  0
VERTEX
  8
1
 10
347.4182703626
 20
334.7477378786
  0
VERTEX
  8
1
 10
347.5967682024
 20
334.624475479
  0
SEQEND
  8
1
  0
POLYLINE
  8
1
  6
CONTINUOUS
 66
     1
 70
     0
 40
0.0
 41
0.0
  0
VERTEX
  8
1
 10
347.147904212
 20
332.1499301132
  0
VERTEX
  8
1
 10
346.8698685852
 20
332.2016275886
  0
VERTEX
  8
1
 10
346.6854382826
 20
332.3257477706
  0
SEQEND
  8
1
  0
LINE
  8
1
  6
CONTINUOUS
 10
329.0270986724
 20
332.3660498122
 11
330.264875131
 21
333.6038262708
  0
LINE
  8
1
  6
CONTINUOUS
 10
330.264875131
 20
333.6038262708
 11
329.0270986724
 21
334.8416027292
  0
LINE
  8
1
  6
CONTINUOUS
 10
329.0270986724
 20
334.8416027292
 11
329.1903219416
 21
335.0048259984
  0
LINE
  8
1
  6
CONTINUOUS
 10
329.1903219416
 20
335.0048259984
 11
330.4280984002
 21
333.76704954
  0
LINE
  8
1
  6
CONTINUOUS
 10
330.4280984002
 20
333.76704954
 11
331.6658748586
 21
335.0048259984
  0
LINE
  8
1
  6
CONTINUOUS
 10
331.6658748586
 20
335.0048259984
 11
331.8290981278
 21
334.8416027292
  0
LINE
  8
1
  6
CONTINUOUS
 10
331.8290981278
 20
334.8416027292
 11
330.5913216694
 21
333.6038262708
  0
LINE
  8
1
  6
CONTINUOUS
 10
330.5913216694
 20
333.6038262708
 11
331.8290981278
 21
332.3660498122
  0
LINE
  8
1
  6
CONTINUOUS
 10
331.8290981278
 20
332.3660498122
 11
331.6658748586
 21
332.202826543
  0
LINE
  8
1
  6
CONTINUOUS
 10
331.6658748586
 20
332.202826543
 11
330.4280984002
 21
333.4406030016
  0
LINE
  8
1
  6
CONTINUOUS
 10
330.4280984002
 20
333.4406030016
 11
329.1903219416
 21
332.202826543
  0
LINE
  8
1
  6
CONTINUOUS
 10
329.1903219416
 20
332.202826543
 11
329.0270986724
 21
332.3660498122
  0
LINE
  8
1
  6
CONTINUOUS
 10
330.1696615572
 20
334.4743503734
 11
330.1696615572
 21
334.9640201812
  0
LINE
  8
1
  6
CONTINUOUS
 10
330.1696615572
 20
334.9640201812
 11
330.659331365
 21
334.9640201812
  0
LINE
  8
1
  6
CONTINUOUS
 10
330.659331365
 20
334.9640201812
 11
330.659331365
 21
334.4743503734
  0
LINE
  8
1
  6
CONTINUOUS
 10
330.659331365
 20
334.4743503734
 11
330.1696615572
 21
334.4743503734
  0
LINE
  8
1
  6
CONTINUOUS
 10
331.2850205638
 20
333.3589913668
 11
331.2850205638
 21
333.8486611746
  0
LINE
  8
1
  6
CONTINUOUS
 10
331.2850205638
 20
333.8486611746
 11
331.7746903714
 21
333.8486611746
  0
LINE
  8
1
  6
CONTINUOUS
 10
331.7746903714
 20
333.8486611746
 11
331.7746903714
 21
333.3589913668
  0
LINE
  8
1
  6
CONTINUOUS
 10
331.7746903714
 20
333.3589913668
 11
331.2850205638
 21
333.3589913668
  0
LINE
  8
1
  6
CONTINUOUS
 10
330.1696615572
 20
332.2436323604
 11
330.1696615572
 21
332.7333021682
  0
LINE
  8
1
  6
CONTINUOUS
 10
330.1696615572
 20
332.7333021682
 11
330.659331365
 21
332.7333021682
  0
LINE
  8
1
  6
CONTINUOUS
 10
330.659331365
 20
332.7333021682
 11
330.659331365
 21
332.2436323604
  0
LINE
  8
1
  6
CONTINUOUS
 10
330.659331365
 20
332.2436323604
 11
330.1696615572
 21
332.2436323604
  0
LINE
  8
1
  6
CONTINUOUS
 10
328.9998947942
 20
333.3589913668
 11
328.9998947942
 21
333.8486611746
  0
LINE
  8
1
  6
CONTINUOUS
 10
328.9998947942
 20
333.8486611746
 11
329.489564602
 21
333.8486611746
  0
LINE
  8
1
  6
CONTINUOUS
 10
329.489564602
 20
333.8486611746
 11
329.489564602
 21
333.3589913668
  0
LINE
  8
1
  6
CONTINUOUS
 10
329.489564602
 20
333.3589913668
 11
328.9998947942
 21
333.3589913668
  0
LINE
  8
1
  6
CONTINUOUS
 10
342.6456623686
 20
332.4073594052
 11
342.6456623686
 21
332.1499301132
  0
LINE
  8
1
  6
CONTINUOUS
 10
342.6456623686
 20
332.1499301132
 11
341.1902548846
 21
332.1499301132
  0
LINE
  8
1
  6
CONTINUOUS
 10
341.1902548846
 20
332.1499301132
 11
341.1902548846
 21
332.4073594052
  0
LINE
  8
1
  6
CONTINUOUS
 10
342.292011952
 20
334.5438713954
 11
341.2718665192
 21
334.5438713954
  0
LINE
  8
1
  6
CONTINUOUS
 10
341.2718665192
 20
334.8013006874
 11
342.6048565514
 21
334.8013006874
  0
LINE
  8
1
  6
CONTINUOUS
 10
342.6048565514
 20
334.8013006874
 11
342.6048565514
 21
334.5428638444
  0
LINE
  8
1
  6
CONTINUOUS
 10
342.6048565514
 20
334.5428638444
 11
341.503099484
 21
332.4073594052
  0
LINE
  8
1
  6
CONTINUOUS
 10
341.503099484
 20
332.4073594052
 11
342.6456623686
 21
332.4073594052
  0
LINE
  8
1
  6
CONTINUOUS
 10
341.1902548846
 20
332.4073594052
 11
342.292011952
 21
334.5438713954
  0
LINE
  8
1
  6
CONTINUOUS
 10
341.2718665192
 20
334.5438713954
 11
341.2718665192
 21
334.8013006874
  0
LINE
  8
1
  6
CONTINUOUS
 10
343.3121573848
 20
333.685941681
 11
344.2370892438
 21
333.685941681
  0
LINE
  8
1
  6
CONTINUOUS
 10
344.2370892438
 20
333.685941681
 11
344.2370892438
 21
333.428512389
  0
LINE
  8
1
  6
CONTINUOUS
 10
344.2370892438
 20
333.428512389
 11
343.3121573848
 21
333.428512389
  0
LINE
  8
1
  6
CONTINUOUS
 10
343.3121573848
 20
333.428512389
 11
343.3121573848
 21
332.4073594052
  0
LINE
  8
1
  6
CONTINUOUS
 10
343.3121573848
 20
332.4073594052
 11
344.386710574
 21
332.4073594052
  0
LINE
  8
1
  6
CONTINUOUS
 10
344.386710574
 20
332.4073594052
 11
344.386710574
 21
332.1499301132
  0
LINE
  8
1
  6
CONTINUOUS
 10
344.386710574
 20
332.1499301132
 11
342.990244826
 21
332.1499301132
  0
LINE
  8
1
  6
CONTINUOUS
 10
342.990244826
 20
332.1499301132
 11
342.990244826
 21
334.8013006874
  0
LINE
  8
1
  6
CONTINUOUS
 10
342.990244826
 20
334.8013006874
 11
344.3187008784
 21
334.8013006874
  0
LINE
  8
1
  6
CONTINUOUS
 10
344.3187008784
 20
334.8013006874
 11
344.3187008784
 21
334.5438713954
  0
LINE
  8
1
  6
CONTINUOUS
 10
344.3187008784
 20
334.5438713954
 11
343.3121573848
 21
334.5438713954
  0
LINE
  8
1
  6
CONTINUOUS
 10
343.3121573848
 20
334.5438713954
 11
343.3121573848
 21
333.685941681
  0
POLYLINE
  8
1
  6
CONTINUOUS
 66
     1
 70
     0
 40
0.0
 41
0.0
  0
VERTEX
  8
1
 10
345.692496728
 20
333.7539513764
  0
VERTEX
  8
1
 10
345.7847209382
 20
333.9262124902
  0
VERTEX
  8
1
 10
345.8013122408
 20
334.080397915
  0
SEQEND
  8
1
  0
POLYLINE
  8
1
  6
CONTINUOUS
 66
     1
 70
     0
 40
0.0
 41
0.0
  0
VERTEX
  8
1
 10
345.8013122408
 20
334.080397915
  0
VERTEX
  8
1
 10
345.7657682012
 20
334.2765320756
  0
VERTEX
  8
1
 10
345.6788947888
 20
334.4068444534
  0
SEQEND
  8
1
  0
POLYLINE
  8
1
  6
CONTINUOUS
 66
     1
 70
     0
 40
0.0
 41
0.0
  0
VERTEX
  8
1
 10
345.4068560068
 20
333.6315339244
  0
VERTEX
  8
1
 10
345.5795481352
 20
333.6713512946
  0
VERTEX
  8
1
 10
345.692496728
 20
333.7539513764
  0
SEQEND
  8
1
  0
POLYLINE
  8
1
  6
CONTINUOUS
 66
     1
 70
     0
 40
0.0
 41
0.0
  0
VERTEX
  8
1
 10
345.3796521286
 20
334.8013006874
  0
VERTEX
  8
1
 10
345.7154303088
 20
334.7359512554
  0
VERTEX
  8
1
 10
345.9373316318
 20
334.5836696618
  0
SEQEND
  8
1
  0
POLYLINE
  8
1
  6
CONTINUOUS
 66
     1
 70
     0
 40
0.0
 41
0.0
  0
VERTEX
  8
1
 10
345.9373316318
 20
334.5836696618
  0
VERTEX
  8
1
 10
346.0856082486
 20
334.31907386
  0
VERTEX
  8
1
 10
346.1141568402
 20
334.080397915
  0
SEQEND
  8
1
  0
POLYLINE
  8
1
  6
CONTINUOUS
 66
     1
 70
     0
 40
0.0
 41
0.0
  0
VERTEX
  8
1
 10
346.1141568402
 20
334.080397915
  0
VERTEX
  8
1
 10
346.062103334
 20
333.7880246676
  0
VERTEX
  8
1
 10
345.9373316318
 20
333.5907281072
  0
SEQEND
  8
1
  0
POLYLINE
  8
1
  6
CONTINUOUS
 66
     1
 70
     0
 40
0.0
 41
0.0
  0
VERTEX
  8
1
 10
345.9373316318
 20
333.5907281072
  0
VERTEX
  8
1
 10
345.8112487776
 20
333.4757332886
  0
VERTEX
  8
1
 10
345.692496728
 20
333.4139028988
  0
SEQEND
  8
1
  0
LINE
  8
1
  6
CONTINUOUS
 10
345.692496728
 20
333.4139028988
 11
346.1821665356
 21
332.1499301132
  0
LINE
  8
1
  6
CONTINUOUS
 10
345.3932540676
 20
333.3741046326
 11
345.0123997728
 21
333.3741046326
  0
LINE
  8
1
  6
CONTINUOUS
 10
345.0123997728
 20
333.3741046326
 11
345.0123997728
 21
332.1499301132
  0
LINE
  8
1
  6
CONTINUOUS
 10
345.0123997728
 20
332.1499301132
 11
344.690487214
 21
332.1499301132
  0
LINE
  8
1
  6
CONTINUOUS
 10
344.690487214
 20
332.1499301132
 11
344.690487214
 21
334.8013006874
  0
LINE
  8
1
  6
CONTINUOUS
 10
344.690487214
 20
334.8013006874
 11
345.3796521286
 21
334.8013006874
  0
LINE
  8
1
  6
CONTINUOUS
 10
345.0123997728
 20
334.5438713954
 11
345.0123997728
 21
333.6315339244
  0
POLYLINE
  8
1
  6
CONTINUOUS
 66
     1
 70
     0
 40
0.0
 41
0.0
  0
VERTEX
  8
1
 10
345.6788947888
 20
334.4068444534
  0
VERTEX
  8
1
 10
345.4867606498
 20
334.5205355322
  0
VERTEX
  8
1
 10
345.311642433
 20
334.5438713954
  0
SEQEND
  8
1
  0
LINE
  8
1
  6
CONTINUOUS
 10
346.1821665356
 20
332.1499301132
 11
345.8557199972
 21
332.1499301132
  0
LINE
  8
1
  6
CONTINUOUS
 10
345.8557199972
 20
332.1499301132
 11
345.3932540676
 21
333.3741046326
  0
LINE
  8
1
  6
CONTINUOUS
 10
345.311642433
 20
334.5438713954
 11
345.0123997728
 21
334.5438713954
  0
LINE
  8
1
  6
CONTINUOUS
 10
345.0123997728
 20
333.6315339244
 11
345.4068560068
 21
333.6315339244
  0
POLYLINE
  8
1
  6
CONTINUOUS
 66
     1
 70
     0
 40
0.0
 41
0.0
  0
VERTEX
  8
1
 10
332.2396751786
 20
314.9288676566
  0
VERTEX
  8
1
 10
332.0067573322
 20
314.7767661236
  0
VERTEX
  8
1
 10
331.7908111882
 20
314.7394480602
  0
SEQEND
  8
1
  0
POLYLINE
  8
1
  6
CONTINUOUS
 66
     1
 70
     0
 40
0.0
 41
0.0
  0
VERTEX
  8
1
 10
331.7908111882
 20
314.7394480602
  0
VERTEX
  8
1
 10
331.5196110084
 20
314.8003256036
  0
VERTEX
  8
1
 10
331.3419471978
 20
314.9288676566
  0
SEQEND
  8
1
  0
POLYLINE
  8
1
  6
CONTINUOUS
 66
     1
 70
     0
 40
0.0
 41
0.0
  0
VERTEX
  8
1
 10
331.3419471978
 20
314.9288676566
  0
VERTEX
  8
1
 10
331.1575519518
 20
315.1888267326
  0
VERTEX
  8
1
 10
331.0524897652
 20
315.4904220674
  0
VERTEX
  8
1
 10
331.0018987202
 20
315.9898189066
  0
SEQEND
  8
1
  0
POLYLINE
  8
1
  6
CONTINUOUS
 66
     1
 70
     0
 40
0.0
 41
0.0
  0
VERTEX
  8
1
 10
331.369151076
 20
317.200391487
  0
VERTEX
  8
1
 10
331.5942749298
 20
317.3521866506
  0
VERTEX
  8
1
 10
331.8044131272
 20
317.3908186344
  0
SEQEND
  8
1
  0
POLYLINE
  8
1
  6
CONTINUOUS
 66
     1
 70
     0
 40
0.0
 41
0.0
  0
VERTEX
  8
1
 10
331.8044131272
 20
317.3908186344
  0
VERTEX
  8
1
 10
332.0493559138
 20
317.3483038498
  0
VERTEX
  8
1
 10
332.2124713004
 20
317.2411973042
  0
SEQEND
  8
1
  0
POLYLINE
  8
1
  6
CONTINUOUS
 66
     1
 70
     0
 40
0.0
 41
0.0
  0
VERTEX
  8
1
 10
332.2124713004
 20
317.2411973042
  0
VERTEX
  8
1
 10
332.4451382004
 20
316.8347251176
  0
VERTEX
  8
1
 10
332.4845100824
 20
316.4658867752
  0
SEQEND
  8
1
  0
LINE
  8
1
  6
CONTINUOUS
 10
332.4845100824
 20
316.4658867752
 11
332.1852674222
 21
316.4658867752
  0
POLYLINE
  8
1
  6
CONTINUOUS
 66
     1
 70
     0
 40
0.0
 41
0.0
  0
VERTEX
  8
1
 10
332.1852674222
 20
316.4658867752
  0
VERTEX
  8
1
 10
332.1431637222
 20
316.8097913062
  0
VERTEX
  8
1
 10
332.022044153
 20
317.0507701568
  0
SEQEND
  8
1
  0
POLYLINE
  8
1
  6
CONTINUOUS
 66
     1
 70
     0
 40
0.0
 41
0.0
  0
VERTEX
  8
1
 10
331.5867821016
 20
317.0371682176
  0
VERTEX
  8
1
 10
331.4273093752
 20
316.7824740328
  0
VERTEX
  8
1
 10
331.3495007532
 20
316.4906543996
  0
VERTEX
  8
1
 10
331.3147433196
 20
316.0170227848
  0
SEQEND
  8
1
  0
POLYLINE
  8
1
  6
CONTINUOUS
 66
     1
 70
     0
 40
0.0
 41
0.0
  0
VERTEX
  8
1
 10
331.3147433196
 20
316.0170227848
  0
VERTEX
  8
1
 10
331.3657412378
 20
315.497063604
  0
VERTEX
  8
1
 10
331.4313716376
 20
315.3024695436
  0
VERTEX
  8
1
 10
331.5459762842
 20
315.1328967432
  0
SEQEND
  8
1
  0
POLYLINE
  8
1
  6
CONTINUOUS
 66
     1
 70
     0
 40
0.0
 41
0.0
  0
VERTEX
  8
1
 10
331.5459762842
 20
315.1328967432
  0
VERTEX
  8
1
 10
331.672557277
 20
315.0467516652
  0
VERTEX
  8
1
 10
331.7908111882
 20
315.0240812302
  0
SEQEND
  8
1
  0
POLYLINE
  8
1
  6
CONTINUOUS
 66
     1
 70
     0
 40
0.0
 41
0.0
  0
VERTEX
  8
1
 10
331.7908111882
 20
315.0240812302
  0
VERTEX
  8
1
 10
331.9311059580001
 20
315.0623935656
  0
VERTEX
  8
1
 10
332.022044153
 20
315.1328967432
  0
SEQEND
  8
1
  0
POLYLINE
  8
1
  6
CONTINUOUS
 66
     1
 70
     0
 40
0.0
 41
0.0
  0
VERTEX
  8
1
 10
332.022044153
 20
315.1328967432
  0
VERTEX
  8
1
 10
332.1092835948
 20
315.2924762804
  0
VERTEX
  8
1
 10
332.1491246614
 20
315.4713516602
  0
VERTEX
  8
1
 10
332.171665483
 20
315.7585859418
  0
SEQEND
  8
1
  0
LINE
  8
1
  6
CONTINUOUS
 10
332.171665483
 20
315.7585859418
 11
332.4981120216
 21
315.7585859418
  0
POLYLINE
  8
1
  6
CONTINUOUS
 66
     1
 70
     0
 40
0.0
 41
0.0
  0
VERTEX
  8
1
 10
332.4981120216
 20
315.7585859418
  0
VERTEX
  8
1
 10
332.4203254140001
 20
315.2697516796
  0
VERTEX
  8
1
 10
332.2396751786
 20
314.9288676566
  0
SEQEND
  8
1
  0
POLYLINE
  8
1
  6
CONTINUOUS
 66
     1
 70
     0
 40
0.0
 41
0.0
  0
VERTEX
  8
1
 10
331.0018987202
 20
315.9898189066
  0
VERTEX
  8
1
 10
331.0917540892
 20
316.7081614686
  0
VERTEX
  8
1
 10
331.369151076
 20
317.200391487
  0
SEQEND
  8
1
  0
POLYLINE
  8
1
  6
CONTINUOUS
 66
     1
 70
     0
 40
0.0
 41
0.0
  0
VERTEX
  8
1
 10
332.022044153
 20
317.0507701568
  0
VERTEX
  8
1
 10
331.9081876262
 20
317.118497888
  0
VERTEX
  8
1
 10
331.8044131272
 20
317.1323817914
  0
SEQEND
  8
1
  0
POLYLINE
  8
1
  6
CONTINUOUS
 66
     1
 70
     0
 40
0.0
 41
0.0
  0
VERTEX
  8
1
 10
331.8044131272
 20
317.1323817914
  0
VERTEX
  8
1
 10
331.672586208
 20
317.1009733942
  0
VERTEX
  8
1
 10
331.5867821016
 20
317.0371682176
  0
SEQEND
  8
1
  0
LINE
  8
1
  6
CONTINUOUS
 10
333.205412855
 20
315.0376831694
 11
333.205412855
 21
314.7157706106
  0
LINE
  8
1
  6
CONTINUOUS
 10
333.205412855
 20
314.7157706106
 11
332.8835002962
 21
314.7157706106
  0
LINE
  8
1
  6
CONTINUOUS
 10
332.8835002962
 20
315.0376831694
 11
333.205412855
 21
315.0376831694
  0
LINE
  8
1
  6
CONTINUOUS
 10
332.8835002962
 20
314.7157706106
 11
332.8835002962
 21
315.0376831694
  0
LINE
  8
1
  6
CONTINUOUS
 10
333.3273208642
 20
331.46912206
 11
325.3273208642
 21
331.46912206
  0
LINE
  8
1
  6
CONTINUOUS
 10
333.3273208642
 20
330.96912206
 11
333.3273208642
 21
331.46912206
  0
LINE
  8
1
  6
CONTINUOUS
 10
325.3273208642
 20
330.96912206
 11
333.3273208642
 21
330.96912206
  0
LINE
  8
1
  6
CONTINUOUS
 10
325.3273208642
 20
331.46912206
 11
325.3273208642
 21
330.96912206
  0
POLYLINE
  8
1
  6
CONTINUOUS
 66
     1
 70
     0
 40
0.0
 41
0.0
  0
VERTEX
  8
1
 10
327.6397008838
 20
334.0662922002
  0
VERTEX
  8
1
 10
327.9502133932
 20
333.8244575766
  0
VERTEX
  8
1
 10
328.2109823262
 20
333.6582340272
  0
SEQEND
  8
1
  0
POLYLINE
  8
1
  6
CONTINUOUS
 66
     1
 70
     0
 40
0.0
 41
0.0
  0
VERTEX
  8
1
 10
328.319797839
 20
332.597282777
  0
VERTEX
  8
1
 10
328.041127674
 20
332.4392549922
  0
VERTEX
  8
1
 10
327.789322214
 20
332.4078631806
  0
SEQEND
  8
1
  0
POLYLINE
  8
1
  6
CONTINUOUS
 66
     1
 70
     0
 40
0.0
 41
0.0
  0
VERTEX
  8
1
 10
327.789322214
 20
332.4078631806
  0
VERTEX
  8
1
 10
327.4881564568
 20
332.4560069836
  0
VERTEX
  8
1
 10
327.2860504672
 20
332.583680838
  0
SEQEND
  8
1
  0
POLYLINE
  8
1
  6
CONTINUOUS
 66
     1
 70
     0
 40
0.0
 41
0.0
  0
VERTEX
  8
1
 10
327.2860504672
 20
332.583680838
  0
VERTEX
  8
1
 10
327.1110623218
 20
332.851871278
  0
VERTEX
  8
1
 10
327.0684194414
 20
333.100554524
  0
SEQEND
  8
1
  0
LINE
  8
1
  6
CONTINUOUS
 10
327.0684194414
 20
333.100554524
 11
327.0684194414
 21
333.236573915
  0
LINE
  8
1
  6
CONTINUOUS
 10
327.0684194414
 20
333.236573915
 11
327.3812640408
 21
333.236573915
  0
LINE
  8
1
  6
CONTINUOUS
 10
327.3812640408
 20
333.236573915
 11
327.3812640408
 21
333.114156463
  0
POLYLINE
  8
1
  6
CONTINUOUS
 66
     1
 70
     0
 40
0.0
 41
0.0
  0
VERTEX
  8
1
 10
327.3812640408
 20
333.114156463
  0
VERTEX
  8
1
 10
327.4099383552
 20
332.9193353432
  0
VERTEX
  8
1
 10
327.4900795538
 20
332.7877099246
  0
SEQEND
  8
1
  0
POLYLINE
  8
1
  6
CONTINUOUS
 66
     1
 70
     0
 40
0.0
 41
0.0
  0
VERTEX
  8
1
 10
327.4900795538
 20
332.7877099246
  0
VERTEX
  8
1
 10
327.631713038
 20
332.6988922762
  0
VERTEX
  8
1
 10
327.7621183358
 20
332.6788944116
  0
SEQEND
  8
1
  0
POLYLINE
  8
1
  6
CONTINUOUS
 66
     1
 70
     0
 40
0.0
 41
0.0
  0
VERTEX
  8
1
 10
327.7621183358
 20
332.6788944116
  0
VERTEX
  8
1
 10
327.9569468212
 20
332.7075783312
  0
VERTEX
  8
1
 10
328.0885648742
 20
332.7877099246
  0
SEQEND
  8
1
  0
POLYLINE
  8
1
  6
CONTINUOUS
 66
     1
 70
     0
 40
0.0
 41
0.0
  0
VERTEX
  8
1
 10
328.2109823262
 20
333.6582340272
  0
VERTEX
  8
1
 10
328.3545315508
 20
333.5532891788
  0
VERTEX
  8
1
 10
328.4620008878
 20
333.4119250054
  0
VERTEX
  8
1
 10
328.5238269256
 20
333.1413603412
  0
SEQEND
  8
1
  0
POLYLINE
  8
1
  6
CONTINUOUS
 66
     1
 70
     0
 40
0.0
 41
0.0
  0
VERTEX
  8
1
 10
328.5238269256
 20
333.1413603412
  0
VERTEX
  8
1
 10
328.4646578532
 20
332.8144287708
  0
VERTEX
  8
1
 10
328.319797839
 20
332.597282777
  0
SEQEND
  8
1
  0
POLYLINE
  8
1
  6
CONTINUOUS
 66
     1
 70
     0
 40
0.0
 41
0.0
  0
VERTEX
  8
1
 10
328.0885648742
 20
332.7877099246
  0
VERTEX
  8
1
 10
328.188853967
 20
332.9509082262
  0
VERTEX
  8
1
 10
328.2109823262
 20
333.100554524
  0
SEQEND
  8
1
  0
POLYLINE
  8
1
  6
CONTINUOUS
 66
     1
 70
     0
 40
0.0
 41
0.0
  0
VERTEX
  8
1
 10
328.2109823262
 20
333.100554524
  0
VERTEX
  8
1
 10
328.195389251
 20
333.2099016678
  0
VERTEX
  8
1
 10
328.1474150752
 20
333.3092257706
  0
VERTEX
  8
1
 10
328.0205551788
 20
333.4270010624
  0
SEQEND
  8
1
  0
POLYLINE
  8
1
  6
CONTINUOUS
 66
     1
 70
     0
 40
0.0
 41
0.0
  0
VERTEX
  8
1
 10
328.0205551788
 20
333.4270010624
  0
VERTEX
  8
1
 10
327.6559084198
 20
333.6768594806
  0
VERTEX
  8
1
 10
327.3812640408
 20
333.889466992
  0
SEQEND
  8
1
  0
POLYLINE
  8
1
  6
CONTINUOUS
 66
     1
 70
     0
 40
0.0
 41
0.0
  0
VERTEX
  8
1
 10
327.1500310762
 20
334.3655348606
  0
VERTEX
  8
1
 10
327.2077489946
 20
334.6714710394
  0
VERTEX
  8
1
 10
327.3540601626
 20
334.8688066074
  0
SEQEND
  8
1
  0
POLYLINE
  8
1
  6
CONTINUOUS
 66
     1
 70
     0
 40
0.0
 41
0.0
  0
VERTEX
  8
1
 10
327.802924153
 20
335.0592337548
  0
VERTEX
  8
1
 10
328.0798494196
 20
335.0142189268
  0
VERTEX
  8
1
 10
328.2653900826
 20
334.8960104856
  0
SEQEND
  8
1
  0
POLYLINE
  8
1
  6
CONTINUOUS
 66
     1
 70
     0
 40
0.0
 41
0.0
  0
VERTEX
  8
1
 10
328.2653900826
 20
334.8960104856
  0
VERTEX
  8
1
 10
328.43125346
 20
334.5956717358
  0
VERTEX
  8
1
 10
328.45581723
 20
334.3247290432
  0
SEQEND
  8
1
  0
LINE
  8
1
  6
CONTINUOUS
 10
328.45581723
 20
334.3247290432
 11
328.1429726306
 21
334.3247290432
  0
POLYLINE
  8
1
  6
CONTINUOUS
 66
     1
 70
     0
 40
0.0
 41
0.0
  0
VERTEX
  8
1
 10
328.1429726306
 20
334.3247290432
  0
VERTEX
  8
1
 10
328.1254547934
 20
334.5447398976
  0
VERTEX
  8
1
 10
328.0341571178
 20
334.691981399
  0
SEQEND
  8
1
  0
POLYLINE
  8
1
  6
CONTINUOUS
 66
     1
 70
     0
 40
0.0
 41
0.0
  0
VERTEX
  8
1
 10
328.0341571178
 20
334.691981399
  0
VERTEX
  8
1
 10
327.914035085
 20
334.7691664984
  0
VERTEX
  8
1
 10
327.802924153
 20
334.7871949728
  0
SEQEND
  8
1
  0
POLYLINE
  8
1
  6
CONTINUOUS
 66
     1
 70
     0
 40
0.0
 41
0.0
  0
VERTEX
  8
1
 10
327.802924153
 20
334.7871949728
  0
VERTEX
  8
1
 10
327.6632130402
 20
334.7574650406
  0
VERTEX
  8
1
 10
327.5716911884
 20
334.691981399
  0
SEQEND
  8
1
  0
POLYLINE
  8
1
  6
CONTINUOUS
 66
     1
 70
     0
 40
0.0
 41
0.0
  0
VERTEX
  8
1
 10
327.5716911884
 20
334.691981399
  0
VERTEX
  8
1
 10
327.4736525012
 20
334.5439560016
  0
VERTEX
  8
1
 10
327.4492737364
 20
334.4063406778
  0
SEQEND
  8
1
  0
POLYLINE
  8
1
  6
CONTINUOUS
 66
     1
 70
     0
 40
0.0
 41
0.0
  0
VERTEX
  8
1
 10
327.3812640408
 20
333.889466992
  0
VERTEX
  8
1
 10
327.1991587978
 20
334.1313783222
  0
VERTEX
  8
1
 10
327.1500310762
 20
334.3655348606
  0
SEQEND
  8
1
  0
POLYLINE
  8
1
  6
CONTINUOUS
 66
     1
 70
     0
 40
0.0
 41
0.0
  0
VERTEX
  8
1
 10
327.3540601626
 20
334.8688066074
  0
VERTEX
  8
1
 10
327.5877617906
 20
335.0197849536
  0
VERTEX
  8
1
 10
327.802924153
 20
335.0592337548
  0
SEQEND
  8
1
  0
POLYLINE
  8
1
  6
CONTINUOUS
 66
     1
 70
     0
 40
0.0
 41
0.0
  0
VERTEX
  8
1
 10
327.4492737364
 20
334.4063406778
  0
VERTEX
  8
1
 10
327.4684221348
 20
334.2958071022
  0
VERTEX
  8
1
 10
327.5201052106
 20
334.1960760154
  0
VERTEX
  8
1
 10
327.6397008838
 20
334.0662922002
  0
SEQEND
  8
1
  0
LINE
  8
1
  6
CONTINUOUS
 10
348.3273208642
 20
331.46912206
 11
340.3273208642
 21
331.46912206
  0
LINE
  8
1
  6
CONTINUOUS
 10
348.3273208642
 20
330.96912206
 11
348.3273208642
 21
331.46912206
  0
LINE
  8
1
  6
CONTINUOUS
 10
340.3273208642
 20
330.96912206
 11
348.3273208642
 21
330.96912206
  0
LINE
  8
1
  6
CONTINUOUS
 10
340.3273208642
 20
331.46912206
 11
340.3273208642
 21
330.96912206
  0
LINE
  8
1
  6
CONTINUOUS
 10
330.6273208642
 20
330.2202327598
 11
328.0273208642
 21
328.71912206
  0
LINE
  8
1
  6
CONTINUOUS
 10
330.6273208642
 20
327.21801136
 11
330.6273208642
 21
330.2202327598
  0
LINE
  8
1
  6
CONTINUOUS
 10
328.0273208642
 20
328.71912206
 11
330.6273208642
 21
327.21801136
  0
LINE
  8
1
  6
CONTINUOUS
 10
341.9920099388
 20
317.5019628742
 11
341.9920099388
 21
317.246387497
  0
LINE
  8
1
  6
CONTINUOUS
 10
341.9920099388
 20
317.246387497
 11
340.992715215
 21
317.246387497
  0
LINE
  8
1
  6
CONTINUOUS
 10
340.992715215
 20
316.3946362886
 11
341.9109860422
 21
316.3946362886
  0
LINE
  8
1
  6
CONTINUOUS
 10
341.9109860422
 20
316.3946362886
 11
341.9109860422
 21
316.1390609112
  0
LINE
  8
1
  6
CONTINUOUS
 10
341.9109860422
 20
316.1390609112
 11
340.992715215
 21
316.1390609112
  0
LINE
  8
1
  6
CONTINUOUS
 10
340.992715215
 20
316.1390609112
 11
340.992715215
 21
315.1252619098
  0
LINE
  8
1
  6
CONTINUOUS
 10
340.992715215
 20
315.1252619098
 11
342.0595298524
 21
315.1252619098
  0
LINE
  8
1
  6
CONTINUOUS
 10
342.0595298524
 20
315.1252619098
 11
342.0595298524
 21
314.8696865326
  0
LINE
  8
1
  6
CONTINUOUS
 10
342.0595298524
 20
314.8696865326
 11
340.6731209566
 21
314.8696865326
  0
LINE
  8
1
  6
CONTINUOUS
 10
340.6731209566
 20
314.8696865326
 11
340.6731209566
 21
317.5019628742
  0
LINE
  8
1
  6
CONTINUOUS
 10
340.992715215
 20
317.246387497
 11
340.992715215
 21
316.3946362886
  0
LINE
  8
1
  6
CONTINUOUS
 10
340.6731209566
 20
317.5019628742
 11
341.9920099388
 21
317.5019628742
  0
LINE
  8
1
  6
CONTINUOUS
 10
344.098631248
 20
317.246387497
 11
344.098631248
 21
317.5019628742
  0
LINE
  8
1
  6
CONTINUOUS
 10
344.098631248
 20
317.5019628742
 11
345.4895414716
 21
317.5019628742
  0
LINE
  8
1
  6
CONTINUOUS
 10
345.4895414716
 20
317.5019628742
 11
345.4895414716
 21
317.246387497
  0
LINE
  8
1
  6
CONTINUOUS
 10
345.4895414716
 20
317.246387497
 11
344.9358781788
 21
317.246387497
  0
LINE
  8
1
  6
CONTINUOUS
 10
344.9358781788
 20
317.246387497
 11
344.9358781788
 21
314.8696865326
  0
LINE
  8
1
  6
CONTINUOUS
 10
344.9358781788
 20
314.8696865326
 11
344.6162839202
 21
314.8696865326
  0
LINE
  8
1
  6
CONTINUOUS
 10
344.6162839202
 20
314.8696865326
 11
344.6162839202
 21
317.246387497
  0
LINE
  8
1
  6
CONTINUOUS
 10
344.6162839202
 20
317.246387497
 11
344.098631248
 21
317.246387497
  0
LINE
  8
1
  6
CONTINUOUS
 10
346.178244592
 20
316.3946362886
 11
347.0965154192
 21
316.3946362886
  0
LINE
  8
1
  6
CONTINUOUS
 10
347.0965154192
 20
316.3946362886
 11
347.0965154192
 21
316.1390609112
  0
LINE
  8
1
  6
CONTINUOUS
 10
347.0965154192
 20
316.1390609112
 11
346.178244592
 21
316.1390609112
  0
LINE
  8
1
  6
CONTINUOUS
 10
346.178244592
 20
316.1390609112
 11
346.178244592
 21
315.1252619098
  0
LINE
  8
1
  6
CONTINUOUS
 10
346.178244592
 20
315.1252619098
 11
347.2450592294
 21
315.1252619098
  0
LINE
  8
1
  6
CONTINUOUS
 10
347.2450592294
 20
315.1252619098
 11
347.2450592294
 21
314.8696865326
  0
LINE
  8
1
  6
CONTINUOUS
 10
347.2450592294
 20
314.8696865326
 11
345.8586503334
 21
314.8696865326
  0
LINE
  8
1
  6
CONTINUOUS
 10
345.8586503334
 20
314.8696865326
 11
345.8586503334
 21
317.5019628742
  0
LINE
  8
1
  6
CONTINUOUS
 10
345.8586503334
 20
317.5019628742
 11
347.1775393156
 21
317.5019628742
  0
LINE
  8
1
  6
CONTINUOUS
 10
347.1775393156
 20
317.5019628742
 11
347.1775393156
 21
317.246387497
  0
LINE
  8
1
  6
CONTINUOUS
 10
347.1775393156
 20
317.246387497
 11
346.178244592
 21
317.246387497
  0
LINE
  8
1
  6
CONTINUOUS
 10
346.178244592
 20
317.246387497
 11
346.178244592
 21
316.3946362886
  0
POLYLINE
  8
1
  6
CONTINUOUS
 66
     1
 70
     0
 40
0.0
 41
0.0
  0
VERTEX
  8
1
 10
348.5414415736
 20
316.4621562024
  0
VERTEX
  8
1
 10
348.6330016178
 20
316.6331767524
  0
VERTEX
  8
1
 10
348.6494734356
 20
316.7862517884
  0
SEQEND
  8
1
  0
POLYLINE
  8
1
  6
CONTINUOUS
 66
     1
 70
     0
 40
0.0
 41
0.0
  0
VERTEX
  8
1
 10
348.6494734356
 20
316.7862517884
  0
VERTEX
  8
1
 10
348.6141853716
 20
316.9809734602
  0
VERTEX
  8
1
 10
348.5279375908
 20
317.1103473744
  0
SEQEND
  8
1
  0
LINE
  8
1
  6
CONTINUOUS
 10
347.8662424360001
 20
316.3406203576
 11
348.2578579358
 21
316.3406203576
  0
POLYLINE
  8
1
  6
CONTINUOUS
 66
     1
 70
     0
 40
0.0
 41
0.0
  0
VERTEX
  8
1
 10
348.2578579358
 20
316.3406203576
  0
VERTEX
  8
1
 10
348.4293063966
 20
316.3801509772
  0
VERTEX
  8
1
 10
348.5414415736
 20
316.4621562024
  0
SEQEND
  8
1
  0
POLYLINE
  8
1
  6
CONTINUOUS
 66
     1
 70
     0
 40
0.0
 41
0.0
  0
VERTEX
  8
1
 10
348.2308499704
 20
317.5019628742
  0
VERTEX
  8
1
 10
348.564209995
 20
317.4370840658
  0
VERTEX
  8
1
 10
348.7845132632
 20
317.2858991502
  0
SEQEND
  8
1
  0
POLYLINE
  8
1
  6
CONTINUOUS
 66
     1
 70
     0
 40
0.0
 41
0.0
  0
VERTEX
  8
1
 10
348.7845132632
 20
317.2858991502
  0
VERTEX
  8
1
 10
348.9317220442
 20
317.0232088738
  0
VERTEX
  8
1
 10
348.960065039
 20
316.7862517884
  0
SEQEND
  8
1
  0
POLYLINE
  8
1
  6
CONTINUOUS
 66
     1
 70
     0
 40
0.0
 41
0.0
  0
VERTEX
  8
1
 10
348.960065039
 20
316.7862517884
  0
VERTEX
  8
1
 10
348.9083864036
 20
316.4959841096
  0
VERTEX
  8
1
 10
348.7845132632
 20
316.3001084092
  0
SEQEND
  8
1
  0
POLYLINE
  8
1
  6
CONTINUOUS
 66
     1
 70
     0
 40
0.0
 41
0.0
  0
VERTEX
  8
1
 10
348.7845132632
 20
316.3001084092
  0
VERTEX
  8
1
 10
348.6593384132
 20
316.1859417426
  0
VERTEX
  8
1
 10
348.5414415736
 20
316.1245566336
  0
SEQEND
  8
1
  0
LINE
  8
1
  6
CONTINUOUS
 10
348.5414415736
 20
316.1245566336
 11
349.0275849528
 21
314.8696865326
  0
LINE
  8
1
  6
CONTINUOUS
 10
348.7034893666
 20
314.8696865326
 11
348.244353953
 21
316.0850449802
  0
LINE
  8
1
  6
CONTINUOUS
 10
348.244353953
 20
316.0850449802
 11
347.8662424360001
 21
316.0850449802
  0
LINE
  8
1
  6
CONTINUOUS
 10
347.8662424360001
 20
316.0850449802
 11
347.8662424360001
 21
314.8696865326
  0
LINE
  8
1
  6
CONTINUOUS
 10
347.8662424360001
 20
314.8696865326
 11
347.5466481776
 21
314.8696865326
  0
LINE
  8
1
  6
CONTINUOUS
 10
347.5466481776
 20
314.8696865326
 11
347.5466481776
 21
317.5019628742
  0
LINE
  8
1
  6
CONTINUOUS
 10
347.5466481776
 20
317.5019628742
 11
348.2308499704
 21
317.5019628742
  0
POLYLINE
  8
1
  6
CONTINUOUS
 66
     1
 70
     0
 40
0.0
 41
0.0
  0
VERTEX
  8
1
 10
348.5279375908
 20
317.1103473744
  0
VERTEX
  8
1
 10
348.3371871338
 20
317.2232196902
  0
VERTEX
  8
1
 10
348.1633300566
 20
317.246387497
  0
SEQEND
  8
1
  0
LINE
  8
1
  6
CONTINUOUS
 10
349.0275849528
 20
314.8696865326
 11
348.7034893666
 21
314.8696865326
  0
LINE
  8
1
  6
CONTINUOUS
 10
347.8662424360001
 20
317.246387497
 11
347.8662424360001
 21
316.3406203576
  0
LINE
  8
1
  6
CONTINUOUS
 10
348.1633300566
 20
317.246387497
 11
347.8662424360001
 21
317.246387497
  0
LINE
  8
1
  6
CONTINUOUS
 10
346.7992915506
 20
347.4727664016
 11
346.7992915506
 21
346.5876328088
  0
LINE
  8
1
  6
CONTINUOUS
 10
346.7992915506
 20
346.5876328088
 11
347.642611775
 21
346.5876328088
  0
LINE
  8
1
  6
CONTINUOUS
 10
347.642611775
 20
346.5876328088
 11
347.642611775
 21
346.3302035168
  0
LINE
  8
1
  6
CONTINUOUS
 10
346.4773789918
 20
345.0788251192
 11
346.4773789918
 21
347.7301956934
  0
LINE
  8
1
  6
CONTINUOUS
 10
346.4773789918
 20
347.7301956934
 11
347.914650557
 21
347.7301956934
  0
LINE
  8
1
  6
CONTINUOUS
 10
347.914650557
 20
347.7301956934
 11
347.914650557
 21
347.4727664016
  0
LINE
  8
1
  6
CONTINUOUS
 10
347.914650557
 20
347.4727664016
 11
346.7992915506
 21
347.4727664016
  0
LINE
  8
1
  6
CONTINUOUS
 10
347.642611775
 20
346.3302035168
 11
346.7992915506
 21
346.3302035168
  0
LINE
  8
1
  6
CONTINUOUS
 10
346.7992915506
 20
346.3302035168
 11
346.7992915506
 21
345.0788251192
  0
LINE
  8
1
  6
CONTINUOUS
 10
346.7992915506
 20
345.0788251192
 11
346.4773789918
 21
345.0788251192
  0
LINE
  8
1
  6
CONTINUOUS
 10
348.5403397558
 20
345.0788251192
 11
348.218427197
 21
345.0788251192
  0
LINE
  8
1
  6
CONTINUOUS
 10
348.218427197
 20
345.0788251192
 11
348.218427197
 21
347.7301956934
  0
LINE
  8
1
  6
CONTINUOUS
 10
348.218427197
 20
347.7301956934
 11
349.6556987624
 21
347.7301956934
  0
LINE
  8
1
  6
CONTINUOUS
 10
349.6556987624
 20
347.7301956934
 11
349.6556987624
 21
347.4727664016
  0
LINE
  8
1
  6
CONTINUOUS
 10
349.6556987624
 20
347.4727664016
 11
348.5403397558
 21
347.4727664016
  0
LINE
  8
1
  6
CONTINUOUS
 10
348.5403397558
 20
347.4727664016
 11
348.5403397558
 21
346.5876328088
  0
LINE
  8
1
  6
CONTINUOUS
 10
348.5403397558
 20
346.5876328088
 11
349.3836599804
 21
346.5876328088
  0
LINE
  8
1
  6
CONTINUOUS
 10
348.5403397558
 20
346.3302035168
 11
348.5403397558
 21
345.0788251192
  0
LINE
  8
1
  6
CONTINUOUS
 10
349.3836599804
 20
346.3302035168
 11
348.5403397558
 21
346.3302035168
  0
LINE
  8
1
  6
CONTINUOUS
 10
349.3836599804
 20
346.5876328088
 11
349.3836599804
 21
346.3302035168
  0
POLYLINE
  8
1
  6
CONTINUOUS
 66
     1
 70
     0
 40
0.0
 41
0.0
  0
VERTEX
  8
1
 10
328.2543070212
 20
315.0376831694
  0
VERTEX
  8
1
 10
328.4171637612
 20
315.063628278
  0
VERTEX
  8
1
 10
328.5263458032
 20
315.1328967432
  0
SEQEND
  8
1
  0
POLYLINE
  8
1
  6
CONTINUOUS
 66
     1
 70
     0
 40
0.0
 41
0.0
  0
VERTEX
  8
1
 10
328.5263458032
 20
315.1328967432
  0
VERTEX
  8
1
 10
328.6103808778
 20
315.2990304558
  0
VERTEX
  8
1
 10
328.6260933566
 20
315.4457413426
  0
SEQEND
  8
1
  0
LINE
  8
1
  6
CONTINUOUS
 10
328.6260933566
 20
317.3908186344
 11
328.9480059154
 21
317.3908186344
  0
POLYLINE
  8
1
  6
CONTINUOUS
 66
     1
 70
     0
 40
0.0
 41
0.0
  0
VERTEX
  8
1
 10
328.9480059154
 20
315.4457413426
  0
VERTEX
  8
1
 10
328.8901293528
 20
315.1110877512
  0
VERTEX
  8
1
 10
328.7439768288
 20
314.8880618392
  0
SEQEND
  8
1
  0
POLYLINE
  8
1
  6
CONTINUOUS
 66
     1
 70
     0
 40
0.0
 41
0.0
  0
VERTEX
  8
1
 10
328.7439768288
 20
314.8880618392
  0
VERTEX
  8
1
 10
328.6232608124
 20
314.8055182258
  0
VERTEX
  8
1
 10
328.4837815662
 20
314.7603712836
  0
VERTEX
  8
1
 10
328.2543070212
 20
314.7394480602
  0
SEQEND
  8
1
  0
LINE
  8
1
  6
CONTINUOUS
 10
328.2543070212
 20
314.7394480602
 11
328.240705082
 21
314.7394480602
  0
POLYLINE
  8
1
  6
CONTINUOUS
 66
     1
 70
     0
 40
0.0
 41
0.0
  0
VERTEX
  8
1
 10
328.240705082
 20
314.7394480602
  0
VERTEX
  8
1
 10
327.9503168632
 20
314.7761828988
  0
VERTEX
  8
1
 10
327.7510352742
 20
314.8880618392
  0
SEQEND
  8
1
  0
POLYLINE
  8
1
  6
CONTINUOUS
 66
     1
 70
     0
 40
0.0
 41
0.0
  0
VERTEX
  8
1
 10
327.7510352742
 20
314.8880618392
  0
VERTEX
  8
1
 10
327.5742051452
 20
315.178823712
  0
VERTEX
  8
1
 10
327.5379382284
 20
315.4457413426
  0
SEQEND
  8
1
  0
LINE
  8
1
  6
CONTINUOUS
 10
327.5379382284
 20
315.4457413426
 11
327.5379382284
 21
317.3908186344
  0
LINE
  8
1
  6
CONTINUOUS
 10
327.5379382284
 20
317.3908186344
 11
327.8598507872
 21
317.3908186344
  0
LINE
  8
1
  6
CONTINUOUS
 10
327.8598507872
 20
317.3908186344
 11
327.8598507872
 21
315.4457413426
  0
POLYLINE
  8
1
  6
CONTINUOUS
 66
     1
 70
     0
 40
0.0
 41
0.0
  0
VERTEX
  8
1
 10
327.8598507872
 20
315.4457413426
  0
VERTEX
  8
1
 10
327.8831573978
 20
315.2600713496
  0
VERTEX
  8
1
 10
327.9550643608
 20
315.1328967432
  0
SEQEND
  8
1
  0
POLYLINE
  8
1
  6
CONTINUOUS
 66
     1
 70
     0
 40
0.0
 41
0.0
  0
VERTEX
  8
1
 10
327.9550643608
 20
315.1328967432
  0
VERTEX
  8
1
 10
328.1058492446
 20
315.0525182206
  0
VERTEX
  8
1
 10
328.240705082
 20
315.0376831694
  0
SEQEND
  8
1
  0
LINE
  8
1
  6
CONTINUOUS
 10
328.240705082
 20
315.0376831694
 11
328.2543070212
 21
315.0376831694
  0
LINE
  8
1
  6
CONTINUOUS
 10
328.6260933566
 20
315.4457413426
 11
328.6260933566
 21
317.3908186344
  0
LINE
  8
1
  6
CONTINUOUS
 10
328.9480059154
 20
317.3908186344
 11
328.9480059154
 21
315.4457413426
  0
LINE
  8
1
  6
CONTINUOUS
 10
343.3829201622
 20
314.8696865326
 11
342.680713059
 21
316.8402677194
  0
LINE
  8
1
  6
CONTINUOUS
 10
342.680713059
 20
316.8402677194
 11
342.6672090764
 21
316.8402677194
  0
LINE
  8
1
  6
CONTINUOUS
 10
342.6672090764
 20
316.8402677194
 11
342.6672090764
 21
314.8696865326
  0
LINE
  8
1
  6
CONTINUOUS
 10
342.6672090764
 20
314.8696865326
 11
342.3476148178
 21
314.8696865326
  0
LINE
  8
1
  6
CONTINUOUS
 10
342.3476148178
 20
314.8696865326
 11
342.3476148178
 21
317.5019628742
  0
LINE
  8
1
  6
CONTINUOUS
 10
342.3476148178
 20
317.5019628742
 11
342.7347289902
 21
317.5019628742
  0
LINE
  8
1
  6
CONTINUOUS
 10
342.7347289902
 20
317.5019628742
 11
343.4369360932
 21
315.5303813924
  0
LINE
  8
1
  6
CONTINUOUS
 10
343.4369360932
 20
315.5303813924
 11
343.4414374208
 21
315.5303813924
  0
LINE
  8
1
  6
CONTINUOUS
 10
343.4414374208
 20
315.5303813924
 11
343.4414374208
 21
317.5019628742
  0
LINE
  8
1
  6
CONTINUOUS
 10
343.7610316792
 20
317.5019628742
 11
343.7610316792
 21
314.8696865326
  0
LINE
  8
1
  6
CONTINUOUS
 10
343.7610316792
 20
314.8696865326
 11
343.3829201622
 21
314.8696865326
  0
LINE
  8
1
  6
CONTINUOUS
 10
343.4414374208
 20
317.5019628742
 11
343.7610316792
 21
317.5019628742
  0
LINE
  8
1
  6
CONTINUOUS
 10
330.6890541208
 20
317.3908186344
 11
330.6890541208
 21
314.7394480602
  0
LINE
  8
1
  6
CONTINUOUS
 10
330.6890541208
 20
314.7394480602
 11
330.3081998258
 21
314.7394480602
  0
LINE
  8
1
  6
CONTINUOUS
 10
330.3081998258
 20
314.7394480602
 11
329.6008989924
 21
316.7243236182
  0
LINE
  8
1
  6
CONTINUOUS
 10
329.6008989924
 20
316.7243236182
 11
329.5872970534
 21
316.7243236182
  0
LINE
  8
1
  6
CONTINUOUS
 10
329.5872970534
 20
314.7394480602
 11
329.2653844946
 21
314.7394480602
  0
LINE
  8
1
  6
CONTINUOUS
 10
329.5872970534
 20
316.7243236182
 11
329.5872970534
 21
314.7394480602
  0
LINE
  8
1
  6
CONTINUOUS
 10
329.2653844946
 20
314.7394480602
 11
329.2653844946
 21
317.3908186344
  0
LINE
  8
1
  6
CONTINUOUS
 10
329.2653844946
 20
317.3908186344
 11
329.6553067488
 21
317.3908186344
  0
LINE
  8
1
  6
CONTINUOUS
 10
329.6553067488
 20
317.3908186344
 11
330.3626075822
 21
315.4049355252
  0
LINE
  8
1
  6
CONTINUOUS
 10
330.3626075822
 20
315.4049355252
 11
330.367141562
 21
315.4049355252
  0
LINE
  8
1
  6
CONTINUOUS
 10
330.367141562
 20
315.4049355252
 11
330.367141562
 21
317.3908186344
  0
LINE
  8
1
  6
CONTINUOUS
 10
330.367141562
 20
317.3908186344
 11
330.6890541208
 21
317.3908186344
  0
LINE
  8
1
  6
CONTINUOUS
 10
327.2477635274
 20
317.3908186344
 11
327.2477635274
 21
317.1333893424
  0
LINE
  8
1
  6
CONTINUOUS
 10
327.2477635274
 20
317.1333893424
 11
326.132404521
 21
317.1333893424
  0
LINE
  8
1
  6
CONTINUOUS
 10
326.132404521
 20
317.1333893424
 11
326.132404521
 21
316.2482557496
  0
LINE
  8
1
  6
CONTINUOUS
 10
326.132404521
 20
314.7394480602
 11
325.8104919622
 21
314.7394480602
  0
LINE
  8
1
  6
CONTINUOUS
 10
325.8104919622
 20
314.7394480602
 11
325.8104919622
 21
317.3908186344
  0
LINE
  8
1
  6
CONTINUOUS
 10
325.8104919622
 20
317.3908186344
 11
327.2477635274
 21
317.3908186344
  0
LINE
  8
1
  6
CONTINUOUS
 10
326.132404521
 20
316.2482557496
 11
326.9757247454
 21
316.2482557496
  0
LINE
  8
1
  6
CONTINUOUS
 10
326.9757247454
 20
316.2482557496
 11
326.9757247454
 21
315.9908264578
  0
LINE
  8
1
  6
CONTINUOUS
 10
326.9757247454
 20
315.9908264578
 11
326.132404521
 21
315.9908264578
  0
LINE
  8
1
  6
CONTINUOUS
 10
326.132404521
 20
315.9908264578
 11
326.132404521
 21
314.7394480602
  0
LINE
  8
1
  6
CONTINUOUS
 10
342.9508817048
 20
327.5615518498
 11
344.3790853108
 21
330.0371047666
  0
LINE
  8
1
  6
CONTINUOUS
 10
344.3790853108
 20
330.0371047666
 11
345.8072889166
 21
327.5615518498
  0
LINE
  8
1
  6
CONTINUOUS
 10
345.8072889166
 20
327.5615518498
 11
342.9508817048
 21
327.5615518498
  0
LINE
  8
1
  6
CONTINUOUS
 10
339.791270259
 20
346.1115649402
 11
340.2537361884
 21
346.1115649402
  0
LINE
  8
1
  6
CONTINUOUS
 10
340.0089012846
 20
347.009292921
 11
339.791270259
 21
346.1115649402
  0
LINE
  8
1
  6
CONTINUOUS
 10
340.0361051628
 20
347.009292921
 11
340.0089012846
 21
347.009292921
  0
LINE
  8
1
  6
CONTINUOUS
 10
340.2537361884
 20
346.1115649402
 11
340.0361051628
 21
347.009292921
  0
LINE
  8
1
  6
CONTINUOUS
 10
339.2063868774
 20
345.0788251192
 11
339.8864838326
 21
347.7301956934
  0
LINE
  8
1
  6
CONTINUOUS
 10
340.5121730314
 20
345.0788251192
 11
340.321745884
 21
345.8541356482
  0
LINE
  8
1
  6
CONTINUOUS
 10
340.321745884
 20
345.8541356482
 11
339.7232605634
 21
345.8541356482
  0
LINE
  8
1
  6
CONTINUOUS
 10
339.7232605634
 20
345.8541356482
 11
339.532833416
 21
345.0788251192
  0
LINE
  8
1
  6
CONTINUOUS
 10
339.532833416
 20
345.0788251192
 11
339.2063868774
 21
345.0788251192
  0
LINE
  8
1
  6
CONTINUOUS
 10
339.8864838326
 20
347.7301956934
 11
340.1585226148
 21
347.7301956934
  0
LINE
  8
1
  6
CONTINUOUS
 10
340.1585226148
 20
347.7301956934
 11
340.8386195700001
 21
345.0788251192
  0
LINE
  8
1
  6
CONTINUOUS
 10
340.8386195700001
 20
345.0788251192
 11
340.5121730314
 21
345.0788251192
  0
LINE
  8
1
  6
CONTINUOUS
 10
330.5092273546
 20
347.7322957054
 11
331.8056374384
 21
347.7322957054
  0
LINE
  8
1
  6
CONTINUOUS
 10
331.8056374384
 20
347.4809508932
 11
330.7341148182
 21
345.4040490244
  0
LINE
  8
1
  6
CONTINUOUS
 10
331.8056374384
 20
347.7322957054
 11
331.8056374384
 21
347.4809508932
  0
LINE
  8
1
  6
CONTINUOUS
 10
330.7341148182
 20
345.4040490244
 11
331.8453234614
 21
345.4040490244
  0
LINE
  8
1
  6
CONTINUOUS
 10
331.8453234614
 20
345.4040490244
 11
331.8453234614
 21
345.1536841142
  0
LINE
  8
1
  6
CONTINUOUS
 10
330.4298553088
 20
345.1536841142
 11
330.4298553088
 21
345.4040490244
  0
LINE
  8
1
  6
CONTINUOUS
 10
330.4298553088
 20
345.4040490244
 11
331.501377929
 21
347.481930795
  0
LINE
  8
1
  6
CONTINUOUS
 10
331.501377929
 20
347.481930795
 11
330.5092273546
 21
347.481930795
  0
LINE
  8
1
  6
CONTINUOUS
 10
330.5092273546
 20
347.481930795
 11
330.5092273546
 21
347.7322957054
  0
LINE
  8
1
  6
CONTINUOUS
 10
331.8453234614
 20
345.1536841142
 11
330.4298553088
 21
345.1536841142
  0
POLYLINE
  8
1
  6
CONTINUOUS
 66
     1
 70
     0
 40
0.0
 41
0.0
  0
VERTEX
  8
1
 10
345.4390976402
 20
347.4717588506
  0
VERTEX
  8
1
 10
345.2743401940001
 20
347.43024651
  0
VERTEX
  8
1
 10
345.167058858
 20
347.3493413986
  0
SEQEND
  8
1
  0
POLYLINE
  8
1
  6
CONTINUOUS
 66
     1
 70
     0
 40
0.0
 41
0.0
  0
VERTEX
  8
1
 10
345.8879616306
 20
347.5533704852
  0
VERTEX
  8
1
 10
346.064591909
 20
347.2675546352
  0
VERTEX
  8
1
 10
346.1494204396
 20
346.9406060572
  0
VERTEX
  8
1
 10
346.1872042908
 20
346.4108076004
  0
SEQEND
  8
1
  0
POLYLINE
  8
1
  6
CONTINUOUS
 66
     1
 70
     0
 40
0.0
 41
0.0
  0
VERTEX
  8
1
 10
346.1872042908
 20
346.4108076004
  0
VERTEX
  8
1
 10
346.121803081
 20
345.7312563694
  0
VERTEX
  8
1
 10
346.0370608876
 20
345.4766461756
  0
VERTEX
  8
1
 10
345.8879616306
 20
345.2546427766
  0
SEQEND
  8
1
  0
POLYLINE
  8
1
  6
CONTINUOUS
 66
     1
 70
     0
 40
0.0
 41
0.0
  0
VERTEX
  8
1
 10
345.8879616306
 20
345.2546427766
  0
VERTEX
  8
1
 10
345.6538295436
 20
345.110718529
  0
VERTEX
  8
1
 10
345.4390976402
 20
345.0788251192
  0
SEQEND
  8
1
  0
POLYLINE
  8
1
  6
CONTINUOUS
 66
     1
 70
     0
 40
0.0
 41
0.0
  0
VERTEX
  8
1
 10
345.4390976402
 20
345.0788251192
  0
VERTEX
  8
1
 10
345.1610620134
 20
345.1305225946
  0
VERTEX
  8
1
 10
344.9766317106
 20
345.2546427766
  0
SEQEND
  8
1
  0
POLYLINE
  8
1
  6
CONTINUOUS
 66
     1
 70
     0
 40
0.0
 41
0.0
  0
VERTEX
  8
1
 10
344.9766317106
 20
345.2546427766
  0
VERTEX
  8
1
 10
344.7992137136
 20
345.54424703
  0
VERTEX
  8
1
 10
344.7148792188
 20
345.8751714154
  0
VERTEX
  8
1
 10
344.6773890504
 20
346.4108076004
  0
SEQEND
  8
1
  0
POLYLINE
  8
1
  6
CONTINUOUS
 66
     1
 70
     0
 40
0.0
 41
0.0
  0
VERTEX
  8
1
 10
344.9766317106
 20
347.5533704852
  0
VERTEX
  8
1
 10
345.2182522442
 20
347.6990949386
  0
VERTEX
  8
1
 10
345.4390976402
 20
347.7301956934
  0
SEQEND
  8
1
  0
POLYLINE
  8
1
  6
CONTINUOUS
 66
     1
 70
     0
 40
0.0
 41
0.0
  0
VERTEX
  8
1
 10
345.4390976402
 20
347.7301956934
  0
VERTEX
  8
1
 10
345.7094637908
 20
347.6766328846
  0
VERTEX
  8
1
 10
345.8879616306
 20
347.5533704852
  0
SEQEND
  8
1
  0
POLYLINE
  8
1
  6
CONTINUOUS
 66
     1
 70
     0
 40
0.0
 41
0.0
  0
VERTEX
  8
1
 10
344.6773890504
 20
346.4108076004
  0
VERTEX
  8
1
 10
344.7435811214
 20
347.082770842
  0
VERTEX
  8
1
 10
344.8284072134
 20
347.3342802958
  0
VERTEX
  8
1
 10
344.9766317106
 20
347.5533704852
  0
SEQEND
  8
1
  0
POLYLINE
  8
1
  6
CONTINUOUS
 66
     1
 70
     0
 40
0.0
 41
0.0
  0
VERTEX
  8
1
 10
345.8743596916
 20
346.4108076004
  0
VERTEX
  8
1
 10
345.8424214508
 20
346.9536029046
  0
VERTEX
  8
1
 10
345.796966677
 20
347.1622992172
  0
VERTEX
  8
1
 10
345.6975344832
 20
347.3493413986
  0
SEQEND
  8
1
  0
POLYLINE
  8
1
  6
CONTINUOUS
 66
     1
 70
     0
 40
0.0
 41
0.0
  0
VERTEX
  8
1
 10
345.6975344832
 20
345.4586718632
  0
VERTEX
  8
1
 10
345.8132135546
 20
345.7057016394
  0
VERTEX
  8
1
 10
345.85660428
 20
345.9778841968
  0
VERTEX
  8
1
 10
345.8743596916
 20
346.4108076004
  0
SEQEND
  8
1
  0
POLYLINE
  8
1
  6
CONTINUOUS
 66
     1
 70
     0
 40
0.0
 41
0.0
  0
VERTEX
  8
1
 10
345.167058858
 20
345.4586718632
  0
VERTEX
  8
1
 10
345.3076394182
 20
345.3621477252
  0
VERTEX
  8
1
 10
345.4390976402
 20
345.3362544112
  0
SEQEND
  8
1
  0
POLYLINE
  8
1
  6
CONTINUOUS
 66
     1
 70
     0
 40
0.0
 41
0.0
  0
VERTEX
  8
1
 10
345.4390976402
 20
345.3362544112
  0
VERTEX
  8
1
 10
345.5959256592
 20
345.379626801
  0
VERTEX
  8
1
 10
345.6975344832
 20
345.4586718632
  0
SEQEND
  8
1
  0
POLYLINE
  8
1
  6
CONTINUOUS
 66
     1
 70
     0
 40
0.0
 41
0.0
  0
VERTEX
  8
1
 10
344.9902336498
 20
346.4108076004
  0
VERTEX
  8
1
 10
345.0219742448
 20
345.8605088148
  0
VERTEX
  8
1
 10
345.0670355038
 20
345.6487131124
  0
VERTEX
  8
1
 10
345.167058858
 20
345.4586718632
  0
SEQEND
  8
1
  0
POLYLINE
  8
1
  6
CONTINUOUS
 66
     1
 70
     0
 40
0.0
 41
0.0
  0
VERTEX
  8
1
 10
345.167058858
 20
347.3493413986
  0
VERTEX
  8
1
 10
345.0517570172
 20
347.1061983722
  0
VERTEX
  8
1
 10
345.0081105206
 20
346.837848513
  0
VERTEX
  8
1
 10
344.9902336498
 20
346.4108076004
  0
SEQEND
  8
1
  0
POLYLINE
  8
1
  6
CONTINUOUS
 66
     1
 70
     0
 40
0.0
 41
0.0
  0
VERTEX
  8
1
 10
345.6975344832
 20
347.3493413986
  0
VERTEX
  8
1
 10
345.5644244314
 20
347.444366461
  0
VERTEX
  8
1
 10
345.4390976402
 20
347.4717588506
  0
SEQEND
  8
1
  0
LINE
  8
1
  6
CONTINUOUS
 10
342.4028425668
 20
347.920622841
 11
342.538861958
 21
347.8390112064
  0
LINE
  8
1
  6
CONTINUOUS
 10
342.538861958
 20
347.8390112064
 11
341.0970564128
 21
344.6697593952
  0
LINE
  8
1
  6
CONTINUOUS
 10
341.0970564128
 20
344.6697593952
 11
340.9610370218
 21
344.7513710298
  0
LINE
  8
1
  6
CONTINUOUS
 10
340.9610370218
 20
344.7513710298
 11
342.4028425668
 21
347.920622841
  0
LINE
  8
1
  6
CONTINUOUS
 10
342.8517065572
 20
347.7301956934
 11
344.1846965894
 21
347.7301956934
  0
LINE
  8
1
  6
CONTINUOUS
 10
342.8517065572
 20
347.4727664016
 11
342.8517065572
 21
347.7301956934
  0
LINE
  8
1
  6
CONTINUOUS
 10
342.7700949226
 20
345.0788251192
 11
342.7700949226
 21
345.3362544112
  0
LINE
  8
1
  6
CONTINUOUS
 10
344.1846965894
 20
347.4717588506
 11
343.082939522
 21
345.3362544112
  0
LINE
  8
1
  6
CONTINUOUS
 10
344.2255024068
 20
345.3362544112
 11
344.2255024068
 21
345.0788251192
  0
LINE
  8
1
  6
CONTINUOUS
 10
344.2255024068
 20
345.0788251192
 11
342.7700949226
 21
345.0788251192
  0
LINE
  8
1
  6
CONTINUOUS
 10
343.082939522
 20
345.3362544112
 11
344.2255024068
 21
345.3362544112
  0
LINE
  8
1
  6
CONTINUOUS
 10
344.1846965894
 20
347.7301956934
 11
344.1846965894
 21
347.4717588506
  0
LINE
  8
1
  6
CONTINUOUS
 10
342.7700949226
 20
345.3362544112
 11
343.87185199
 21
347.4727664016
  0
LINE
  8
1
  6
CONTINUOUS
 10
343.87185199
 20
347.4727664016
 11
342.8517065572
 21
347.4727664016
  0
LINE
  8
1
  6
CONTINUOUS
 10
330.7749731268
 20
319.5844121694
 11
330.7749731268
 21
320.9067485776
  0
LINE
  8
1
  6
CONTINUOUS
 10
330.7749731268
 20
320.9067485776
 11
330.9355228066
 21
320.9067485776
  0
LINE
  8
1
  6
CONTINUOUS
 10
330.9355228066
 20
320.9067485776
 11
330.9355228066
 21
320.350477856
  0
LINE
  8
1
  6
CONTINUOUS
 10
331.322198796
 20
320.9067485776
 11
331.5053611068
 21
320.9067485776
  0
LINE
  8
1
  6
CONTINUOUS
 10
331.5053611068
 20
320.9067485776
 11
331.1458202746
 21
320.3843968024
  0
LINE
  8
1
  6
CONTINUOUS
 10
331.1458202746
 20
320.3843968024
 11
331.532496264
 21
319.5844121694
  0
LINE
  8
1
  6
CONTINUOUS
 10
331.532496264
 20
319.5844121694
 11
331.3561177424
 21
319.5844121694
  0
LINE
  8
1
  6
CONTINUOUS
 10
331.3561177424
 20
319.5844121694
 11
331.0440634352
 21
320.255504806
  0
LINE
  8
1
  6
CONTINUOUS
 10
331.0440634352
 20
320.255504806
 11
330.9355228066
 21
320.1062614416
  0
LINE
  8
1
  6
CONTINUOUS
 10
330.9355228066
 20
320.1062614416
 11
330.9355228066
 21
319.5844121694
  0
LINE
  8
1
  6
CONTINUOUS
 10
330.9355228066
 20
319.5844121694
 11
330.7749731268
 21
319.5844121694
  0
LINE
  8
1
  6
CONTINUOUS
 10
330.9355228066
 20
320.350477856
 11
331.322198796
 21
320.9067485776
  0
POLYLINE
  8
1
  6
CONTINUOUS
 66
     1
 70
     0
 40
0.0
 41
0.0
  0
VERTEX
  8
1
 10
330.6438198672
 20
320.092693863
  0
VERTEX
  8
1
 10
330.6050248136
 20
319.8488941662
  0
VERTEX
  8
1
 10
330.5149278708
 20
319.6788827166
  0
SEQEND
  8
1
  0
POLYLINE
  8
1
  6
CONTINUOUS
 66
     1
 70
     0
 40
0.0
 41
0.0
  0
VERTEX
  8
1
 10
330.5149278708
 20
319.6788827166
  0
VERTEX
  8
1
 10
330.3987631402
 20
319.6030240656
  0
VERTEX
  8
1
 10
330.2910628242
 20
319.5844121694
  0
SEQEND
  8
1
  0
POLYLINE
  8
1
  6
CONTINUOUS
 66
     1
 70
     0
 40
0.0
 41
0.0
  0
VERTEX
  8
1
 10
330.2910628242
 20
319.5844121694
  0
VERTEX
  8
1
 10
330.1558052804
 20
319.6147740482
  0
VERTEX
  8
1
 10
330.0671977778
 20
319.6788827166
  0
SEQEND
  8
1
  0
POLYLINE
  8
1
  6
CONTINUOUS
 66
     1
 70
     0
 40
0.0
 41
0.0
  0
VERTEX
  8
1
 10
330.0671977778
 20
319.6788827166
  0
VERTEX
  8
1
 10
329.961015351
 20
319.8396469722
  0
VERTEX
  8
1
 10
329.9228346678
 20
319.9589506368
  0
VERTEX
  8
1
 10
329.903360926
 20
320.0827668524
  0
VERTEX
  8
1
 10
329.8976030456
 20
320.208018281
  0
SEQEND
  8
1
  0
POLYLINE
  8
1
  6
CONTINUOUS
 66
     1
 70
     0
 40
0.0
 41
0.0
  0
VERTEX
  8
1
 10
330.0807653564
 20
320.8117755276
  0
VERTEX
  8
1
 10
330.193042935
 20
320.8874813808
  0
VERTEX
  8
1
 10
330.2978466136
 20
320.9067485776
  0
SEQEND
  8
1
  0
POLYLINE
  8
1
  6
CONTINUOUS
 66
     1
 70
     0
 40
0.0
 41
0.0
  0
VERTEX
  8
1
 10
330.2978466136
 20
320.9067485776
  0
VERTEX
  8
1
 10
330.4200086258
 20
320.8855448846
  0
VERTEX
  8
1
 10
330.5013602922
 20
320.8321268954
  0
SEQEND
  8
1
  0
POLYLINE
  8
1
  6
CONTINUOUS
 66
     1
 70
     0
 40
0.0
 41
0.0
  0
VERTEX
  8
1
 10
330.5013602922
 20
320.8321268954
  0
VERTEX
  8
1
 10
330.6173998666
 20
320.6294042068
  0
VERTEX
  8
1
 10
330.637036078
 20
320.445450906
  0
SEQEND
  8
1
  0
LINE
  8
1
  6
CONTINUOUS
 10
330.637036078
 20
320.445450906
 11
330.4877927136
 21
320.445450906
  0
POLYLINE
  8
1
  6
CONTINUOUS
 66
     1
 70
     0
 40
0.0
 41
0.0
  0
VERTEX
  8
1
 10
330.4877927136
 20
320.445450906
  0
VERTEX
  8
1
 10
330.4667940436
 20
320.6169687944
  0
VERTEX
  8
1
 10
330.4063872422
 20
320.7371538454
  0
SEQEND
  8
1
  0
POLYLINE
  8
1
  6
CONTINUOUS
 66
     1
 70
     0
 40
0.0
 41
0.0
  0
VERTEX
  8
1
 10
330.4063872422
 20
320.7371538454
  0
VERTEX
  8
1
 10
330.349602788
 20
320.7709321658
  0
VERTEX
  8
1
 10
330.2978466136
 20
320.7778565812
  0
SEQEND
  8
1
  0
POLYLINE
  8
1
  6
CONTINUOUS
 66
     1
 70
     0
 40
0.0
 41
0.0
  0
VERTEX
  8
1
 10
330.2978466136
 20
320.7778565812
  0
VERTEX
  8
1
 10
330.232099661
 20
320.7621920538
  0
VERTEX
  8
1
 10
330.189305985
 20
320.7303700562
  0
SEQEND
  8
1
  0
POLYLINE
  8
1
  6
CONTINUOUS
 66
     1
 70
     0
 40
0.0
 41
0.0
  0
VERTEX
  8
1
 10
330.189305985
 20
320.7303700562
  0
VERTEX
  8
1
 10
330.0987608998
 20
320.5729412368
  0
VERTEX
  8
1
 10
330.0709650148
 20
320.4578034348
  0
VERTEX
  8
1
 10
330.0574041894
 20
320.3400619188
  0
VERTEX
  8
1
 10
330.0536301992
 20
320.2215858596
  0
SEQEND
  8
1
  0
POLYLINE
  8
1
  6
CONTINUOUS
 66
     1
 70
     0
 40
0.0
 41
0.0
  0
VERTEX
  8
1
 10
330.0536301992
 20
320.2215858596
  0
VERTEX
  8
1
 10
330.0618481434
 20
320.0633384468
  0
VERTEX
  8
1
 10
330.0790647442
 20
319.9622630164
  0
VERTEX
  8
1
 10
330.111797048
 20
319.865211773
  0
VERTEX
  8
1
 10
330.168954617
 20
319.7806395558
  0
SEQEND
  8
1
  0
POLYLINE
  8
1
  6
CONTINUOUS
 66
     1
 70
     0
 40
0.0
 41
0.0
  0
VERTEX
  8
1
 10
330.168954617
 20
319.7806395558
  0
VERTEX
  8
1
 10
330.2320852322
 20
319.7376758246
  0
VERTEX
  8
1
 10
330.2910628242
 20
319.7263692416
  0
SEQEND
  8
1
  0
POLYLINE
  8
1
  6
CONTINUOUS
 66
     1
 70
     0
 40
0.0
 41
0.0
  0
VERTEX
  8
1
 10
330.2910628242
 20
319.7263692416
  0
VERTEX
  8
1
 10
330.3610330064
 20
319.7454770178
  0
VERTEX
  8
1
 10
330.4063872422
 20
319.7806395558
  0
SEQEND
  8
1
  0
POLYLINE
  8
1
  6
CONTINUOUS
 66
     1
 70
     0
 40
0.0
 41
0.0
  0
VERTEX
  8
1
 10
330.4063872422
 20
319.7806395558
  0
VERTEX
  8
1
 10
330.4498967732
 20
319.8602277636
  0
VERTEX
  8
1
 10
330.4697669842
 20
319.9494395206
  0
VERTEX
  8
1
 10
330.4810089242
 20
320.092693863
  0
SEQEND
  8
1
  0
LINE
  8
1
  6
CONTINUOUS
 10
330.4810089242
 20
320.092693863
 11
330.6438198672
 21
320.092693863
  0
POLYLINE
  8
1
  6
CONTINUOUS
 66
     1
 70
     0
 40
0.0
 41
0.0
  0
VERTEX
  8
1
 10
329.8976030456
 20
320.208018281
  0
VERTEX
  8
1
 10
329.942417236
 20
320.5662822416
  0
VERTEX
  8
1
 10
330.0807653564
 20
320.8117755276
  0
SEQEND
  8
1
  0
POLYLINE
  8
1
  6
CONTINUOUS
 66
     1
 70
     0
 40
0.0
 41
0.0
  0
VERTEX
  8
1
 10
343.124011647
 20
319.8765754752
  0
VERTEX
  8
1
 10
343.0949284224
 20
319.7158796258
  0
VERTEX
  8
1
 10
343.0237257452
 20
319.6091464036
  0
SEQEND
  8
1
  0
POLYLINE
  8
1
  6
CONTINUOUS
 66
     1
 70
     0
 40
0.0
 41
0.0
  0
VERTEX
  8
1
 10
342.876639756
 20
320.0169757376
  0
VERTEX
  8
1
 10
342.6974058552
 20
320.139788015
  0
VERTEX
  8
1
 10
342.562410597
 20
320.2442904484
  0
SEQEND
  8
1
  0
POLYLINE
  8
1
  6
CONTINUOUS
 66
     1
 70
     0
 40
0.0
 41
0.0
  0
VERTEX
  8
1
 10
342.4487532418
 20
320.4782908858
  0
VERTEX
  8
1
 10
342.4771231844
 20
320.6286669234
  0
VERTEX
  8
1
 10
342.5490391436
 20
320.7256627768
  0
SEQEND
  8
1
  0
POLYLINE
  8
1
  6
CONTINUOUS
 66
     1
 70
     0
 40
0.0
 41
0.0
  0
VERTEX
  8
1
 10
342.5490391436
 20
320.7256627768
  0
VERTEX
  8
1
 10
342.6639099146
 20
320.7998727822
  0
VERTEX
  8
1
 10
342.7696681274
 20
320.8192629518
  0
SEQEND
  8
1
  0
POLYLINE
  8
1
  6
CONTINUOUS
 66
     1
 70
     0
 40
0.0
 41
0.0
  0
VERTEX
  8
1
 10
342.9969828382
 20
320.7390342304
  0
VERTEX
  8
1
 10
343.0785092452
 20
320.591409483
  0
VERTEX
  8
1
 10
343.0905830132
 20
320.4582337054
  0
SEQEND
  8
1
  0
POLYLINE
  8
1
  6
CONTINUOUS
 66
     1
 70
     0
 40
0.0
 41
0.0
  0
VERTEX
  8
1
 10
342.689439406
 20
320.3312048966
  0
VERTEX
  8
1
 10
342.8420648358
 20
320.2123365344
  0
VERTEX
  8
1
 10
342.970239931
 20
320.130633093
  0
SEQEND
  8
1
  0
POLYLINE
  8
1
  6
CONTINUOUS
 66
     1
 70
     0
 40
0.0
 41
0.0
  0
VERTEX
  8
1
 10
342.936811297
 20
320.4582337054
  0
VERTEX
  8
1
 10
342.9282007988
 20
320.5663750852
  0
VERTEX
  8
1
 10
342.8833254828
 20
320.6387483286
  0
SEQEND
  8
1
  0
POLYLINE
  8
1
  6
CONTINUOUS
 66
     1
 70
     0
 40
0.0
 41
0.0
  0
VERTEX
  8
1
 10
343.0237257452
 20
319.6091464036
  0
VERTEX
  8
1
 10
342.8867517026
 20
319.5314714056
  0
VERTEX
  8
1
 10
342.7629824006
 20
319.5160414678
  0
SEQEND
  8
1
  0
POLYLINE
  8
1
  6
CONTINUOUS
 66
     1
 70
     0
 40
0.0
 41
0.0
  0
VERTEX
  8
1
 10
342.7629824006
 20
319.5160414678
  0
VERTEX
  8
1
 10
342.6149511564
 20
319.5397054696
  0
VERTEX
  8
1
 10
342.5156105096
 20
319.602460677
  0
SEQEND
  8
1
  0
POLYLINE
  8
1
  6
CONTINUOUS
 66
     1
 70
     0
 40
0.0
 41
0.0
  0
VERTEX
  8
1
 10
342.5156105096
 20
319.602460677
  0
VERTEX
  8
1
 10
342.4295990284
 20
319.7342836468
  0
VERTEX
  8
1
 10
342.408638881
 20
319.8565182948
  0
SEQEND
  8
1
  0
LINE
  8
1
  6
CONTINUOUS
 10
342.408638881
 20
319.8565182948
 11
342.408638881
 21
319.9233755626
  0
POLYLINE
  8
1
  6
CONTINUOUS
 66
     1
 70
     0
 40
0.0
 41
0.0
  0
VERTEX
  8
1
 10
342.562410597
 20
319.8632040216
  0
VERTEX
  8
1
 10
342.5765048104
 20
319.7674440884
  0
VERTEX
  8
1
 10
342.6158964114
 20
319.7027465786
  0
SEQEND
  8
1
  0
POLYLINE
  8
1
  6
CONTINUOUS
 66
     1
 70
     0
 40
0.0
 41
0.0
  0
VERTEX
  8
1
 10
342.6158964114
 20
319.7027465786
  0
VERTEX
  8
1
 10
342.6855131602
 20
319.6590902642
  0
VERTEX
  8
1
 10
342.749610947
 20
319.6492607644
  0
SEQEND
  8
1
  0
POLYLINE
  8
1
  6
CONTINUOUS
 66
     1
 70
     0
 40
0.0
 41
0.0
  0
VERTEX
  8
1
 10
342.9100683900001
 20
319.7027465786
  0
VERTEX
  8
1
 10
342.9593632344
 20
319.7829630278
  0
VERTEX
  8
1
 10
342.970239931
 20
319.8565182948
  0
SEQEND
  8
1
  0
POLYLINE
  8
1
  6
CONTINUOUS
 66
     1
 70
     0
 40
0.0
 41
0.0
  0
VERTEX
  8
1
 10
342.970239931
 20
319.8565182948
  0
VERTEX
  8
1
 10
342.962575506
 20
319.9102654202
  0
VERTEX
  8
1
 10
342.9389948806
 20
319.9590859458
  0
VERTEX
  8
1
 10
342.876639756
 20
320.0169757376
  0
SEQEND
  8
1
  0
POLYLINE
  8
1
  6
CONTINUOUS
 66
     1
 70
     0
 40
0.0
 41
0.0
  0
VERTEX
  8
1
 10
342.7696681274
 20
320.8192629518
  0
VERTEX
  8
1
 10
342.9057845044
 20
320.797136927
  0
VERTEX
  8
1
 10
342.9969828382
 20
320.7390342304
  0
SEQEND
  8
1
  0
LINE
  8
1
  6
CONTINUOUS
 10
343.0905830132
 20
320.4582337054
 11
342.936811297
 21
320.4582337054
  0
POLYLINE
  8
1
  6
CONTINUOUS
 66
     1
 70
     0
 40
0.0
 41
0.0
  0
VERTEX
  8
1
 10
342.8833254828
 20
320.6387483286
  0
VERTEX
  8
1
 10
342.8242822032
 20
320.6766869256
  0
VERTEX
  8
1
 10
342.7696681274
 20
320.6855484162
  0
SEQEND
  8
1
  0
POLYLINE
  8
1
  6
CONTINUOUS
 66
     1
 70
     0
 40
0.0
 41
0.0
  0
VERTEX
  8
1
 10
342.656010772
 20
320.6387483286
  0
VERTEX
  8
1
 10
342.6078220638
 20
320.5659897788
  0
VERTEX
  8
1
 10
342.595839231
 20
320.4983480662
  0
SEQEND
  8
1
  0
LINE
  8
1
  6
CONTINUOUS
 10
342.562410597
 20
319.9233755626
 11
342.562410597
 21
319.8632040216
  0
POLYLINE
  8
1
  6
CONTINUOUS
 66
     1
 70
     0
 40
0.0
 41
0.0
  0
VERTEX
  8
1
 10
342.749610947
 20
319.6492607644
  0
VERTEX
  8
1
 10
342.8453745006
 20
319.663359699
  0
VERTEX
  8
1
 10
342.9100683900001
 20
319.7027465786
  0
SEQEND
  8
1
  0
POLYLINE
  8
1
  6
CONTINUOUS
 66
     1
 70
     0
 40
0.0
 41
0.0
  0
VERTEX
  8
1
 10
342.562410597
 20
320.2442904484
  0
VERTEX
  8
1
 10
342.4729008668
 20
320.3631965138
  0
VERTEX
  8
1
 10
342.4487532418
 20
320.4782908858
  0
SEQEND
  8
1
  0
LINE
  8
1
  6
CONTINUOUS
 10
342.408638881
 20
319.9233755626
 11
342.562410597
 21
319.9233755626
  0
POLYLINE
  8
1
  6
CONTINUOUS
 66
     1
 70
     0
 40
0.0
 41
0.0
  0
VERTEX
  8
1
 10
342.970239931
 20
320.130633093
  0
VERTEX
  8
1
 10
343.040798319
 20
320.0790498166
  0
VERTEX
  8
1
 10
343.0936224508
 20
320.0095654414
  0
VERTEX
  8
1
 10
343.124011647
 20
319.8765754752
  0
SEQEND
  8
1
  0
POLYLINE
  8
1
  6
CONTINUOUS
 66
     1
 70
     0
 40
0.0
 41
0.0
  0
VERTEX
  8
1
 10
342.7696681274
 20
320.6855484162
  0
VERTEX
  8
1
 10
342.7009962768
 20
320.6709353376
  0
VERTEX
  8
1
 10
342.656010772
 20
320.6387483286
  0
SEQEND
  8
1
  0
POLYLINE
  8
1
  6
CONTINUOUS
 66
     1
 70
     0
 40
0.0
 41
0.0
  0
VERTEX
  8
1
 10
342.595839231
 20
320.4983480662
  0
VERTEX
  8
1
 10
342.605251195
 20
320.4440177768
  0
VERTEX
  8
1
 10
342.6306548468
 20
320.3949972074
  0
VERTEX
  8
1
 10
342.689439406
 20
320.3312048966
  0
SEQEND
  8
1
  0
LINE
  8
1
  6
CONTINUOUS
 10
328.1699980402
 20
319.5844121694
 11
328.1699980402
 21
320.9067485776
  0
LINE
  8
1
  6
CONTINUOUS
 10
328.1699980402
 20
320.9067485776
 11
328.33054772
 21
320.9067485776
  0
LINE
  8
1
  6
CONTINUOUS
 10
328.33054772
 20
320.3776130132
 11
328.7127011832
 21
320.3776130132
  0
LINE
  8
1
  6
CONTINUOUS
 10
328.7127011832
 20
320.3776130132
 11
328.7127011832
 21
320.9067485776
  0
LINE
  8
1
  6
CONTINUOUS
 10
328.7127011832
 20
320.9067485776
 11
328.873250863
 21
320.9067485776
  0
LINE
  8
1
  6
CONTINUOUS
 10
328.873250863
 20
320.9067485776
 11
328.873250863
 21
319.5844121694
  0
LINE
  8
1
  6
CONTINUOUS
 10
328.873250863
 20
319.5844121694
 11
328.7127011832
 21
319.5844121694
  0
LINE
  8
1
  6
CONTINUOUS
 10
328.7127011832
 20
320.2492235196
 11
328.33054772
 21
320.2492235196
  0
LINE
  8
1
  6
CONTINUOUS
 10
328.33054772
 20
320.2492235196
 11
328.33054772
 21
319.5844121694
  0
LINE
  8
1
  6
CONTINUOUS
 10
328.33054772
 20
319.5844121694
 11
328.1699980402
 21
319.5844121694
  0
LINE
  8
1
  6
CONTINUOUS
 10
328.33054772
 20
320.9067485776
 11
328.33054772
 21
320.3776130132
  0
LINE
  8
1
  6
CONTINUOUS
 10
328.7127011832
 20
319.5844121694
 11
328.7127011832
 21
320.2492235196
  0
LINE
  8
1
  6
CONTINUOUS
 10
343.273326212
 20
319.5160414678
 11
343.273326212
 21
320.8192629518
  0
LINE
  8
1
  6
CONTINUOUS
 10
343.8081843548
 20
320.2977762626
 11
343.8081843548
 21
320.8192629518
  0
LINE
  8
1
  6
CONTINUOUS
 10
343.8081843548
 20
320.8192629518
 11
343.966413222
 21
320.8192629518
  0
LINE
  8
1
  6
CONTINUOUS
 10
343.966413222
 20
319.5160414678
 11
343.8081843548
 21
319.5160414678
  0
LINE
  8
1
  6
CONTINUOUS
 10
343.8081843548
 20
319.5160414678
 11
343.8081843548
 21
320.1712426926
  0
LINE
  8
1
  6
CONTINUOUS
 10
343.8081843548
 20
320.1712426926
 11
343.4315550792
 21
320.1712426926
  0
LINE
  8
1
  6
CONTINUOUS
 10
343.4315550792
 20
320.1712426926
 11
343.4315550792
 21
319.5160414678
  0
LINE
  8
1
  6
CONTINUOUS
 10
343.4315550792
 20
319.5160414678
 11
343.273326212
 21
319.5160414678
  0
LINE
  8
1
  6
CONTINUOUS
 10
343.966413222
 20
320.8192629518
 11
343.966413222
 21
319.5160414678
  0
LINE
  8
1
  6
CONTINUOUS
 10
343.273326212
 20
320.8192629518
 11
343.4315550792
 21
320.8192629518
  0
LINE
  8
1
  6
CONTINUOUS
 10
343.4315550792
 20
320.8192629518
 11
343.4315550792
 21
320.2977762626
  0
LINE
  8
1
  6
CONTINUOUS
 10
343.4315550792
 20
320.2977762626
 11
343.8081843548
 21
320.2977762626
  0
LINE
  8
1
  6
CONTINUOUS
 10
329.6805217884
 20
320.350477856
 11
329.6805217884
 21
320.2220883624
  0
LINE
  8
1
  6
CONTINUOUS
 10
329.6805217884
 20
320.2220883624
 11
329.2192241168
 21
320.2220883624
  0
LINE
  8
1
  6
CONTINUOUS
 10
329.2192241168
 20
320.350477856
 11
329.6805217884
 21
320.350477856
  0
LINE
  8
1
  6
CONTINUOUS
 10
329.2192241168
 20
320.2220883624
 11
329.2192241168
 21
319.712801663
  0
LINE
  8
1
  6
CONTINUOUS
 10
329.7551434706
 20
319.712801663
 11
329.7551434706
 21
319.5844121694
  0
LINE
  8
1
  6
CONTINUOUS
 10
329.721224524
 20
320.9067485776
 11
329.721224524
 21
320.778359084
  0
LINE
  8
1
  6
CONTINUOUS
 10
329.058674437
 20
320.9067485776
 11
329.721224524
 21
320.9067485776
  0
LINE
  8
1
  6
CONTINUOUS
 10
329.2192241168
 20
319.712801663
 11
329.7551434706
 21
319.712801663
  0
LINE
  8
1
  6
CONTINUOUS
 10
329.721224524
 20
320.778359084
 11
329.2192241168
 21
320.778359084
  0
LINE
  8
1
  6
CONTINUOUS
 10
329.2192241168
 20
320.778359084
 11
329.2192241168
 21
320.350477856
  0
LINE
  8
1
  6
CONTINUOUS
 10
329.7551434706
 20
319.5844121694
 11
329.058674437
 21
319.5844121694
  0
LINE
  8
1
  6
CONTINUOUS
 10
329.058674437
 20
319.5844121694
 11
329.058674437
 21
320.9067485776
  0
LINE
  8
1
  6
CONTINUOUS
 10
346.1013886422
 20
320.692729382
 11
345.8451024488
 21
320.692729382
  0
LINE
  8
1
  6
CONTINUOUS
 10
345.8451024488
 20
320.692729382
 11
345.8451024488
 21
320.8192629518
  0
LINE
  8
1
  6
CONTINUOUS
 10
345.8451024488
 20
320.8192629518
 11
346.5337323076
 21
320.8192629518
  0
LINE
  8
1
  6
CONTINUOUS
 10
346.5337323076
 20
320.692729382
 11
346.2596175094
 21
320.692729382
  0
LINE
  8
1
  6
CONTINUOUS
 10
346.2596175094
 20
320.692729382
 11
346.2596175094
 21
319.5160414678
  0
LINE
  8
1
  6
CONTINUOUS
 10
346.2596175094
 20
319.5160414678
 11
346.1013886422
 21
319.5160414678
  0
LINE
  8
1
  6
CONTINUOUS
 10
346.1013886422
 20
319.5160414678
 11
346.1013886422
 21
320.692729382
  0
LINE
  8
1
  6
CONTINUOUS
 10
346.5337323076
 20
320.8192629518
 11
346.5337323076
 21
320.692729382
  0
LINE
  8
1
  6
CONTINUOUS
 10
345.149786863
 20
320.692729382
 11
345.149786863
 21
320.2576619018
  0
LINE
  8
1
  6
CONTINUOUS
 10
345.149786863
 20
320.2576619018
 11
345.5643019238
 21
320.2576619018
  0
LINE
  8
1
  6
CONTINUOUS
 10
345.5643019238
 20
320.2576619018
 11
345.5643019238
 21
320.131128332
  0
LINE
  8
1
  6
CONTINUOUS
 10
345.5643019238
 20
320.131128332
 11
345.149786863
 21
320.131128332
  0
LINE
  8
1
  6
CONTINUOUS
 10
345.149786863
 20
320.131128332
 11
345.149786863
 21
319.5160414678
  0
LINE
  8
1
  6
CONTINUOUS
 10
344.9915579958
 20
319.5160414678
 11
344.9915579958
 21
320.8192629518
  0
LINE
  8
1
  6
CONTINUOUS
 10
345.6980164594
 20
320.692729382
 11
345.149786863
 21
320.692729382
  0
LINE
  8
1
  6
CONTINUOUS
 10
344.9915579958
 20
320.8192629518
 11
345.6980164594
 21
320.8192629518
  0
LINE
  8
1
  6
CONTINUOUS
 10
345.6980164594
 20
320.8192629518
 11
345.6980164594
 21
320.692729382
  0
LINE
  8
1
  6
CONTINUOUS
 10
345.149786863
 20
319.5160414678
 11
344.9915579958
 21
319.5160414678
  0
POLYLINE
  8
1
  6
CONTINUOUS
 66
     1
 70
     0
 40
0.0
 41
0.0
  0
VERTEX
  8
1
 10
328.0388447806
 20
320.092693863
  0
VERTEX
  8
1
 10
328.0000497272
 20
319.8488941662
  0
VERTEX
  8
1
 10
327.9099527842
 20
319.6788827166
  0
SEQEND
  8
1
  0
POLYLINE
  8
1
  6
CONTINUOUS
 66
     1
 70
     0
 40
0.0
 41
0.0
  0
VERTEX
  8
1
 10
327.692871527
 20
320.9067485776
  0
VERTEX
  8
1
 10
327.8150335392
 20
320.8855448846
  0
VERTEX
  8
1
 10
327.8963852056
 20
320.8321268954
  0
SEQEND
  8
1
  0
POLYLINE
  8
1
  6
CONTINUOUS
 66
     1
 70
     0
 40
0.0
 41
0.0
  0
VERTEX
  8
1
 10
327.8963852056
 20
320.8321268954
  0
VERTEX
  8
1
 10
328.01242478
 20
320.6294042068
  0
VERTEX
  8
1
 10
328.0320609914
 20
320.445450906
  0
SEQEND
  8
1
  0
POLYLINE
  8
1
  6
CONTINUOUS
 66
     1
 70
     0
 40
0.0
 41
0.0
  0
VERTEX
  8
1
 10
327.5843308984
 20
320.7303700562
  0
VERTEX
  8
1
 10
327.4937858132
 20
320.5729412368
  0
VERTEX
  8
1
 10
327.4659899282
 20
320.4578034348
  0
VERTEX
  8
1
 10
327.4524291028
 20
320.3400619188
  0
VERTEX
  8
1
 10
327.4486551126
 20
320.2215858596
  0
SEQEND
  8
1
  0
POLYLINE
  8
1
  6
CONTINUOUS
 66
     1
 70
     0
 40
0.0
 41
0.0
  0
VERTEX
  8
1
 10
327.4757902698
 20
320.8117755276
  0
VERTEX
  8
1
 10
327.5880678484
 20
320.8874813808
  0
VERTEX
  8
1
 10
327.692871527
 20
320.9067485776
  0
SEQEND
  8
1
  0
POLYLINE
  8
1
  6
CONTINUOUS
 66
     1
 70
     0
 40
0.0
 41
0.0
  0
VERTEX
  8
1
 10
327.292627959
 20
320.208018281
  0
VERTEX
  8
1
 10
327.3374421494
 20
320.5662822416
  0
VERTEX
  8
1
 10
327.4757902698
 20
320.8117755276
  0
SEQEND
  8
1
  0
POLYLINE
  8
1
  6
CONTINUOUS
 66
     1
 70
     0
 40
0.0
 41
0.0
  0
VERTEX
  8
1
 10
327.6860877378
 20
319.5844121694
  0
VERTEX
  8
1
 10
327.5508301938
 20
319.6147740482
  0
VERTEX
  8
1
 10
327.4622226912
 20
319.6788827166
  0
SEQEND
  8
1
  0
POLYLINE
  8
1
  6
CONTINUOUS
 66
     1
 70
     0
 40
0.0
 41
0.0
  0
VERTEX
  8
1
 10
327.4622226912
 20
319.6788827166
  0
VERTEX
  8
1
 10
327.3560402644
 20
319.8396469722
  0
VERTEX
  8
1
 10
327.3178595812
 20
319.9589506368
  0
VERTEX
  8
1
 10
327.2983858394
 20
320.0827668524
  0
VERTEX
  8
1
 10
327.292627959
 20
320.208018281
  0
SEQEND
  8
1
  0
POLYLINE
  8
1
  6
CONTINUOUS
 66
     1
 70
     0
 40
0.0
 41
0.0
  0
VERTEX
  8
1
 10
327.5639795306
 20
319.7806395558
  0
VERTEX
  8
1
 10
327.6271101456
 20
319.7376758246
  0
VERTEX
  8
1
 10
327.6860877378
 20
319.7263692416
  0
SEQEND
  8
1
  0
POLYLINE
  8
1
  6
CONTINUOUS
 66
     1
 70
     0
 40
0.0
 41
0.0
  0
VERTEX
  8
1
 10
327.6860877378
 20
319.7263692416
  0
VERTEX
  8
1
 10
327.7560579198
 20
319.7454770178
  0
VERTEX
  8
1
 10
327.8014121556
 20
319.7806395558
  0
SEQEND
  8
1
  0
POLYLINE
  8
1
  6
CONTINUOUS
 66
     1
 70
     0
 40
0.0
 41
0.0
  0
VERTEX
  8
1
 10
327.882817627
 20
320.445450906
  0
VERTEX
  8
1
 10
327.8618189572
 20
320.6169687944
  0
VERTEX
  8
1
 10
327.8014121556
 20
320.7371538454
  0
SEQEND
  8
1
  0
POLYLINE
  8
1
  6
CONTINUOUS
 66
     1
 70
     0
 40
0.0
 41
0.0
  0
VERTEX
  8
1
 10
327.9099527842
 20
319.6788827166
  0
VERTEX
  8
1
 10
327.7937880536
 20
319.6030240656
  0
VERTEX
  8
1
 10
327.6860877378
 20
319.5844121694
  0
SEQEND
  8
1
  0
LINE
  8
1
  6
CONTINUOUS
 10
328.0320609914
 20
320.445450906
 11
327.882817627
 21
320.445450906
  0
POLYLINE
  8
1
  6
CONTINUOUS
 66
     1
 70
     0
 40
0.0
 41
0.0
  0
VERTEX
  8
1
 10
327.8014121556
 20
320.7371538454
  0
VERTEX
  8
1
 10
327.7446277014
 20
320.7709321658
  0
VERTEX
  8
1
 10
327.692871527
 20
320.7778565812
  0
SEQEND
  8
1
  0
POLYLINE
  8
1
  6
CONTINUOUS
 66
     1
 70
     0
 40
0.0
 41
0.0
  0
VERTEX
  8
1
 10
327.692871527
 20
320.7778565812
  0
VERTEX
  8
1
 10
327.6271245746
 20
320.7621920538
  0
VERTEX
  8
1
 10
327.5843308984
 20
320.7303700562
  0
SEQEND
  8
1
  0
POLYLINE
  8
1
  6
CONTINUOUS
 66
     1
 70
     0
 40
0.0
 41
0.0
  0
VERTEX
  8
1
 10
327.4486551126
 20
320.2215858596
  0
VERTEX
  8
1
 10
327.4568730568
 20
320.0633384468
  0
VERTEX
  8
1
 10
327.4740896576
 20
319.9622630164
  0
VERTEX
  8
1
 10
327.5068219614
 20
319.865211773
  0
VERTEX
  8
1
 10
327.5639795306
 20
319.7806395558
  0
SEQEND
  8
1
  0
POLYLINE
  8
1
  6
CONTINUOUS
 66
     1
 70
     0
 40
0.0
 41
0.0
  0
VERTEX
  8
1
 10
327.8014121556
 20
319.7806395558
  0
VERTEX
  8
1
 10
327.8449216866
 20
319.8602277636
  0
VERTEX
  8
1
 10
327.8647918976
 20
319.9494395206
  0
VERTEX
  8
1
 10
327.8760338378
 20
320.092693863
  0
SEQEND
  8
1
  0
LINE
  8
1
  6
CONTINUOUS
 10
327.8760338378
 20
320.092693863
 11
328.0388447806
 21
320.092693863
  0
LINE
  8
1
  6
CONTINUOUS
 10
344.5547571792
 20
320.8192629518
 11
344.5547571792
 21
319.5160414678
  0
LINE
  8
1
  6
CONTINUOUS
 10
344.5547571792
 20
319.5160414678
 11
344.3965283118
 21
319.5160414678
  0
LINE
  8
1
  6
CONTINUOUS
 10
344.3965283118
 20
319.5160414678
 11
344.3965283118
 21
320.8192629518
  0
LINE
  8
1
  6
CONTINUOUS
 10
344.3965283118
 20
320.8192629518
 11
344.5547571792
 21
320.8192629518
  0
POLYLINE
  8
1
  6
CONTINUOUS
 66
     1
 70
     0
 40
0.0
 41
0.0
  0
VERTEX
  8
1
 10
337.6365294092
 20
355.7350010628
  0
VERTEX
  8
1
 10
337.4838726508
 20
355.6353121496
  0
VERTEX
  8
1
 10
337.3423393212
 20
355.610853506
  0
SEQEND
  8
1
  0
POLYLINE
  8
1
  6
CONTINUOUS
 66
     1
 70
     0
 40
0.0
 41
0.0
  0
VERTEX
  8
1
 10
337.3423393212
 20
355.610853506
  0
VERTEX
  8
1
 10
337.1645919266
 20
355.6507532758
  0
VERTEX
  8
1
 10
337.048149233
 20
355.7350010628
  0
SEQEND
  8
1
  0
POLYLINE
  8
1
  6
CONTINUOUS
 66
     1
 70
     0
 40
0.0
 41
0.0
  0
VERTEX
  8
1
 10
336.8252779542
 20
356.430359453
  0
VERTEX
  8
1
 10
336.8841700896
 20
356.9011685758
  0
VERTEX
  8
1
 10
337.0659789354
 20
357.2237812058
  0
SEQEND
  8
1
  0
POLYLINE
  8
1
  6
CONTINUOUS
 66
     1
 70
     0
 40
0.0
 41
0.0
  0
VERTEX
  8
1
 10
337.0659789354
 20
357.2237812058
  0
VERTEX
  8
1
 10
337.2135274306
 20
357.3232693216
  0
VERTEX
  8
1
 10
337.3512541722
 20
357.348589122
  0
SEQEND
  8
1
  0
POLYLINE
  8
1
  6
CONTINUOUS
 66
     1
 70
     0
 40
0.0
 41
0.0
  0
VERTEX
  8
1
 10
337.3512541722
 20
357.348589122
  0
VERTEX
  8
1
 10
337.5117922004
 20
357.3207244938
  0
VERTEX
  8
1
 10
337.618699707
 20
357.2505257594
  0
SEQEND
  8
1
  0
POLYLINE
  8
1
  6
CONTINUOUS
 66
     1
 70
     0
 40
0.0
 41
0.0
  0
VERTEX
  8
1
 10
337.618699707
 20
357.2505257594
  0
VERTEX
  8
1
 10
337.7711919926
 20
356.9841196966
  0
VERTEX
  8
1
 10
337.7969967300001
 20
356.7423792434
  0
SEQEND
  8
1
  0
LINE
  8
1
  6
CONTINUOUS
 10
337.7969967300001
 20
356.7423792434
 11
337.6008700046
 21
356.7423792434
  0
POLYLINE
  8
1
  6
CONTINUOUS
 66
     1
 70
     0
 40
0.0
 41
0.0
  0
VERTEX
  8
1
 10
337.6008700046
 20
356.7423792434
  0
VERTEX
  8
1
 10
337.5732748054
 20
356.9677778194
  0
VERTEX
  8
1
 10
337.4938917908
 20
357.1257178432
  0
SEQEND
  8
1
  0
POLYLINE
  8
1
  6
CONTINUOUS
 66
     1
 70
     0
 40
0.0
 41
0.0
  0
VERTEX
  8
1
 10
337.4938917908
 20
357.1257178432
  0
VERTEX
  8
1
 10
337.419269049
 20
357.1701072966
  0
VERTEX
  8
1
 10
337.3512541722
 20
357.17920695
  0
SEQEND
  8
1
  0
POLYLINE
  8
1
  6
CONTINUOUS
 66
     1
 70
     0
 40
0.0
 41
0.0
  0
VERTEX
  8
1
 10
337.3512541722
 20
357.17920695
  0
VERTEX
  8
1
 10
337.2648534498
 20
357.1586215628
  0
VERTEX
  8
1
 10
337.2086165538
 20
357.116802992
  0
SEQEND
  8
1
  0
POLYLINE
  8
1
  6
CONTINUOUS
 66
     1
 70
     0
 40
0.0
 41
0.0
  0
VERTEX
  8
1
 10
337.2086165538
 20
357.116802992
  0
VERTEX
  8
1
 10
337.1040964844
 20
356.9498737968
  0
VERTEX
  8
1
 10
337.0530999112
 20
356.7586121998
  0
VERTEX
  8
1
 10
337.0303195306
 20
356.4481891554
  0
SEQEND
  8
1
  0
POLYLINE
  8
1
  6
CONTINUOUS
 66
     1
 70
     0
 40
0.0
 41
0.0
  0
VERTEX
  8
1
 10
337.0303195306
 20
356.4481891554
  0
VERTEX
  8
1
 10
337.0637440922
 20
356.1074025462
  0
VERTEX
  8
1
 10
337.106758933
 20
355.9798635924
  0
VERTEX
  8
1
 10
337.1818720004
 20
355.8687238302
  0
SEQEND
  8
1
  0
POLYLINE
  8
1
  6
CONTINUOUS
 66
     1
 70
     0
 40
0.0
 41
0.0
  0
VERTEX
  8
1
 10
337.1818720004
 20
355.8687238302
  0
VERTEX
  8
1
 10
337.2648344884
 20
355.8122634578
  0
VERTEX
  8
1
 10
337.3423393212
 20
355.797405021
  0
SEQEND
  8
1
  0
POLYLINE
  8
1
  6
CONTINUOUS
 66
     1
 70
     0
 40
0.0
 41
0.0
  0
VERTEX
  8
1
 10
337.3423393212
 20
355.797405021
  0
VERTEX
  8
1
 10
337.43428996
 20
355.8225153206
  0
VERTEX
  8
1
 10
337.4938917908
 20
355.8687238302
  0
SEQEND
  8
1
  0
POLYLINE
  8
1
  6
CONTINUOUS
 66
     1
 70
     0
 40
0.0
 41
0.0
  0
VERTEX
  8
1
 10
337.4938917908
 20
355.8687238302
  0
VERTEX
  8
1
 10
337.5510694206
 20
355.9733139046
  0
VERTEX
  8
1
 10
337.5771816664
 20
356.090550673
  0
VERTEX
  8
1
 10
337.5919551534
 20
356.2788069834
  0
SEQEND
  8
1
  0
LINE
  8
1
  6
CONTINUOUS
 10
337.5919551534
 20
356.2788069834
 11
337.8059115812
 21
356.2788069834
  0
POLYLINE
  8
1
  6
CONTINUOUS
 66
     1
 70
     0
 40
0.0
 41
0.0
  0
VERTEX
  8
1
 10
337.048149233
 20
355.7350010628
  0
VERTEX
  8
1
 10
336.9272946872
 20
355.905380922
  0
VERTEX
  8
1
 10
336.8584358468
 20
356.1030496146
  0
VERTEX
  8
1
 10
336.8252779542
 20
356.430359453
  0
SEQEND
  8
1
  0
POLYLINE
  8
1
  6
CONTINUOUS
 66
     1
 70
     0
 40
0.0
 41
0.0
  0
VERTEX
  8
1
 10
337.8059115812
 20
356.2788069834
  0
VERTEX
  8
1
 10
337.7549294364
 20
355.9584199668
  0
VERTEX
  8
1
 10
337.6365294092
 20
355.7350010628
  0
SEQEND
  8
1
  0
ARC
  8
1
  6
CONTINUOUS
 10
333.3273208642
 20
320.21912206
 40
1.5
 50
0.0
 51
90.0
  0
LINE
  8
1
  6
CONTINUOUS
 10
325.3273208642
 20
310.71912206
 11
333.3273208642
 21
310.71912206
  0
ARC
  8
1
  6
CONTINUOUS
 10
325.3273208642
 20
312.21912206
 40
1.5
 50
180.0
 51
270.0
  0
LINE
  8
1
  6
CONTINUOUS
 10
323.8273208642
 20
320.21912206
 11
323.8273208642
 21
312.21912206
  0
ARC
  8
1
  6
CONTINUOUS
 10
325.3273208642
 20
320.21912206
 40
1.5
 50
90.0
 51
180.0
  0
LINE
  8
1
  6
CONTINUOUS
 10
333.3273208642
 20
321.71912206
 11
325.3273208642
 21
321.71912206
  0
LINE
  8
1
  6
CONTINUOUS
 10
332.8273208642
 20
321.21912206
 11
325.8273208642
 21
321.21912206
  0
ARC
  8
1
  6
CONTINUOUS
 10
325.8273208642
 20
320.7191220600001
 40
0.4999999999999432
 50
90.0
 51
180.0000000000065
  0
LINE
  8
1
  6
CONTINUOUS
 10
325.3273208642
 20
320.71912206
 11
325.3273208642
 21
319.71912206
  0
ARC
  8
1
  6
CONTINUOUS
 10
325.8273208642
 20
319.71912206
 40
0.4999999999999432
 50
179.9999999999935
 51
270.0
  0
LINE
  8
1
  6
CONTINUOUS
 10
325.8273208642
 20
319.21912206
 11
332.8273208642
 21
319.21912206
  0
ARC
  8
1
  6
CONTINUOUS
 10
332.8273208642001
 20
319.71912206
 40
0.4999999999999432
 50
270.0
 51
6.513775987638023E-012
  0
LINE
  8
1
  6
CONTINUOUS
 10
333.3273208642
 20
319.71912206
 11
333.3273208642
 21
320.71912206
  0
ARC
  8
1
  6
CONTINUOUS
 10
332.8273208642001
 20
320.7191220600001
 40
0.4999999999999432
 50
359.9999999999935
 51
90.0
  0
ARC
  8
1
  6
CONTINUOUS
 10
333.3273208642
 20
312.21912206
 40
1.5
 50
270.0
 51
0.0
  0
LINE
  8
1
  6
CONTINUOUS
 10
334.8273208642
 20
312.21912206
 11
334.8273208642
 21
320.21912206
  0
POLYLINE
  8
1
  6
CONTINUOUS
 66
     1
 70
     0
 40
0.0
 41
0.0
  0
VERTEX
  8
1
 10
340.2565157428
 20
389.9059227042
  0
VERTEX
  8
1
 10
340.3577167478
 20
390.0841010096
  0
VERTEX
  8
1
 10
340.4021388514
 20
390.2856491442
  0
VERTEX
  8
1
 10
340.4214404892
 20
390.609601622
  0
SEQEND
  8
1
  0
POLYLINE
  8
1
  6
CONTINUOUS
 66
     1
 70
     0
 40
0.0
 41
0.0
  0
VERTEX
  8
1
 10
340.4214404892
 20
390.609601622
  0
VERTEX
  8
1
 10
340.3845647814
 20
391.034533226
  0
VERTEX
  8
1
 10
340.3357690102
 20
391.1948966536
  0
VERTEX
  8
1
 10
340.2455207598
 20
391.335270506
  0
SEQEND
  8
1
  0
POLYLINE
  8
1
  6
CONTINUOUS
 66
     1
 70
     0
 40
0.0
 41
0.0
  0
VERTEX
  8
1
 10
340.2455207598
 20
391.335270506
  0
VERTEX
  8
1
 10
340.068773768
 20
391.4509478698
  0
VERTEX
  8
1
 10
339.9046762838
 20
391.4790197294
  0
SEQEND
  8
1
  0
LINE
  8
1
  6
CONTINUOUS
 10
339.9046762838
 20
391.4790197294
 11
339.7837314698
 21
391.4790197294
  0
LINE
  8
1
  6
CONTINUOUS
 10
339.7837314698
 20
391.4790197294
 11
339.7837314698
 21
389.7519929408
  0
LINE
  8
1
  6
CONTINUOUS
 10
339.7837314698
 20
389.7519929408
 11
339.9046762838
 21
389.7519929408
  0
POLYLINE
  8
1
  6
CONTINUOUS
 66
     1
 70
     0
 40
0.0
 41
0.0
  0
VERTEX
  8
1
 10
339.9046762838
 20
389.7519929408
  0
VERTEX
  8
1
 10
340.117556879
 20
389.8030176526
  0
VERTEX
  8
1
 10
340.2565157428
 20
389.9059227042
  0
SEQEND
  8
1
  0
POLYLINE
  8
1
  6
CONTINUOUS
 66
     1
 70
     0
 40
0.0
 41
0.0
  0
VERTEX
  8
1
 10
339.9046762838
 20
391.687109965
  0
VERTEX
  8
1
 10
340.2280429618
 20
391.6307366876
  0
VERTEX
  8
1
 10
340.4434304554
 20
391.4892002694
  0
SEQEND
  8
1
  0
POLYLINE
  8
1
  6
CONTINUOUS
 66
     1
 70
     0
 40
0.0
 41
0.0
  0
VERTEX
  8
1
 10
340.4434304554
 20
391.4892002694
  0
VERTEX
  8
1
 10
340.587076362
 20
391.2712509224
  0
VERTEX
  8
1
 10
340.6621810932
 20
391.020226008
  0
VERTEX
  8
1
 10
340.6963150666
 20
390.609601622
  0
SEQEND
  8
1
  0
POLYLINE
  8
1
  6
CONTINUOUS
 66
     1
 70
     0
 40
0.0
 41
0.0
  0
VERTEX
  8
1
 10
340.6963150666
 20
390.609601622
  0
VERTEX
  8
1
 10
340.643823798
 20
390.1105053522
  0
VERTEX
  8
1
 10
340.4654204216
 20
389.762987924
  0
SEQEND
  8
1
  0
POLYLINE
  8
1
  6
CONTINUOUS
 66
     1
 70
     0
 40
0.0
 41
0.0
  0
VERTEX
  8
1
 10
340.4654204216
 20
389.762987924
  0
VERTEX
  8
1
 10
340.1727879124
 20
389.5837074636
  0
VERTEX
  8
1
 10
339.9046762838
 20
389.5439027052
  0
SEQEND
  8
1
  0
LINE
  8
1
  6
CONTINUOUS
 10
339.9046762838
 20
389.5439027052
 11
339.52351687
 21
389.5439027052
  0
LINE
  8
1
  6
CONTINUOUS
 10
339.52351687
 20
389.5439027052
 11
339.52351687
 21
391.687109965
  0
LINE
  8
1
  6
CONTINUOUS
 10
339.52351687
 20
391.687109965
 11
339.9046762838
 21
391.687109965
  0
POLYLINE
  8
1
  6
CONTINUOUS
 66
     1
 70
     0
 40
0.0
 41
0.0
  0
VERTEX
  8
1
 10
344.2806795544
 20
391.4892002694
  0
VERTEX
  8
1
 10
344.1937187546
 20
391.4591580118
  0
VERTEX
  8
1
 10
344.1377447742
 20
391.4122353878
  0
SEQEND
  8
1
  0
POLYLINE
  8
1
  6
CONTINUOUS
 66
     1
 70
     0
 40
0.0
 41
0.0
  0
VERTEX
  8
1
 10
344.1377447742
 20
391.4122353878
  0
VERTEX
  8
1
 10
344.0676798246
 20
391.3027629846
  0
VERTEX
  8
1
 10
344.0327079584
 20
391.1770371618
  0
VERTEX
  8
1
 10
344.0167999602
 20
390.972436064
  0
SEQEND
  8
1
  0
POLYLINE
  8
1
  6
CONTINUOUS
 66
     1
 70
     0
 40
0.0
 41
0.0
  0
VERTEX
  8
1
 10
344.0167999602
 20
390.972436064
  0
VERTEX
  8
1
 10
344.0401299478
 20
390.7084673380001
  0
VERTEX
  8
1
 10
344.1267497912
 20
390.5216417572
  0
SEQEND
  8
1
  0
POLYLINE
  8
1
  6
CONTINUOUS
 66
     1
 70
     0
 40
0.0
 41
0.0
  0
VERTEX
  8
1
 10
344.1267497912
 20
390.5216417572
  0
VERTEX
  8
1
 10
344.2066183098
 20
390.469019948
  0
VERTEX
  8
1
 10
344.2806795544
 20
390.4556718588
  0
SEQEND
  8
1
  0
POLYLINE
  8
1
  6
CONTINUOUS
 66
     1
 70
     0
 40
0.0
 41
0.0
  0
VERTEX
  8
1
 10
344.2806795544
 20
390.4556718588
  0
VERTEX
  8
1
 10
344.3872920396
 20
390.4809326938
  0
VERTEX
  8
1
 10
344.4565992840001
 20
390.5326367404
  0
SEQEND
  8
1
  0
POLYLINE
  8
1
  6
CONTINUOUS
 66
     1
 70
     0
 40
0.0
 41
0.0
  0
VERTEX
  8
1
 10
344.4565992840001
 20
390.5326367404
  0
VERTEX
  8
1
 10
344.5680038122
 20
390.7416173674
  0
VERTEX
  8
1
 10
344.588539081
 20
390.9284561316
  0
SEQEND
  8
1
  0
POLYLINE
  8
1
  6
CONTINUOUS
 66
     1
 70
     0
 40
0.0
 41
0.0
  0
VERTEX
  8
1
 10
344.588539081
 20
390.9284561316
  0
VERTEX
  8
1
 10
344.5547200040001
 20
391.2210926348
  0
VERTEX
  8
1
 10
344.4456043008
 20
391.4232303708
  0
SEQEND
  8
1
  0
POLYLINE
  8
1
  6
CONTINUOUS
 66
     1
 70
     0
 40
0.0
 41
0.0
  0
VERTEX
  8
1
 10
344.4456043008
 20
391.4232303708
  0
VERTEX
  8
1
 10
344.359773838
 20
391.4771992898
  0
VERTEX
  8
1
 10
344.2806795544
 20
391.4892002694
  0
SEQEND
  8
1
  0
POLYLINE
  8
1
  6
CONTINUOUS
 66
     1
 70
     0
 40
0.0
 41
0.0
  0
VERTEX
  8
1
 10
344.6105290472
 20
391.555170168
  0
VERTEX
  8
1
 10
344.7563815326
 20
391.3281769158
  0
VERTEX
  8
1
 10
344.8303174796
 20
391.06746291
  0
VERTEX
  8
1
 10
344.8634136584
 20
390.6425865712
  0
SEQEND
  8
1
  0
POLYLINE
  8
1
  6
CONTINUOUS
 66
     1
 70
     0
 40
0.0
 41
0.0
  0
VERTEX
  8
1
 10
344.8634136584
 20
390.6425865712
  0
VERTEX
  8
1
 10
344.7900686648
 20
390.068072827
  0
VERTEX
  8
1
 10
344.5665491148
 20
389.6750280592
  0
SEQEND
  8
1
  0
POLYLINE
  8
1
  6
CONTINUOUS
 66
     1
 70
     0
 40
0.0
 41
0.0
  0
VERTEX
  8
1
 10
344.5665491148
 20
389.6750280592
  0
VERTEX
  8
1
 10
344.3946369412
 20
389.56807356
  0
VERTEX
  8
1
 10
344.2366996222
 20
389.5439027052
  0
SEQEND
  8
1
  0
POLYLINE
  8
1
  6
CONTINUOUS
 66
     1
 70
     0
 40
0.0
 41
0.0
  0
VERTEX
  8
1
 10
344.2366996222
 20
389.5439027052
  0
VERTEX
  8
1
 10
344.0782752792
 20
389.5722626488
  0
VERTEX
  8
1
 10
343.972820028
 20
389.64204311
  0
SEQEND
  8
1
  0
POLYLINE
  8
1
  6
CONTINUOUS
 66
     1
 70
     0
 40
0.0
 41
0.0
  0
VERTEX
  8
1
 10
343.972820028
 20
389.64204311
  0
VERTEX
  8
1
 10
343.830001769
 20
389.846667849
  0
VERTEX
  8
1
 10
343.7859053154
 20
390.0378625012
  0
SEQEND
  8
1
  0
LINE
  8
1
  6
CONTINUOUS
 10
343.7859053154
 20
390.0378625012
 11
344.0387899264
 21
390.0378625012
  0
POLYLINE
  8
1
  6
CONTINUOUS
 66
     1
 70
     0
 40
0.0
 41
0.0
  0
VERTEX
  8
1
 10
344.0387899264
 20
390.0378625012
  0
VERTEX
  8
1
 10
344.0697060892
 20
389.8918694986
  0
VERTEX
  8
1
 10
344.1377447742
 20
389.7959728732
  0
SEQEND
  8
1
  0
POLYLINE
  8
1
  6
CONTINUOUS
 66
     1
 70
     0
 40
0.0
 41
0.0
  0
VERTEX
  8
1
 10
344.1377447742
 20
389.7959728732
  0
VERTEX
  8
1
 10
344.2012004816
 20
389.7593589348
  0
VERTEX
  8
1
 10
344.2586895884
 20
389.7519929408
  0
SEQEND
  8
1
  0
POLYLINE
  8
1
  6
CONTINUOUS
 66
     1
 70
     0
 40
0.0
 41
0.0
  0
VERTEX
  8
1
 10
344.2586895884
 20
389.7519929408
  0
VERTEX
  8
1
 10
344.3453195454
 20
389.7749714746
  0
VERTEX
  8
1
 10
344.4016243686
 20
389.8179628394
  0
SEQEND
  8
1
  0
POLYLINE
  8
1
  6
CONTINUOUS
 66
     1
 70
     0
 40
0.0
 41
0.0
  0
VERTEX
  8
1
 10
344.4016243686
 20
389.8179628394
  0
VERTEX
  8
1
 10
344.5083039414
 20
389.9926298472
  0
VERTEX
  8
1
 10
344.5657554876
 20
390.1902164916
  0
VERTEX
  8
1
 10
344.6105290472
 20
390.5106467742
  0
SEQEND
  8
1
  0
POLYLINE
  8
1
  6
CONTINUOUS
 66
     1
 70
     0
 40
0.0
 41
0.0
  0
VERTEX
  8
1
 10
344.6105290472
 20
390.5106467742
  0
VERTEX
  8
1
 10
344.5394766668
 20
390.3971813322
  0
VERTEX
  8
1
 10
344.4386662556
 20
390.3094825980001
  0
VERTEX
  8
1
 10
344.2366996222
 20
390.257762163
  0
SEQEND
  8
1
  0
POLYLINE
  8
1
  6
CONTINUOUS
 66
     1
 70
     0
 40
0.0
 41
0.0
  0
VERTEX
  8
1
 10
344.2366996222
 20
390.257762163
  0
VERTEX
  8
1
 10
344.056919135
 20
390.3019431384
  0
VERTEX
  8
1
 10
343.9398350786
 20
390.3897019602
  0
SEQEND
  8
1
  0
POLYLINE
  8
1
  6
CONTINUOUS
 66
     1
 70
     0
 40
0.0
 41
0.0
  0
VERTEX
  8
1
 10
343.9398350786
 20
390.3897019602
  0
VERTEX
  8
1
 10
343.8418558154
 20
390.533370108
  0
VERTEX
  8
1
 10
343.7887818256
 20
390.6994715566
  0
VERTEX
  8
1
 10
343.7639153492
 20
390.972436064
  0
SEQEND
  8
1
  0
POLYLINE
  8
1
  6
CONTINUOUS
 66
     1
 70
     0
 40
0.0
 41
0.0
  0
VERTEX
  8
1
 10
343.7639153492
 20
390.972436064
  0
VERTEX
  8
1
 10
343.8178865158
 20
391.314328455
  0
VERTEX
  8
1
 10
343.9618250448
 20
391.5441751848
  0
SEQEND
  8
1
  0
POLYLINE
  8
1
  6
CONTINUOUS
 66
     1
 70
     0
 40
0.0
 41
0.0
  0
VERTEX
  8
1
 10
343.9618250448
 20
391.5441751848
  0
VERTEX
  8
1
 10
344.1326229758
 20
391.6582609506
  0
VERTEX
  8
1
 10
344.2916745376
 20
391.687109965
  0
SEQEND
  8
1
  0
POLYLINE
  8
1
  6
CONTINUOUS
 66
     1
 70
     0
 40
0.0
 41
0.0
  0
VERTEX
  8
1
 10
344.2916745376
 20
391.687109965
  0
VERTEX
  8
1
 10
344.4841752352
 20
391.6454259416
  0
VERTEX
  8
1
 10
344.6105290472
 20
391.555170168
  0
SEQEND
  8
1
  0
POLYLINE
  8
1
  6
CONTINUOUS
 66
     1
 70
     0
 40
0.0
 41
0.0
  0
VERTEX
  8
1
 10
303.5733332272
 20
364.6094382266
  0
VERTEX
  8
1
 10
303.776846328
 20
364.4509373204
  0
VERTEX
  8
1
 10
303.9477569756
 20
364.341992692
  0
SEQEND
  8
1
  0
POLYLINE
  8
1
  6
CONTINUOUS
 66
     1
 70
     0
 40
0.0
 41
0.0
  0
VERTEX
  8
1
 10
303.9477569756
 20
364.341992692
  0
VERTEX
  8
1
 10
304.0418406178
 20
364.2732107562
  0
VERTEX
  8
1
 10
304.1122771296
 20
364.180559219
  0
VERTEX
  8
1
 10
304.1527985522
 20
364.0032283480001
  0
SEQEND
  8
1
  0
POLYLINE
  8
1
  6
CONTINUOUS
 66
     1
 70
     0
 40
0.0
 41
0.0
  0
VERTEX
  8
1
 10
304.019075785
 20
363.6466343018
  0
VERTEX
  8
1
 10
303.836432485
 20
363.543061262
  0
VERTEX
  8
1
 10
303.6713965898
 20
363.522486745
  0
SEQEND
  8
1
  0
POLYLINE
  8
1
  6
CONTINUOUS
 66
     1
 70
     0
 40
0.0
 41
0.0
  0
VERTEX
  8
1
 10
303.341547097
 20
363.6377194506
  0
VERTEX
  8
1
 10
303.2268580622
 20
363.8134942308
  0
VERTEX
  8
1
 10
303.1989094786
 20
363.9764837946
  0
SEQEND
  8
1
  0
LINE
  8
1
  6
CONTINUOUS
 10
303.1989094786
 20
363.9764837946
 11
303.1989094786
 21
364.0656323062
  0
LINE
  8
1
  6
CONTINUOUS
 10
303.4039510552
 20
364.0656323062
 11
303.4039510552
 21
363.9853986456
  0
POLYLINE
  8
1
  6
CONTINUOUS
 66
     1
 70
     0
 40
0.0
 41
0.0
  0
VERTEX
  8
1
 10
303.4039510552
 20
363.9853986456
  0
VERTEX
  8
1
 10
303.4227444966
 20
363.8577108748
  0
VERTEX
  8
1
 10
303.4752698644
 20
363.771442218
  0
SEQEND
  8
1
  0
POLYLINE
  8
1
  6
CONTINUOUS
 66
     1
 70
     0
 40
0.0
 41
0.0
  0
VERTEX
  8
1
 10
303.4752698644
 20
363.771442218
  0
VERTEX
  8
1
 10
303.5680979106
 20
363.7132302154
  0
VERTEX
  8
1
 10
303.6535668876
 20
363.7001234088
  0
SEQEND
  8
1
  0
POLYLINE
  8
1
  6
CONTINUOUS
 66
     1
 70
     0
 40
0.0
 41
0.0
  0
VERTEX
  8
1
 10
303.6535668876
 20
363.7001234088
  0
VERTEX
  8
1
 10
303.781259486
 20
363.7189231454
  0
VERTEX
  8
1
 10
303.8675233152
 20
363.771442218
  0
SEQEND
  8
1
  0
POLYLINE
  8
1
  6
CONTINUOUS
 66
     1
 70
     0
 40
0.0
 41
0.0
  0
VERTEX
  8
1
 10
303.9477569756
 20
363.9764837946
  0
VERTEX
  8
1
 10
303.9375371134
 20
364.0481510402
  0
VERTEX
  8
1
 10
303.9060943438
 20
364.1132490814
  0
VERTEX
  8
1
 10
303.8229490596
 20
364.1904402222
  0
SEQEND
  8
1
  0
POLYLINE
  8
1
  6
CONTINUOUS
 66
     1
 70
     0
 40
0.0
 41
0.0
  0
VERTEX
  8
1
 10
303.8229490596
 20
364.1904402222
  0
VERTEX
  8
1
 10
303.5839558134
 20
364.3542000062
  0
VERTEX
  8
1
 10
303.4039510552
 20
364.4935451616
  0
SEQEND
  8
1
  0
POLYLINE
  8
1
  6
CONTINUOUS
 66
     1
 70
     0
 40
0.0
 41
0.0
  0
VERTEX
  8
1
 10
303.4039510552
 20
364.4935451616
  0
VERTEX
  8
1
 10
303.284597401
 20
364.6520963422
  0
VERTEX
  8
1
 10
303.2523985856
 20
364.805564952
  0
SEQEND
  8
1
  0
POLYLINE
  8
1
  6
CONTINUOUS
 66
     1
 70
     0
 40
0.0
 41
0.0
  0
VERTEX
  8
1
 10
303.2523985856
 20
364.805564952
  0
VERTEX
  8
1
 10
303.2902275046
 20
365.0060786786
  0
VERTEX
  8
1
 10
303.3861213528
 20
365.1354144448
  0
SEQEND
  8
1
  0
POLYLINE
  8
1
  6
CONTINUOUS
 66
     1
 70
     0
 40
0.0
 41
0.0
  0
VERTEX
  8
1
 10
303.3861213528
 20
365.1354144448
  0
VERTEX
  8
1
 10
303.5392918098
 20
365.2343672098
  0
VERTEX
  8
1
 10
303.680311441
 20
365.260222361
  0
SEQEND
  8
1
  0
POLYLINE
  8
1
  6
CONTINUOUS
 66
     1
 70
     0
 40
0.0
 41
0.0
  0
VERTEX
  8
1
 10
303.680311441
 20
365.260222361
  0
VERTEX
  8
1
 10
303.8618111164
 20
365.2307191784
  0
VERTEX
  8
1
 10
303.9834163804
 20
365.153244147
  0
SEQEND
  8
1
  0
POLYLINE
  8
1
  6
CONTINUOUS
 66
     1
 70
     0
 40
0.0
 41
0.0
  0
VERTEX
  8
1
 10
304.1527985522
 20
364.0032283480001
  0
VERTEX
  8
1
 10
304.1140185320001
 20
363.7889540254
  0
VERTEX
  8
1
 10
304.019075785
 20
363.6466343018
  0
SEQEND
  8
1
  0
POLYLINE
  8
1
  6
CONTINUOUS
 66
     1
 70
     0
 40
0.0
 41
0.0
  0
VERTEX
  8
1
 10
303.6713965898
 20
363.522486745
  0
VERTEX
  8
1
 10
303.4740094468
 20
363.5540406898
  0
VERTEX
  8
1
 10
303.341547097
 20
363.6377194506
  0
SEQEND
  8
1
  0
LINE
  8
1
  6
CONTINUOUS
 10
303.1989094786
 20
364.0656323062
 11
303.4039510552
 21
364.0656323062
  0
POLYLINE
  8
1
  6
CONTINUOUS
 66
     1
 70
     0
 40
0.0
 41
0.0
  0
VERTEX
  8
1
 10
303.8675233152
 20
363.771442218
  0
VERTEX
  8
1
 10
303.9332538208
 20
363.8784040678
  0
VERTEX
  8
1
 10
303.9477569756
 20
363.9764837946
  0
SEQEND
  8
1
  0
POLYLINE
  8
1
  6
CONTINUOUS
 66
     1
 70
     0
 40
0.0
 41
0.0
  0
VERTEX
  8
1
 10
303.9834163804
 20
365.153244147
  0
VERTEX
  8
1
 10
304.0921249482
 20
364.9563990332
  0
VERTEX
  8
1
 10
304.1082242964
 20
364.7788203986
  0
SEQEND
  8
1
  0
LINE
  8
1
  6
CONTINUOUS
 10
304.1082242964
 20
364.7788203986
 11
303.90318272
 21
364.7788203986
  0
POLYLINE
  8
1
  6
CONTINUOUS
 66
     1
 70
     0
 40
0.0
 41
0.0
  0
VERTEX
  8
1
 10
303.90318272
 20
364.7788203986
  0
VERTEX
  8
1
 10
303.8917013488
 20
364.9230177814
  0
VERTEX
  8
1
 10
303.8318639106
 20
365.0195213798
  0
SEQEND
  8
1
  0
POLYLINE
  8
1
  6
CONTINUOUS
 66
     1
 70
     0
 40
0.0
 41
0.0
  0
VERTEX
  8
1
 10
303.8318639106
 20
365.0195213798
  0
VERTEX
  8
1
 10
303.7531346916
 20
365.0701092898
  0
VERTEX
  8
1
 10
303.680311441
 20
365.0819253378
  0
SEQEND
  8
1
  0
POLYLINE
  8
1
  6
CONTINUOUS
 66
     1
 70
     0
 40
0.0
 41
0.0
  0
VERTEX
  8
1
 10
303.680311441
 20
365.0819253378
  0
VERTEX
  8
1
 10
303.5887433368
 20
365.0624400336
  0
VERTEX
  8
1
 10
303.5287589714
 20
365.0195213798
  0
SEQEND
  8
1
  0
POLYLINE
  8
1
  6
CONTINUOUS
 66
     1
 70
     0
 40
0.0
 41
0.0
  0
VERTEX
  8
1
 10
303.5287589714
 20
365.0195213798
  0
VERTEX
  8
1
 10
303.4645034048
 20
364.9225040078
  0
VERTEX
  8
1
 10
303.448525311
 20
364.8323095054
  0
SEQEND
  8
1
  0
POLYLINE
  8
1
  6
CONTINUOUS
 66
     1
 70
     0
 40
0.0
 41
0.0
  0
VERTEX
  8
1
 10
303.448525311
 20
364.8323095054
  0
VERTEX
  8
1
 10
303.4610753688
 20
364.7598646602
  0
VERTEX
  8
1
 10
303.4949489896
 20
364.6944998774
  0
VERTEX
  8
1
 10
303.5733332272
 20
364.6094382266
  0
SEQEND
  8
1
  0
POLYLINE
  8
1
  6
CONTINUOUS
 66
     1
 70
     0
 40
0.0
 41
0.0
  0
VERTEX
  8
1
 10
304.9283906028
 20
365.037351082
  0
VERTEX
  8
1
 10
304.8686787246
 20
365.079385362
  0
VERTEX
  8
1
 10
304.8124975378
 20
365.090840189
  0
SEQEND
  8
1
  0
POLYLINE
  8
1
  6
CONTINUOUS
 66
     1
 70
     0
 40
0.0
 41
0.0
  0
VERTEX
  8
1
 10
304.8124975378
 20
365.090840189
  0
VERTEX
  8
1
 10
304.7421639236
 20
365.0724338358
  0
VERTEX
  8
1
 10
304.6966044728
 20
365.037351082
  0
SEQEND
  8
1
  0
POLYLINE
  8
1
  6
CONTINUOUS
 66
     1
 70
     0
 40
0.0
 41
0.0
  0
VERTEX
  8
1
 10
304.6966044728
 20
365.037351082
  0
VERTEX
  8
1
 10
304.5980332336
 20
364.8762062002
  0
VERTEX
  8
1
 10
304.549210415
 20
364.6929088682
  0
VERTEX
  8
1
 10
304.5272223008
 20
364.3954817988
  0
SEQEND
  8
1
  0
POLYLINE
  8
1
  6
CONTINUOUS
 66
     1
 70
     0
 40
0.0
 41
0.0
  0
VERTEX
  8
1
 10
304.5272223008
 20
364.3954817988
  0
VERTEX
  8
1
 10
304.5643216642
 20
364.0128480246
  0
VERTEX
  8
1
 10
304.6123876328
 20
363.8695933076
  0
VERTEX
  8
1
 10
304.6966044728
 20
363.7446976644
  0
SEQEND
  8
1
  0
POLYLINE
  8
1
  6
CONTINUOUS
 66
     1
 70
     0
 40
0.0
 41
0.0
  0
VERTEX
  8
1
 10
304.6966044728
 20
363.7446976644
  0
VERTEX
  8
1
 10
304.7564366892
 20
363.7029218202
  0
VERTEX
  8
1
 10
304.8124975378
 20
363.6912085576
  0
SEQEND
  8
1
  0
POLYLINE
  8
1
  6
CONTINUOUS
 66
     1
 70
     0
 40
0.0
 41
0.0
  0
VERTEX
  8
1
 10
304.8124975378
 20
363.6912085576
  0
VERTEX
  8
1
 10
304.8827380436
 20
363.7098398012
  0
VERTEX
  8
1
 10
304.9283906028
 20
363.7446976644
  0
SEQEND
  8
1
  0
POLYLINE
  8
1
  6
CONTINUOUS
 66
     1
 70
     0
 40
0.0
 41
0.0
  0
VERTEX
  8
1
 10
304.9283906028
 20
363.7446976644
  0
VERTEX
  8
1
 10
305.028703744
 20
363.9075931236
  0
VERTEX
  8
1
 10
305.0766199164
 20
364.0938335322
  0
VERTEX
  8
1
 10
305.0977727748
 20
364.3954817988
  0
SEQEND
  8
1
  0
POLYLINE
  8
1
  6
CONTINUOUS
 66
     1
 70
     0
 40
0.0
 41
0.0
  0
VERTEX
  8
1
 10
305.0977727748
 20
364.3954817988
  0
VERTEX
  8
1
 10
305.0603232528
 20
364.7731796072
  0
VERTEX
  8
1
 10
304.9283906028
 20
365.037351082
  0
SEQEND
  8
1
  0
POLYLINE
  8
1
  6
CONTINUOUS
 66
     1
 70
     0
 40
0.0
 41
0.0
  0
VERTEX
  8
1
 10
304.3221807242
 20
364.3954817988
  0
VERTEX
  8
1
 10
304.3727540976
 20
364.8332507064
  0
VERTEX
  8
1
 10
304.536137152
 20
365.1354144448
  0
SEQEND
  8
1
  0
POLYLINE
  8
1
  6
CONTINUOUS
 66
     1
 70
     0
 40
0.0
 41
0.0
  0
VERTEX
  8
1
 10
304.536137152
 20
365.1354144448
  0
VERTEX
  8
1
 10
304.678754239
 20
365.234036548
  0
VERTEX
  8
1
 10
304.8124975378
 20
365.260222361
  0
SEQEND
  8
1
  0
POLYLINE
  8
1
  6
CONTINUOUS
 66
     1
 70
     0
 40
0.0
 41
0.0
  0
VERTEX
  8
1
 10
304.8124975378
 20
365.260222361
  0
VERTEX
  8
1
 10
304.9799429778
 20
365.217880437
  0
VERTEX
  8
1
 10
305.0888579236
 20
365.1354144448
  0
SEQEND
  8
1
  0
POLYLINE
  8
1
  6
CONTINUOUS
 66
     1
 70
     0
 40
0.0
 41
0.0
  0
VERTEX
  8
1
 10
305.0888579236
 20
365.1354144448
  0
VERTEX
  8
1
 10
305.2103763238
 20
364.95230266
  0
VERTEX
  8
1
 10
305.273758512
 20
364.741040008
  0
VERTEX
  8
1
 10
305.3028143514
 20
364.3954817988
  0
SEQEND
  8
1
  0
POLYLINE
  8
1
  6
CONTINUOUS
 66
     1
 70
     0
 40
0.0
 41
0.0
  0
VERTEX
  8
1
 10
305.3028143514
 20
364.3954817988
  0
VERTEX
  8
1
 10
305.2526503118
 20
363.9527628386
  0
VERTEX
  8
1
 10
305.0888579236
 20
363.6466343018
  0
SEQEND
  8
1
  0
POLYLINE
  8
1
  6
CONTINUOUS
 66
     1
 70
     0
 40
0.0
 41
0.0
  0
VERTEX
  8
1
 10
305.0888579236
 20
363.6466343018
  0
VERTEX
  8
1
 10
304.9460742412
 20
363.5486357568
  0
VERTEX
  8
1
 10
304.8124975378
 20
363.522486745
  0
SEQEND
  8
1
  0
POLYLINE
  8
1
  6
CONTINUOUS
 66
     1
 70
     0
 40
0.0
 41
0.0
  0
VERTEX
  8
1
 10
304.8124975378
 20
363.522486745
  0
VERTEX
  8
1
 10
304.6451485696
 20
363.5645568758
  0
VERTEX
  8
1
 10
304.536137152
 20
363.6466343018
  0
SEQEND
  8
1
  0
POLYLINE
  8
1
  6
CONTINUOUS
 66
     1
 70
     0
 40
0.0
 41
0.0
  0
VERTEX
  8
1
 10
304.536137152
 20
363.6466343018
  0
VERTEX
  8
1
 10
304.414018643
 20
363.8321939372
  0
VERTEX
  8
1
 10
304.3509620178
 20
364.046077446
  0
VERTEX
  8
1
 10
304.3221807242
 20
364.3954817988
  0
SEQEND
  8
1
  0
POLYLINE
  8
1
  6
CONTINUOUS
 66
     1
 70
     0
 40
0.0
 41
0.0
  0
VERTEX
  8
1
 10
338.5083134312
 20
391.3902454216
  0
VERTEX
  8
1
 10
338.4290648992
 20
391.2705906626
  0
VERTEX
  8
1
 10
338.4093585834
 20
391.1593507766
  0
SEQEND
  8
1
  0
POLYLINE
  8
1
  6
CONTINUOUS
 66
     1
 70
     0
 40
0.0
 41
0.0
  0
VERTEX
  8
1
 10
338.4093585834
 20
391.1593507766
  0
VERTEX
  8
1
 10
338.424836988
 20
391.0700021340001
  0
VERTEX
  8
1
 10
338.4666144538
 20
390.9893855686
  0
VERTEX
  8
1
 10
338.5632883466
 20
390.8844761994
  0
SEQEND
  8
1
  0
LINE
  8
1
  6
CONTINUOUS
 10
338.354383668
 20
390.2137822308
 11
338.354383668
 21
390.1148273828
  0
POLYLINE
  8
1
  6
CONTINUOUS
 66
     1
 70
     0
 40
0.0
 41
0.0
  0
VERTEX
  8
1
 10
338.6622431946
 20
389.762987924
  0
VERTEX
  8
1
 10
338.8197307326
 20
389.7861742658
  0
VERTEX
  8
1
 10
338.9261227888
 20
389.8509477886
  0
SEQEND
  8
1
  0
POLYLINE
  8
1
  6
CONTINUOUS
 66
     1
 70
     0
 40
0.0
 41
0.0
  0
VERTEX
  8
1
 10
339.0250776366
 20
390.1038323998
  0
VERTEX
  8
1
 10
339.0124731396
 20
390.1922220028
  0
VERTEX
  8
1
 10
338.973693724
 20
390.272509587
  0
VERTEX
  8
1
 10
338.8711478732
 20
390.3677119940001
  0
SEQEND
  8
1
  0
POLYLINE
  8
1
  6
CONTINUOUS
 66
     1
 70
     0
 40
0.0
 41
0.0
  0
VERTEX
  8
1
 10
338.8711478732
 20
390.3677119940001
  0
VERTEX
  8
1
 10
338.5763895364
 20
390.5696823942
  0
VERTEX
  8
1
 10
338.354383668
 20
390.7415414192
  0
SEQEND
  8
1
  0
POLYLINE
  8
1
  6
CONTINUOUS
 66
     1
 70
     0
 40
0.0
 41
0.0
  0
VERTEX
  8
1
 10
338.1674689554
 20
391.1263658274
  0
VERTEX
  8
1
 10
338.2141246222
 20
391.37366609
  0
VERTEX
  8
1
 10
338.3323937018
 20
391.5331802018
  0
SEQEND
  8
1
  0
POLYLINE
  8
1
  6
CONTINUOUS
 66
     1
 70
     0
 40
0.0
 41
0.0
  0
VERTEX
  8
1
 10
338.3323937018
 20
391.5331802018
  0
VERTEX
  8
1
 10
338.521303932
 20
391.6552219452
  0
VERTEX
  8
1
 10
338.6952281438
 20
391.687109965
  0
SEQEND
  8
1
  0
POLYLINE
  8
1
  6
CONTINUOUS
 66
     1
 70
     0
 40
0.0
 41
0.0
  0
VERTEX
  8
1
 10
338.6952281438
 20
391.687109965
  0
VERTEX
  8
1
 10
338.9190777434
 20
391.6507227066
  0
VERTEX
  8
1
 10
339.069057569
 20
391.555170168
  0
SEQEND
  8
1
  0
POLYLINE
  8
1
  6
CONTINUOUS
 66
     1
 70
     0
 40
0.0
 41
0.0
  0
VERTEX
  8
1
 10
339.069057569
 20
391.555170168
  0
VERTEX
  8
1
 10
339.2031314694
 20
391.3123945276
  0
VERTEX
  8
1
 10
339.2229873322
 20
391.093380878
  0
SEQEND
  8
1
  0
POLYLINE
  8
1
  6
CONTINUOUS
 66
     1
 70
     0
 40
0.0
 41
0.0
  0
VERTEX
  8
1
 10
338.5632883466
 20
390.8844761994
  0
VERTEX
  8
1
 10
338.8142878376
 20
390.6889917482
  0
VERTEX
  8
1
 10
339.0250776366
 20
390.5546267066
  0
SEQEND
  8
1
  0
POLYLINE
  8
1
  6
CONTINUOUS
 66
     1
 70
     0
 40
0.0
 41
0.0
  0
VERTEX
  8
1
 10
339.0250776366
 20
390.5546267066
  0
VERTEX
  8
1
 10
339.1411141286
 20
390.4697956524
  0
VERTEX
  8
1
 10
339.2279858262
 20
390.3555254234
  0
VERTEX
  8
1
 10
339.2779622476
 20
390.136817349
  0
SEQEND
  8
1
  0
POLYLINE
  8
1
  6
CONTINUOUS
 66
     1
 70
     0
 40
0.0
 41
0.0
  0
VERTEX
  8
1
 10
339.2779622476
 20
390.136817349
  0
VERTEX
  8
1
 10
339.230133556
 20
389.8725456844
  0
VERTEX
  8
1
 10
339.1130375012
 20
389.6970180254
  0
SEQEND
  8
1
  0
POLYLINE
  8
1
  6
CONTINUOUS
 66
     1
 70
     0
 40
0.0
 41
0.0
  0
VERTEX
  8
1
 10
339.1130375012
 20
389.6970180254
  0
VERTEX
  8
1
 10
338.8877774314
 20
389.5692779428
  0
VERTEX
  8
1
 10
338.6842331606
 20
389.5439027052
  0
SEQEND
  8
1
  0
POLYLINE
  8
1
  6
CONTINUOUS
 66
     1
 70
     0
 40
0.0
 41
0.0
  0
VERTEX
  8
1
 10
338.2774187862
 20
389.6860230422
  0
VERTEX
  8
1
 10
338.1359689764
 20
389.9028119378
  0
VERTEX
  8
1
 10
338.1014990568
 20
390.1038323998
  0
SEQEND
  8
1
  0
LINE
  8
1
  6
CONTINUOUS
 10
338.1014990568
 20
390.1038323998
 11
338.1014990568
 21
390.2137822308
  0
POLYLINE
  8
1
  6
CONTINUOUS
 66
     1
 70
     0
 40
0.0
 41
0.0
  0
VERTEX
  8
1
 10
338.354383668
 20
390.1148273828
  0
VERTEX
  8
1
 10
338.3775622456
 20
389.9573457986
  0
VERTEX
  8
1
 10
338.4423435326
 20
389.8509477886
  0
SEQEND
  8
1
  0
POLYLINE
  8
1
  6
CONTINUOUS
 66
     1
 70
     0
 40
0.0
 41
0.0
  0
VERTEX
  8
1
 10
338.4423435326
 20
389.8509477886
  0
VERTEX
  8
1
 10
338.5568314562
 20
389.7791529856
  0
VERTEX
  8
1
 10
338.6622431946
 20
389.762987924
  0
SEQEND
  8
1
  0
POLYLINE
  8
1
  6
CONTINUOUS
 66
     1
 70
     0
 40
0.0
 41
0.0
  0
VERTEX
  8
1
 10
338.354383668
 20
390.7415414192
  0
VERTEX
  8
1
 10
338.2071808276
 20
390.9370878752
  0
VERTEX
  8
1
 10
338.1674689554
 20
391.1263658274
  0
SEQEND
  8
1
  0
LINE
  8
1
  6
CONTINUOUS
 10
339.2229873322
 20
391.093380878
 11
338.970102721
 21
391.093380878
  0
POLYLINE
  8
1
  6
CONTINUOUS
 66
     1
 70
     0
 40
0.0
 41
0.0
  0
VERTEX
  8
1
 10
338.9261227888
 20
389.8509477886
  0
VERTEX
  8
1
 10
339.0071904122
 20
389.9828674036
  0
VERTEX
  8
1
 10
339.0250776366
 20
390.1038323998
  0
SEQEND
  8
1
  0
POLYLINE
  8
1
  6
CONTINUOUS
 66
     1
 70
     0
 40
0.0
 41
0.0
  0
VERTEX
  8
1
 10
338.6842331606
 20
389.5439027052
  0
VERTEX
  8
1
 10
338.4407890176
 20
389.5828192374
  0
VERTEX
  8
1
 10
338.2774187862
 20
389.6860230422
  0
SEQEND
  8
1
  0
POLYLINE
  8
1
  6
CONTINUOUS
 66
     1
 70
     0
 40
0.0
 41
0.0
  0
VERTEX
  8
1
 10
338.6952281438
 20
391.4672103032
  0
VERTEX
  8
1
 10
338.5822941486
 20
391.443178428
  0
VERTEX
  8
1
 10
338.5083134312
 20
391.3902454216
  0
SEQEND
  8
1
  0
LINE
  8
1
  6
CONTINUOUS
 10
338.1014990568
 20
390.2137822308
 11
338.354383668
 21
390.2137822308
  0
POLYLINE
  8
1
  6
CONTINUOUS
 66
     1
 70
     0
 40
0.0
 41
0.0
  0
VERTEX
  8
1
 10
338.970102721
 20
391.093380878
  0
VERTEX
  8
1
 10
338.9559423632
 20
391.2712243168
  0
VERTEX
  8
1
 10
338.8821428564
 20
391.3902454216
  0
SEQEND
  8
1
  0
POLYLINE
  8
1
  6
CONTINUOUS
 66
     1
 70
     0
 40
0.0
 41
0.0
  0
VERTEX
  8
1
 10
338.8821428564
 20
391.3902454216
  0
VERTEX
  8
1
 10
338.7850434862
 20
391.4526371772
  0
VERTEX
  8
1
 10
338.6952281438
 20
391.4672103032
  0
SEQEND
  8
1
  0
ARC
  8
1
  6
CONTINUOUS
 10
348.3273208642
 20
335.21912206
 40
1.5
 50
0.0
 51
90.0
  0
LINE
  8
1
  6
CONTINUOUS
 10
349.8273208642
 20
327.21912206
 11
349.8273208642
 21
335.21912206
  0
ARC
  8
1
  6
CONTINUOUS
 10
348.3273208642
 20
327.21912206
 40
1.5
 50
270.0
 51
0.0
  0
LINE
  8
1
  6
CONTINUOUS
 10
340.3273208642
 20
325.71912206
 11
348.3273208642
 21
325.71912206
  0
ARC
  8
1
  6
CONTINUOUS
 10
340.3273208642
 20
327.21912206
 40
1.5
 50
180.0
 51
270.0
  0
LINE
  8
1
  6
CONTINUOUS
 10
338.8273208642
 20
335.21912206
 11
338.8273208642
 21
327.21912206
  0
ARC
  8
1
  6
CONTINUOUS
 10
340.3273208642
 20
335.21912206
 40
1.5
 50
90.0
 51
180.0
  0
LINE
  8
1
  6
CONTINUOUS
 10
348.3273208642
 20
336.71912206
 11
340.3273208642
 21
336.71912206
  0
LINE
  8
1
  6
CONTINUOUS
 10
345.625732486
 20
389.5439027052
 11
345.625732486
 21
391.2493467494
  0
LINE
  8
1
  6
CONTINUOUS
 10
345.625732486
 20
391.2493467494
 11
345.3032129820001
 21
391.2493467494
  0
LINE
  8
1
  6
CONTINUOUS
 10
345.3032129820001
 20
391.2493467494
 11
345.3032129820001
 21
391.3792504384
  0
POLYLINE
  8
1
  6
CONTINUOUS
 66
     1
 70
     0
 40
0.0
 41
0.0
  0
VERTEX
  8
1
 10
345.3032129820001
 20
391.3792504384
  0
VERTEX
  8
1
 10
345.4697516384
 20
391.3968937458
  0
VERTEX
  8
1
 10
345.6215317628
 20
391.4657491836
  0
VERTEX
  8
1
 10
345.7082064448
 20
391.5640155508
  0
VERTEX
  8
1
 10
345.7540072888
 20
391.687109965
  0
SEQEND
  8
1
  0
LINE
  8
1
  6
CONTINUOUS
 10
345.7540072888
 20
391.687109965
 11
345.885947086
 21
391.687109965
  0
LINE
  8
1
  6
CONTINUOUS
 10
345.885947086
 20
391.687109965
 11
345.885947086
 21
389.5439027052
  0
LINE
  8
1
  6
CONTINUOUS
 10
345.885947086
 20
389.5439027052
 11
345.625732486
 21
389.5439027052
  0
POLYLINE
  8
1
  6
CONTINUOUS
 66
     1
 70
     0
 40
0.0
 41
0.0
  0
VERTEX
  8
1
 10
347.6011644482
 20
389.7519929408
  0
VERTEX
  8
1
 10
347.3504871066
 20
389.5857125866
  0
VERTEX
  8
1
 10
347.1173851922
 20
389.5439027052
  0
SEQEND
  8
1
  0
LINE
  8
1
  6
CONTINUOUS
 10
347.1173851922
 20
389.5439027052
 11
346.5603060488
 21
389.5439027052
  0
LINE
  8
1
  6
CONTINUOUS
 10
346.5603060488
 20
389.5439027052
 11
346.5603060488
 21
391.687109965
  0
LINE
  8
1
  6
CONTINUOUS
 10
346.5603060488
 20
391.687109965
 11
347.1393751584
 21
391.687109965
  0
POLYLINE
  8
1
  6
CONTINUOUS
 66
     1
 70
     0
 40
0.0
 41
0.0
  0
VERTEX
  8
1
 10
347.3812647864
 20
390.488656808
  0
VERTEX
  8
1
 10
347.2459634346
 20
390.5900726928
  0
VERTEX
  8
1
 10
347.1173851922
 20
390.6214110484
  0
SEQEND
  8
1
  0
POLYLINE
  8
1
  6
CONTINUOUS
 66
     1
 70
     0
 40
0.0
 41
0.0
  0
VERTEX
  8
1
 10
347.5022096004
 20
390.1698022984
  0
VERTEX
  8
1
 10
347.4668823728
 20
390.3615872832
  0
VERTEX
  8
1
 10
347.3812647864
 20
390.488656808
  0
SEQEND
  8
1
  0
POLYLINE
  8
1
  6
CONTINUOUS
 66
     1
 70
     0
 40
0.0
 41
0.0
  0
VERTEX
  8
1
 10
347.3922597696
 20
389.883932738
  0
VERTEX
  8
1
 10
347.4826860886
 20
390.033218137
  0
VERTEX
  8
1
 10
347.5022096004
 20
390.1698022984
  0
SEQEND
  8
1
  0
POLYLINE
  8
1
  6
CONTINUOUS
 66
     1
 70
     0
 40
0.0
 41
0.0
  0
VERTEX
  8
1
 10
347.0734052598
 20
389.7519929408
  0
VERTEX
  8
1
 10
347.2659059576
 20
389.7936769642
  0
VERTEX
  8
1
 10
347.3922597696
 20
389.883932738
  0
SEQEND
  8
1
  0
LINE
  8
1
  6
CONTINUOUS
 10
346.8205206488
 20
389.7519929408
 11
347.0734052598
 21
389.7519929408
  0
LINE
  8
1
  6
CONTINUOUS
 10
346.8205206488
 20
390.6214110484
 11
346.8205206488
 21
389.7519929408
  0
LINE
  8
1
  6
CONTINUOUS
 10
347.1173851922
 20
390.6214110484
 11
346.8205206488
 21
390.6214110484
  0
LINE
  8
1
  6
CONTINUOUS
 10
346.8205206488
 20
391.4790197294
 11
346.8205206488
 21
390.8295012838
  0
LINE
  8
1
  6
CONTINUOUS
 10
347.1833550908
 20
391.4790197294
 11
346.8205206488
 21
391.4790197294
  0
POLYLINE
  8
1
  6
CONTINUOUS
 66
     1
 70
     0
 40
0.0
 41
0.0
  0
VERTEX
  8
1
 10
347.3812647864
 20
391.3792504384
  0
VERTEX
  8
1
 10
347.279831747
 20
391.4554290128
  0
VERTEX
  8
1
 10
347.1833550908
 20
391.4790197294
  0
SEQEND
  8
1
  0
POLYLINE
  8
1
  6
CONTINUOUS
 66
     1
 70
     0
 40
0.0
 41
0.0
  0
VERTEX
  8
1
 10
347.458229668
 20
391.1593507766
  0
VERTEX
  8
1
 10
347.437257215
 20
391.2909942938
  0
VERTEX
  8
1
 10
347.3812647864
 20
391.3792504384
  0
SEQEND
  8
1
  0
POLYLINE
  8
1
  6
CONTINUOUS
 66
     1
 70
     0
 40
0.0
 41
0.0
  0
VERTEX
  8
1
 10
347.3592748202
 20
390.9174611486
  0
VERTEX
  8
1
 10
347.4394319224
 20
391.043231653
  0
VERTEX
  8
1
 10
347.458229668
 20
391.1593507766
  0
SEQEND
  8
1
  0
POLYLINE
  8
1
  6
CONTINUOUS
 66
     1
 70
     0
 40
0.0
 41
0.0
  0
VERTEX
  8
1
 10
347.1503701414
 20
390.8295012838
  0
VERTEX
  8
1
 10
347.2766688706
 20
390.8576036038
  0
VERTEX
  8
1
 10
347.3592748202
 20
390.9174611486
  0
SEQEND
  8
1
  0
LINE
  8
1
  6
CONTINUOUS
 10
346.8205206488
 20
390.8295012838
 11
347.1503701414
 21
390.8295012838
  0
POLYLINE
  8
1
  6
CONTINUOUS
 66
     1
 70
     0
 40
0.0
 41
0.0
  0
VERTEX
  8
1
 10
347.1393751584
 20
391.687109965
  0
VERTEX
  8
1
 10
347.3693896712
 20
391.651552464
  0
VERTEX
  8
1
 10
347.5241995666
 20
391.555170168
  0
SEQEND
  8
1
  0
POLYLINE
  8
1
  6
CONTINUOUS
 66
     1
 70
     0
 40
0.0
 41
0.0
  0
VERTEX
  8
1
 10
347.5241995666
 20
391.555170168
  0
VERTEX
  8
1
 10
347.6572880986
 20
391.3496772682
  0
VERTEX
  8
1
 10
347.689124313
 20
391.1593507766
  0
SEQEND
  8
1
  0
POLYLINE
  8
1
  6
CONTINUOUS
 66
     1
 70
     0
 40
0.0
 41
0.0
  0
VERTEX
  8
1
 10
347.689124313
 20
391.1593507766
  0
VERTEX
  8
1
 10
347.6547579382
 20
390.9613538752
  0
VERTEX
  8
1
 10
347.568179499
 20
390.8295012838
  0
SEQEND
  8
1
  0
POLYLINE
  8
1
  6
CONTINUOUS
 66
     1
 70
     0
 40
0.0
 41
0.0
  0
VERTEX
  8
1
 10
347.568179499
 20
390.8295012838
  0
VERTEX
  8
1
 10
347.4819139892
 20
390.7530539228
  0
VERTEX
  8
1
 10
347.4032547526
 20
390.7085564698
  0
SEQEND
  8
1
  0
POLYLINE
  8
1
  6
CONTINUOUS
 66
     1
 70
     0
 40
0.0
 41
0.0
  0
VERTEX
  8
1
 10
347.4032547526
 20
390.7085564698
  0
VERTEX
  8
1
 10
347.51918375
 20
390.6354176486
  0
VERTEX
  8
1
 10
347.6011644482
 20
390.5656216896
  0
SEQEND
  8
1
  0
POLYLINE
  8
1
  6
CONTINUOUS
 66
     1
 70
     0
 40
0.0
 41
0.0
  0
VERTEX
  8
1
 10
347.6011644482
 20
390.5656216896
  0
VERTEX
  8
1
 10
347.7204219968
 20
390.3579527712
  0
VERTEX
  8
1
 10
347.7440992284
 20
390.1698022984
  0
SEQEND
  8
1
  0
POLYLINE
  8
1
  6
CONTINUOUS
 66
     1
 70
     0
 40
0.0
 41
0.0
  0
VERTEX
  8
1
 10
347.7440992284
 20
390.1698022984
  0
VERTEX
  8
1
 10
347.7055233822
 20
389.920140054
  0
VERTEX
  8
1
 10
347.6011644482
 20
389.7519929408
  0
SEQEND
  8
1
  0
POLYLINE
  8
1
  6
CONTINUOUS
 66
     1
 70
     0
 40
0.0
 41
0.0
  0
VERTEX
  8
1
 10
311.1645366856
 20
364.805564952
  0
VERTEX
  8
1
 10
311.2023656046
 20
365.0060786786
  0
VERTEX
  8
1
 10
311.2982594528
 20
365.1354144448
  0
SEQEND
  8
1
  0
POLYLINE
  8
1
  6
CONTINUOUS
 66
     1
 70
     0
 40
0.0
 41
0.0
  0
VERTEX
  8
1
 10
311.2982594528
 20
365.1354144448
  0
VERTEX
  8
1
 10
311.4514299098
 20
365.2343672098
  0
VERTEX
  8
1
 10
311.592449541
 20
365.260222361
  0
SEQEND
  8
1
  0
POLYLINE
  8
1
  6
CONTINUOUS
 66
     1
 70
     0
 40
0.0
 41
0.0
  0
VERTEX
  8
1
 10
311.592449541
 20
365.260222361
  0
VERTEX
  8
1
 10
311.7739492164
 20
365.2307191784
  0
VERTEX
  8
1
 10
311.8955544804
 20
365.153244147
  0
SEQEND
  8
1
  0
POLYLINE
  8
1
  6
CONTINUOUS
 66
     1
 70
     0
 40
0.0
 41
0.0
  0
VERTEX
  8
1
 10
311.8955544804
 20
365.153244147
  0
VERTEX
  8
1
 10
312.0042630482
 20
364.9563990332
  0
VERTEX
  8
1
 10
312.0203623964
 20
364.7788203986
  0
SEQEND
  8
1
  0
LINE
  8
1
  6
CONTINUOUS
 10
312.0203623964
 20
364.7788203986
 11
311.81532082
 21
364.7788203986
  0
POLYLINE
  8
1
  6
CONTINUOUS
 66
     1
 70
     0
 40
0.0
 41
0.0
  0
VERTEX
  8
1
 10
311.81532082
 20
364.7788203986
  0
VERTEX
  8
1
 10
311.8038394488
 20
364.9230177814
  0
VERTEX
  8
1
 10
311.7440020106
 20
365.0195213798
  0
SEQEND
  8
1
  0
POLYLINE
  8
1
  6
CONTINUOUS
 66
     1
 70
     0
 40
0.0
 41
0.0
  0
VERTEX
  8
1
 10
311.7440020106
 20
365.0195213798
  0
VERTEX
  8
1
 10
311.6652727916
 20
365.0701092898
  0
VERTEX
  8
1
 10
311.592449541
 20
365.0819253378
  0
SEQEND
  8
1
  0
POLYLINE
  8
1
  6
CONTINUOUS
 66
     1
 70
     0
 40
0.0
 41
0.0
  0
VERTEX
  8
1
 10
311.592449541
 20
365.0819253378
  0
VERTEX
  8
1
 10
311.5008814368
 20
365.0624400336
  0
VERTEX
  8
1
 10
311.4408970714
 20
365.0195213798
  0
SEQEND
  8
1
  0
POLYLINE
  8
1
  6
CONTINUOUS
 66
     1
 70
     0
 40
0.0
 41
0.0
  0
VERTEX
  8
1
 10
311.4408970714
 20
365.0195213798
  0
VERTEX
  8
1
 10
311.3766415048
 20
364.9225040078
  0
VERTEX
  8
1
 10
311.360663411
 20
364.8323095054
  0
SEQEND
  8
1
  0
POLYLINE
  8
1
  6
CONTINUOUS
 66
     1
 70
     0
 40
0.0
 41
0.0
  0
VERTEX
  8
1
 10
311.360663411
 20
364.8323095054
  0
VERTEX
  8
1
 10
311.3732134688
 20
364.7598646602
  0
VERTEX
  8
1
 10
311.4070870896
 20
364.6944998774
  0
VERTEX
  8
1
 10
311.4854713272
 20
364.6094382266
  0
SEQEND
  8
1
  0
POLYLINE
  8
1
  6
CONTINUOUS
 66
     1
 70
     0
 40
0.0
 41
0.0
  0
VERTEX
  8
1
 10
311.4854713272
 20
364.6094382266
  0
VERTEX
  8
1
 10
311.688984428
 20
364.4509373204
  0
VERTEX
  8
1
 10
311.8598950756
 20
364.341992692
  0
SEQEND
  8
1
  0
POLYLINE
  8
1
  6
CONTINUOUS
 66
     1
 70
     0
 40
0.0
 41
0.0
  0
VERTEX
  8
1
 10
311.8598950756
 20
364.341992692
  0
VERTEX
  8
1
 10
311.9539787178
 20
364.2732107562
  0
VERTEX
  8
1
 10
312.0244152296
 20
364.180559219
  0
VERTEX
  8
1
 10
312.0649366522
 20
364.0032283480001
  0
SEQEND
  8
1
  0
POLYLINE
  8
1
  6
CONTINUOUS
 66
     1
 70
     0
 40
0.0
 41
0.0
  0
VERTEX
  8
1
 10
312.0649366522
 20
364.0032283480001
  0
VERTEX
  8
1
 10
312.026156632
 20
363.7889540254
  0
VERTEX
  8
1
 10
311.931213885
 20
363.6466343018
  0
SEQEND
  8
1
  0
POLYLINE
  8
1
  6
CONTINUOUS
 66
     1
 70
     0
 40
0.0
 41
0.0
  0
VERTEX
  8
1
 10
311.931213885
 20
363.6466343018
  0
VERTEX
  8
1
 10
311.748570585
 20
363.543061262
  0
VERTEX
  8
1
 10
311.5835346898
 20
363.522486745
  0
SEQEND
  8
1
  0
POLYLINE
  8
1
  6
CONTINUOUS
 66
     1
 70
     0
 40
0.0
 41
0.0
  0
VERTEX
  8
1
 10
311.5835346898
 20
363.522486745
  0
VERTEX
  8
1
 10
311.3861475468
 20
363.5540406898
  0
VERTEX
  8
1
 10
311.253685197
 20
363.6377194506
  0
SEQEND
  8
1
  0
POLYLINE
  8
1
  6
CONTINUOUS
 66
     1
 70
     0
 40
0.0
 41
0.0
  0
VERTEX
  8
1
 10
311.253685197
 20
363.6377194506
  0
VERTEX
  8
1
 10
311.1389961622
 20
363.8134942308
  0
VERTEX
  8
1
 10
311.1110475786
 20
363.9764837946
  0
SEQEND
  8
1
  0
LINE
  8
1
  6
CONTINUOUS
 10
311.1110475786
 20
363.9764837946
 11
311.1110475786
 21
364.0656323062
  0
LINE
  8
1
  6
CONTINUOUS
 10
311.1110475786
 20
364.0656323062
 11
311.3160891552
 21
364.0656323062
  0
LINE
  8
1
  6
CONTINUOUS
 10
311.3160891552
 20
364.0656323062
 11
311.3160891552
 21
363.9853986456
  0
POLYLINE
  8
1
  6
CONTINUOUS
 66
     1
 70
     0
 40
0.0
 41
0.0
  0
VERTEX
  8
1
 10
311.3160891552
 20
363.9853986456
  0
VERTEX
  8
1
 10
311.3348825966
 20
363.8577108748
  0
VERTEX
  8
1
 10
311.3874079644
 20
363.771442218
  0
SEQEND
  8
1
  0
POLYLINE
  8
1
  6
CONTINUOUS
 66
     1
 70
     0
 40
0.0
 41
0.0
  0
VERTEX
  8
1
 10
311.3874079644
 20
363.771442218
  0
VERTEX
  8
1
 10
311.4802360106
 20
363.7132302154
  0
VERTEX
  8
1
 10
311.5657049876
 20
363.7001234088
  0
SEQEND
  8
1
  0
POLYLINE
  8
1
  6
CONTINUOUS
 66
     1
 70
     0
 40
0.0
 41
0.0
  0
VERTEX
  8
1
 10
311.5657049876
 20
363.7001234088
  0
VERTEX
  8
1
 10
311.693397586
 20
363.7189231454
  0
VERTEX
  8
1
 10
311.7796614152
 20
363.771442218
  0
SEQEND
  8
1
  0
POLYLINE
  8
1
  6
CONTINUOUS
 66
     1
 70
     0
 40
0.0
 41
0.0
  0
VERTEX
  8
1
 10
311.7796614152
 20
363.771442218
  0
VERTEX
  8
1
 10
311.8453919208
 20
363.8784040678
  0
VERTEX
  8
1
 10
311.8598950756
 20
363.9764837946
  0
SEQEND
  8
1
  0
POLYLINE
  8
1
  6
CONTINUOUS
 66
     1
 70
     0
 40
0.0
 41
0.0
  0
VERTEX
  8
1
 10
311.8598950756
 20
363.9764837946
  0
VERTEX
  8
1
 10
311.8496752134
 20
364.0481510402
  0
VERTEX
  8
1
 10
311.8182324438
 20
364.1132490814
  0
VERTEX
  8
1
 10
311.7350871596
 20
364.1904402222
  0
SEQEND
  8
1
  0
POLYLINE
  8
1
  6
CONTINUOUS
 66
     1
 70
     0
 40
0.0
 41
0.0
  0
VERTEX
  8
1
 10
311.7350871596
 20
364.1904402222
  0
VERTEX
  8
1
 10
311.4960939134
 20
364.3542000062
  0
VERTEX
  8
1
 10
311.3160891552
 20
364.4935451616
  0
SEQEND
  8
1
  0
POLYLINE
  8
1
  6
CONTINUOUS
 66
     1
 70
     0
 40
0.0
 41
0.0
  0
VERTEX
  8
1
 10
311.3160891552
 20
364.4935451616
  0
VERTEX
  8
1
 10
311.196735501
 20
364.6520963422
  0
VERTEX
  8
1
 10
311.1645366856
 20
364.805564952
  0
SEQEND
  8
1
  0
LINE
  8
1
  6
CONTINUOUS
 10
312.6473735944
 20
363.522486745
 11
312.6473735944
 21
364.905279213
  0
LINE
  8
1
  6
CONTINUOUS
 10
312.6473735944
 20
364.905279213
 11
312.3858712938
 21
364.905279213
  0
LINE
  8
1
  6
CONTINUOUS
 10
312.3858712938
 20
364.905279213
 11
312.3858712938
 21
365.0106065286
  0
POLYLINE
  8
1
  6
CONTINUOUS
 66
     1
 70
     0
 40
0.0
 41
0.0
  0
VERTEX
  8
1
 10
312.3858712938
 20
365.0106065286
  0
VERTEX
  8
1
 10
312.5209026368
 20
365.0249119128
  0
VERTEX
  8
1
 10
312.6439676026
 20
365.0807406462
  0
VERTEX
  8
1
 10
312.7142443718
 20
365.1604160792
  0
VERTEX
  8
1
 10
312.7513801912
 20
365.260222361
  0
SEQEND
  8
1
  0
LINE
  8
1
  6
CONTINUOUS
 10
312.7513801912
 20
365.260222361
 11
312.8583584052
 21
365.260222361
  0
LINE
  8
1
  6
CONTINUOUS
 10
312.8583584052
 20
365.260222361
 11
312.8583584052
 21
363.522486745
  0
LINE
  8
1
  6
CONTINUOUS
 10
312.8583584052
 20
363.522486745
 11
312.6473735944
 21
363.522486745
  0
POLYLINE
  8
1
  6
CONTINUOUS
 66
     1
 70
     0
 40
0.0
 41
0.0
  0
VERTEX
  8
1
 10
320.9357232676
 20
364.8816383486
  0
VERTEX
  8
1
 10
320.913842052
 20
365.0202296624
  0
VERTEX
  8
1
 10
320.8554896072
 20
365.1134244786
  0
SEQEND
  8
1
  0
POLYLINE
  8
1
  6
CONTINUOUS
 66
     1
 70
     0
 40
0.0
 41
0.0
  0
VERTEX
  8
1
 10
320.8554896072
 20
365.1134244786
  0
VERTEX
  8
1
 10
320.7808668654
 20
365.157813932
  0
VERTEX
  8
1
 10
320.7128519888
 20
365.1669135856
  0
SEQEND
  8
1
  0
POLYLINE
  8
1
  6
CONTINUOUS
 66
     1
 70
     0
 40
0.0
 41
0.0
  0
VERTEX
  8
1
 10
320.7128519888
 20
365.1669135856
  0
VERTEX
  8
1
 10
320.6261399202
 20
365.1406118696
  0
VERTEX
  8
1
 10
320.5702143702
 20
365.0955947762
  0
SEQEND
  8
1
  0
POLYLINE
  8
1
  6
CONTINUOUS
 66
     1
 70
     0
 40
0.0
 41
0.0
  0
VERTEX
  8
1
 10
320.5702143702
 20
365.0955947762
  0
VERTEX
  8
1
 10
320.52156891
 20
365.0123527208
  0
VERTEX
  8
1
 10
320.4994585324
 20
364.9179245648
  0
VERTEX
  8
1
 10
320.4899807098
 20
364.7657452836
  0
SEQEND
  8
1
  0
LINE
  8
1
  6
CONTINUOUS
 10
320.4899807098
 20
364.7657452836
 11
320.2938539844
 21
364.7657452836
  0
POLYLINE
  8
1
  6
CONTINUOUS
 66
     1
 70
     0
 40
0.0
 41
0.0
  0
VERTEX
  8
1
 10
320.445406454
 20
365.2293175436
  0
VERTEX
  8
1
 10
320.5946987672
 20
365.3177000808
  0
VERTEX
  8
1
 10
320.730681691
 20
365.3362957574
  0
SEQEND
  8
1
  0
POLYLINE
  8
1
  6
CONTINUOUS
 66
     1
 70
     0
 40
0.0
 41
0.0
  0
VERTEX
  8
1
 10
320.730681691
 20
365.3362957574
  0
VERTEX
  8
1
 10
320.9027944016
 20
365.3003195332
  0
VERTEX
  8
1
 10
321.015956928
 20
365.2204026924
  0
SEQEND
  8
1
  0
POLYLINE
  8
1
  6
CONTINUOUS
 66
     1
 70
     0
 40
0.0
 41
0.0
  0
VERTEX
  8
1
 10
321.015956928
 20
365.2204026924
  0
VERTEX
  8
1
 10
321.1201664546
 20
365.0379141408
  0
VERTEX
  8
1
 10
321.1407648442
 20
364.8727234974
  0
SEQEND
  8
1
  0
POLYLINE
  8
1
  6
CONTINUOUS
 66
     1
 70
     0
 40
0.0
 41
0.0
  0
VERTEX
  8
1
 10
321.1407648442
 20
364.8727234974
  0
VERTEX
  8
1
 10
321.0521808172
 20
364.5525581024
  0
VERTEX
  8
1
 10
320.900063863
 20
364.337832428
  0
SEQEND
  8
1
  0
POLYLINE
  8
1
  6
CONTINUOUS
 66
     1
 70
     0
 40
0.0
 41
0.0
  0
VERTEX
  8
1
 10
320.900063863
 20
364.337832428
  0
VERTEX
  8
1
 10
320.648373188
 20
364.0272677056
  0
VERTEX
  8
1
 10
320.4721510076
 20
363.767281954
  0
SEQEND
  8
1
  0
LINE
  8
1
  6
CONTINUOUS
 10
320.4721510076
 20
363.767281954
 11
321.1675093976
 21
363.767281954
  0
LINE
  8
1
  6
CONTINUOUS
 10
321.1675093976
 20
363.767281954
 11
321.1675093976
 21
363.5985601414
  0
LINE
  8
1
  6
CONTINUOUS
 10
321.1675093976
 20
363.5985601414
 11
320.2581945798
 21
363.5985601414
  0
LINE
  8
1
  6
CONTINUOUS
 10
320.2581945798
 20
363.5985601414
 11
320.2581945798
 21
363.7405374006
  0
POLYLINE
  8
1
  6
CONTINUOUS
 66
     1
 70
     0
 40
0.0
 41
0.0
  0
VERTEX
  8
1
 10
320.2581945798
 20
363.7405374006
  0
VERTEX
  8
1
 10
320.5224014224
 20
364.1641685702
  0
VERTEX
  8
1
 10
320.7663410956
 20
364.4715551954
  0
SEQEND
  8
1
  0
POLYLINE
  8
1
  6
CONTINUOUS
 66
     1
 70
     0
 40
0.0
 41
0.0
  0
VERTEX
  8
1
 10
320.7663410956
 20
364.4715551954
  0
VERTEX
  8
1
 10
320.8991177526
 20
364.6865813744
  0
VERTEX
  8
1
 10
320.9357232676
 20
364.8816383486
  0
SEQEND
  8
1
  0
POLYLINE
  8
1
  6
CONTINUOUS
 66
     1
 70
     0
 40
0.0
 41
0.0
  0
VERTEX
  8
1
 10
320.2938539844
 20
364.7657452836
  0
VERTEX
  8
1
 10
320.335825403
 20
365.0412153108
  0
VERTEX
  8
1
 10
320.445406454
 20
365.2293175436
  0
SEQEND
  8
1
  0
POLYLINE
  8
1
  6
CONTINUOUS
 66
     1
 70
     0
 40
0.0
 41
0.0
  0
VERTEX
  8
1
 10
327.2336692762
 20
364.8376584162
  0
VERTEX
  8
1
 10
327.437182377
 20
364.67915751
  0
VERTEX
  8
1
 10
327.6080930248
 20
364.5702128816
  0
SEQEND
  8
1
  0
POLYLINE
  8
1
  6
CONTINUOUS
 66
     1
 70
     0
 40
0.0
 41
0.0
  0
VERTEX
  8
1
 10
327.6080930248
 20
364.5702128816
  0
VERTEX
  8
1
 10
327.7021766668
 20
364.5014309458
  0
VERTEX
  8
1
 10
327.7726131786
 20
364.4087794086
  0
VERTEX
  8
1
 10
327.8131346012
 20
364.2314485376
  0
SEQEND
  8
1
  0
POLYLINE
  8
1
  6
CONTINUOUS
 66
     1
 70
     0
 40
0.0
 41
0.0
  0
VERTEX
  8
1
 10
327.8131346012
 20
364.2314485376
  0
VERTEX
  8
1
 10
327.7743545812
 20
364.017174215
  0
VERTEX
  8
1
 10
327.679411834
 20
363.8748544914
  0
SEQEND
  8
1
  0
POLYLINE
  8
1
  6
CONTINUOUS
 66
     1
 70
     0
 40
0.0
 41
0.0
  0
VERTEX
  8
1
 10
327.679411834
 20
363.8748544914
  0
VERTEX
  8
1
 10
327.496768534
 20
363.7712814514
  0
VERTEX
  8
1
 10
327.3317326388
 20
363.7507069346
  0
SEQEND
  8
1
  0
POLYLINE
  8
1
  6
CONTINUOUS
 66
     1
 70
     0
 40
0.0
 41
0.0
  0
VERTEX
  8
1
 10
327.3317326388
 20
363.7507069346
  0
VERTEX
  8
1
 10
327.1343454958
 20
363.7822608794
  0
VERTEX
  8
1
 10
327.0018831462
 20
363.8659396402
  0
SEQEND
  8
1
  0
POLYLINE
  8
1
  6
CONTINUOUS
 66
     1
 70
     0
 40
0.0
 41
0.0
  0
VERTEX
  8
1
 10
327.0018831462
 20
363.8659396402
  0
VERTEX
  8
1
 10
326.8871941112
 20
364.0417144204
  0
VERTEX
  8
1
 10
326.8592455276
 20
364.2047039842
  0
SEQEND
  8
1
  0
LINE
  8
1
  6
CONTINUOUS
 10
326.8592455276
 20
364.2047039842
 11
326.8592455276
 21
364.2938524956
  0
LINE
  8
1
  6
CONTINUOUS
 10
326.8592455276
 20
364.2938524956
 11
327.0642871042
 21
364.2938524956
  0
LINE
  8
1
  6
CONTINUOUS
 10
327.0642871042
 20
364.2938524956
 11
327.0642871042
 21
364.2136188352
  0
POLYLINE
  8
1
  6
CONTINUOUS
 66
     1
 70
     0
 40
0.0
 41
0.0
  0
VERTEX
  8
1
 10
327.0642871042
 20
364.2136188352
  0
VERTEX
  8
1
 10
327.0830805456
 20
364.0859310642
  0
VERTEX
  8
1
 10
327.1356059134
 20
363.9996624076
  0
SEQEND
  8
1
  0
POLYLINE
  8
1
  6
CONTINUOUS
 66
     1
 70
     0
 40
0.0
 41
0.0
  0
VERTEX
  8
1
 10
327.1356059134
 20
363.9996624076
  0
VERTEX
  8
1
 10
327.2284339596
 20
363.941450405
  0
VERTEX
  8
1
 10
327.3139029366
 20
363.9283435984
  0
SEQEND
  8
1
  0
POLYLINE
  8
1
  6
CONTINUOUS
 66
     1
 70
     0
 40
0.0
 41
0.0
  0
VERTEX
  8
1
 10
327.3139029366
 20
363.9283435984
  0
VERTEX
  8
1
 10
327.441595535
 20
363.947143335
  0
VERTEX
  8
1
 10
327.5278593644
 20
363.9996624076
  0
SEQEND
  8
1
  0
POLYLINE
  8
1
  6
CONTINUOUS
 66
     1
 70
     0
 40
0.0
 41
0.0
  0
VERTEX
  8
1
 10
327.5278593644
 20
363.9996624076
  0
VERTEX
  8
1
 10
327.5935898698
 20
364.1066242574
  0
VERTEX
  8
1
 10
327.6080930248
 20
364.2047039842
  0
SEQEND
  8
1
  0
POLYLINE
  8
1
  6
CONTINUOUS
 66
     1
 70
     0
 40
0.0
 41
0.0
  0
VERTEX
  8
1
 10
327.6080930248
 20
364.2047039842
  0
VERTEX
  8
1
 10
327.5978731624
 20
364.2763712298
  0
VERTEX
  8
1
 10
327.5664303928
 20
364.341469271
  0
VERTEX
  8
1
 10
327.4832851086
 20
364.4186604118
  0
SEQEND
  8
1
  0
POLYLINE
  8
1
  6
CONTINUOUS
 66
     1
 70
     0
 40
0.0
 41
0.0
  0
VERTEX
  8
1
 10
327.4832851086
 20
364.4186604118
  0
VERTEX
  8
1
 10
327.2442918624
 20
364.5824201958
  0
VERTEX
  8
1
 10
327.0642871042
 20
364.7217653512
  0
SEQEND
  8
1
  0
POLYLINE
  8
1
  6
CONTINUOUS
 66
     1
 70
     0
 40
0.0
 41
0.0
  0
VERTEX
  8
1
 10
327.0642871042
 20
364.7217653512
  0
VERTEX
  8
1
 10
326.94493345
 20
364.8803165316
  0
VERTEX
  8
1
 10
326.9127346346
 20
365.0337851416
  0
SEQEND
  8
1
  0
POLYLINE
  8
1
  6
CONTINUOUS
 66
     1
 70
     0
 40
0.0
 41
0.0
  0
VERTEX
  8
1
 10
326.9127346346
 20
365.0337851416
  0
VERTEX
  8
1
 10
326.9505635536
 20
365.2342988682
  0
VERTEX
  8
1
 10
327.046457402
 20
365.3636346344
  0
SEQEND
  8
1
  0
POLYLINE
  8
1
  6
CONTINUOUS
 66
     1
 70
     0
 40
0.0
 41
0.0
  0
VERTEX
  8
1
 10
327.046457402
 20
365.3636346344
  0
VERTEX
  8
1
 10
327.1996278588
 20
365.4625873994
  0
VERTEX
  8
1
 10
327.34064749
 20
365.4884425506
  0
SEQEND
  8
1
  0
POLYLINE
  8
1
  6
CONTINUOUS
 66
     1
 70
     0
 40
0.0
 41
0.0
  0
VERTEX
  8
1
 10
327.34064749
 20
365.4884425506
  0
VERTEX
  8
1
 10
327.5221471654
 20
365.458939368
  0
VERTEX
  8
1
 10
327.6437524294
 20
365.3814643366
  0
SEQEND
  8
1
  0
POLYLINE
  8
1
  6
CONTINUOUS
 66
     1
 70
     0
 40
0.0
 41
0.0
  0
VERTEX
  8
1
 10
327.6437524294
 20
365.3814643366
  0
VERTEX
  8
1
 10
327.7524609972
 20
365.1846192228
  0
VERTEX
  8
1
 10
327.7685603456
 20
365.0070405882
  0
SEQEND
  8
1
  0
LINE
  8
1
  6
CONTINUOUS
 10
327.7685603456
 20
365.0070405882
 11
327.563518769
 21
365.0070405882
  0
POLYLINE
  8
1
  6
CONTINUOUS
 66
     1
 70
     0
 40
0.0
 41
0.0
  0
VERTEX
  8
1
 10
327.563518769
 20
365.0070405882
  0
VERTEX
  8
1
 10
327.5520373978
 20
365.151237971
  0
VERTEX
  8
1
 10
327.4921999596
 20
365.2477415694
  0
SEQEND
  8
1
  0
POLYLINE
  8
1
  6
CONTINUOUS
 66
     1
 70
     0
 40
0.0
 41
0.0
  0
VERTEX
  8
1
 10
327.4921999596
 20
365.2477415694
  0
VERTEX
  8
1
 10
327.4134707406
 20
365.2983294794
  0
VERTEX
  8
1
 10
327.34064749
 20
365.3101455274
  0
SEQEND
  8
1
  0
POLYLINE
  8
1
  6
CONTINUOUS
 66
     1
 70
     0
 40
0.0
 41
0.0
  0
VERTEX
  8
1
 10
327.34064749
 20
365.3101455274
  0
VERTEX
  8
1
 10
327.2490793858
 20
365.2906602232
  0
VERTEX
  8
1
 10
327.1890950204
 20
365.2477415694
  0
SEQEND
  8
1
  0
POLYLINE
  8
1
  6
CONTINUOUS
 66
     1
 70
     0
 40
0.0
 41
0.0
  0
VERTEX
  8
1
 10
327.1890950204
 20
365.2477415694
  0
VERTEX
  8
1
 10
327.1248394538
 20
365.1507241972
  0
VERTEX
  8
1
 10
327.10886136
 20
365.060529695
  0
SEQEND
  8
1
  0
POLYLINE
  8
1
  6
CONTINUOUS
 66
     1
 70
     0
 40
0.0
 41
0.0
  0
VERTEX
  8
1
 10
327.10886136
 20
365.060529695
  0
VERTEX
  8
1
 10
327.1214114178
 20
364.9880848496
  0
VERTEX
  8
1
 10
327.1552850386
 20
364.922720067
  0
VERTEX
  8
1
 10
327.2336692762
 20
364.8376584162
  0
SEQEND
  8
1
  0
POLYLINE
  8
1
  6
CONTINUOUS
 66
     1
 70
     0
 40
0.0
 41
0.0
  0
VERTEX
  8
1
 10
328.2143029034
 20
364.2671079422
  0
VERTEX
  8
1
 10
328.229815014
 20
364.0977488024
  0
VERTEX
  8
1
 10
328.2945365638
 20
363.9818327052
  0
SEQEND
  8
1
  0
POLYLINE
  8
1
  6
CONTINUOUS
 66
     1
 70
     0
 40
0.0
 41
0.0
  0
VERTEX
  8
1
 10
328.2945365638
 20
363.9818327052
  0
VERTEX
  8
1
 10
328.3833126146
 20
363.9299908096
  0
VERTEX
  8
1
 10
328.4639187356
 20
363.9194287472
  0
SEQEND
  8
1
  0
POLYLINE
  8
1
  6
CONTINUOUS
 66
     1
 70
     0
 40
0.0
 41
0.0
  0
VERTEX
  8
1
 10
328.4639187356
 20
363.9194287472
  0
VERTEX
  8
1
 10
328.5667054366
 20
363.9478554586
  0
VERTEX
  8
1
 10
328.6333009076
 20
363.9996624076
  0
SEQEND
  8
1
  0
POLYLINE
  8
1
  6
CONTINUOUS
 66
     1
 70
     0
 40
0.0
 41
0.0
  0
VERTEX
  8
1
 10
328.6333009076
 20
363.9996624076
  0
VERTEX
  8
1
 10
328.6780768636
 20
364.0656771254
  0
VERTEX
  8
1
 10
328.7023587438
 20
364.1418818302
  0
VERTEX
  8
1
 10
328.713534568
 20
364.2671079422
  0
SEQEND
  8
1
  0
LINE
  8
1
  6
CONTINUOUS
 10
328.2410474568
 20
365.0070405882
 11
328.0449207314
 21
365.0070405882
  0
POLYLINE
  8
1
  6
CONTINUOUS
 66
     1
 70
     0
 40
0.0
 41
0.0
  0
VERTEX
  8
1
 10
328.0449207314
 20
365.0070405882
  0
VERTEX
  8
1
 10
328.0938279422
 20
365.2322280974
  0
VERTEX
  8
1
 10
328.196473201
 20
365.3814643366
  0
SEQEND
  8
1
  0
POLYLINE
  8
1
  6
CONTINUOUS
 66
     1
 70
     0
 40
0.0
 41
0.0
  0
VERTEX
  8
1
 10
328.196473201
 20
365.3814643366
  0
VERTEX
  8
1
 10
328.3407603392
 20
365.4692258056
  0
VERTEX
  8
1
 10
328.4728335868
 20
365.4884425506
  0
SEQEND
  8
1
  0
POLYLINE
  8
1
  6
CONTINUOUS
 66
     1
 70
     0
 40
0.0
 41
0.0
  0
VERTEX
  8
1
 10
328.4728335868
 20
365.4884425506
  0
VERTEX
  8
1
 10
328.6442405434
 20
365.457373915
  0
VERTEX
  8
1
 10
328.7581088238
 20
365.3814643366
  0
SEQEND
  8
1
  0
POLYLINE
  8
1
  6
CONTINUOUS
 66
     1
 70
     0
 40
0.0
 41
0.0
  0
VERTEX
  8
1
 10
328.7581088238
 20
365.3814643366
  0
VERTEX
  8
1
 10
328.861254327
 20
365.209038108
  0
VERTEX
  8
1
 10
328.88291674
 20
365.051614844
  0
SEQEND
  8
1
  0
POLYLINE
  8
1
  6
CONTINUOUS
 66
     1
 70
     0
 40
0.0
 41
0.0
  0
VERTEX
  8
1
 10
328.88291674
 20
365.051614844
  0
VERTEX
  8
1
 10
328.8564291594
 20
364.8810326422
  0
VERTEX
  8
1
 10
328.7848533772
 20
364.766339607
  0
SEQEND
  8
1
  0
POLYLINE
  8
1
  6
CONTINUOUS
 66
     1
 70
     0
 40
0.0
 41
0.0
  0
VERTEX
  8
1
 10
328.7848533772
 20
364.766339607
  0
VERTEX
  8
1
 10
328.6964367538
 20
364.6916260258
  0
VERTEX
  8
1
 10
328.6154712054
 20
364.650446542
  0
SEQEND
  8
1
  0
POLYLINE
  8
1
  6
CONTINUOUS
 66
     1
 70
     0
 40
0.0
 41
0.0
  0
VERTEX
  8
1
 10
328.6154712054
 20
364.650446542
  0
VERTEX
  8
1
 10
328.721496313
 20
364.6063203558
  0
VERTEX
  8
1
 10
328.7937682284
 20
364.5523831792
  0
SEQEND
  8
1
  0
POLYLINE
  8
1
  6
CONTINUOUS
 66
     1
 70
     0
 40
0.0
 41
0.0
  0
VERTEX
  8
1
 10
328.7937682284
 20
364.5523831792
  0
VERTEX
  8
1
 10
328.894896628
 20
364.3949491704
  0
VERTEX
  8
1
 10
328.9185761446
 20
364.24927824
  0
SEQEND
  8
1
  0
POLYLINE
  8
1
  6
CONTINUOUS
 66
     1
 70
     0
 40
0.0
 41
0.0
  0
VERTEX
  8
1
 10
328.9185761446
 20
364.24927824
  0
VERTEX
  8
1
 10
328.8765696774
 20
364.0241374006
  0
VERTEX
  8
1
 10
328.7759385262
 20
363.8748544914
  0
SEQEND
  8
1
  0
POLYLINE
  8
1
  6
CONTINUOUS
 66
     1
 70
     0
 40
0.0
 41
0.0
  0
VERTEX
  8
1
 10
328.7759385262
 20
363.8748544914
  0
VERTEX
  8
1
 10
328.6133588578
 20
363.7736272942
  0
VERTEX
  8
1
 10
328.4639187356
 20
363.7507069346
  0
SEQEND
  8
1
  0
POLYLINE
  8
1
  6
CONTINUOUS
 66
     1
 70
     0
 40
0.0
 41
0.0
  0
VERTEX
  8
1
 10
328.4639187356
 20
363.7507069346
  0
VERTEX
  8
1
 10
328.2715867532
 20
363.783046301
  0
VERTEX
  8
1
 10
328.142984094
 20
363.8659396402
  0
SEQEND
  8
1
  0
POLYLINE
  8
1
  6
CONTINUOUS
 66
     1
 70
     0
 40
0.0
 41
0.0
  0
VERTEX
  8
1
 10
328.142984094
 20
363.8659396402
  0
VERTEX
  8
1
 10
328.029851526
 20
364.0777011294
  0
VERTEX
  8
1
 10
328.0092613268
 20
364.2671079422
  0
SEQEND
  8
1
  0
LINE
  8
1
  6
CONTINUOUS
 10
328.0092613268
 20
364.2671079422
 11
328.2143029034
 21
364.2671079422
  0
POLYLINE
  8
1
  6
CONTINUOUS
 66
     1
 70
     0
 40
0.0
 41
0.0
  0
VERTEX
  8
1
 10
328.6154712054
 20
364.5078089234
  0
VERTEX
  8
1
 10
328.5632830774
 20
364.5450190708
  0
VERTEX
  8
1
 10
328.5022364454
 20
364.5648934406
  0
VERTEX
  8
1
 10
328.4015147776
 20
364.5702128816
  0
SEQEND
  8
1
  0
POLYLINE
  8
1
  6
CONTINUOUS
 66
     1
 70
     0
 40
0.0
 41
0.0
  0
VERTEX
  8
1
 10
328.713534568
 20
364.2671079422
  0
VERTEX
  8
1
 10
328.6830398716
 20
364.4123800668
  0
VERTEX
  8
1
 10
328.6154712054
 20
364.5078089234
  0
SEQEND
  8
1
  0
LINE
  8
1
  6
CONTINUOUS
 10
328.4015147776
 20
364.5702128816
 11
328.4015147776
 21
364.7217653512
  0
POLYLINE
  8
1
  6
CONTINUOUS
 66
     1
 70
     0
 40
0.0
 41
0.0
  0
VERTEX
  8
1
 10
328.6154712054
 20
364.8019990116
  0
VERTEX
  8
1
 10
328.6759159038
 20
364.9149007218
  0
VERTEX
  8
1
 10
328.6867900146
 20
365.0159554392
  0
SEQEND
  8
1
  0
POLYLINE
  8
1
  6
CONTINUOUS
 66
     1
 70
     0
 40
0.0
 41
0.0
  0
VERTEX
  8
1
 10
328.6867900146
 20
365.0159554392
  0
VERTEX
  8
1
 10
328.666736773
 20
365.1695364842
  0
VERTEX
  8
1
 10
328.6065563542
 20
365.2744861228
  0
SEQEND
  8
1
  0
POLYLINE
  8
1
  6
CONTINUOUS
 66
     1
 70
     0
 40
0.0
 41
0.0
  0
VERTEX
  8
1
 10
328.6065563542
 20
365.2744861228
  0
VERTEX
  8
1
 10
328.536964087
 20
365.3182447058
  0
VERTEX
  8
1
 10
328.4728335868
 20
365.3279752298
  0
SEQEND
  8
1
  0
POLYLINE
  8
1
  6
CONTINUOUS
 66
     1
 70
     0
 40
0.0
 41
0.0
  0
VERTEX
  8
1
 10
328.4728335868
 20
365.3279752298
  0
VERTEX
  8
1
 10
328.3921248978
 20
365.311761257
  0
VERTEX
  8
1
 10
328.3391108194
 20
365.2744861228
  0
SEQEND
  8
1
  0
POLYLINE
  8
1
  6
CONTINUOUS
 66
     1
 70
     0
 40
0.0
 41
0.0
  0
VERTEX
  8
1
 10
328.3391108194
 20
365.2744861228
  0
VERTEX
  8
1
 10
328.2603482758
 20
365.1335446886
  0
VERTEX
  8
1
 10
328.2410474568
 20
365.0070405882
  0
SEQEND
  8
1
  0
POLYLINE
  8
1
  6
CONTINUOUS
 66
     1
 70
     0
 40
0.0
 41
0.0
  0
VERTEX
  8
1
 10
328.4015147776
 20
364.7217653512
  0
VERTEX
  8
1
 10
328.5292857782
 20
364.7473336836
  0
VERTEX
  8
1
 10
328.6154712054
 20
364.8019990116
  0
SEQEND
  8
1
  0
POLYLINE
  8
1
  6
CONTINUOUS
 66
     1
 70
     0
 40
0.0
 41
0.0
  0
VERTEX
  8
1
 10
303.2588973076
 20
356.7382189796
  0
VERTEX
  8
1
 10
303.319342006
 20
356.8511206898
  0
VERTEX
  8
1
 10
303.3302161168
 20
356.9521754074
  0
SEQEND
  8
1
  0
POLYLINE
  8
1
  6
CONTINUOUS
 66
     1
 70
     0
 40
0.0
 41
0.0
  0
VERTEX
  8
1
 10
303.3302161168
 20
356.9521754074
  0
VERTEX
  8
1
 10
303.3069201868
 20
357.0807237588
  0
VERTEX
  8
1
 10
303.2499824564
 20
357.166131835
  0
SEQEND
  8
1
  0
POLYLINE
  8
1
  6
CONTINUOUS
 66
     1
 70
     0
 40
0.0
 41
0.0
  0
VERTEX
  8
1
 10
303.2499824564
 20
357.166131835
  0
VERTEX
  8
1
 10
303.1240557604
 20
357.2406461404
  0
VERTEX
  8
1
 10
303.0092814752
 20
357.2559407060001
  0
SEQEND
  8
1
  0
LINE
  8
1
  6
CONTINUOUS
 10
303.0092814752
 20
357.2559407060001
 11
302.8131547498
 21
357.2559407060001
  0
LINE
  8
1
  6
CONTINUOUS
 10
302.8131547498
 20
357.2559407060001
 11
302.8131547498
 21
356.6579853192
  0
LINE
  8
1
  6
CONTINUOUS
 10
302.8131547498
 20
356.6579853192
 11
303.0716854334
 21
356.6579853192
  0
POLYLINE
  8
1
  6
CONTINUOUS
 66
     1
 70
     0
 40
0.0
 41
0.0
  0
VERTEX
  8
1
 10
303.0716854334
 20
356.6579853192
  0
VERTEX
  8
1
 10
303.1848696352
 20
356.6840820342
  0
VERTEX
  8
1
 10
303.2588973076
 20
356.7382189796
  0
SEQEND
  8
1
  0
POLYLINE
  8
1
  6
CONTINUOUS
 66
     1
 70
     0
 40
0.0
 41
0.0
  0
VERTEX
  8
1
 10
303.053855731
 20
357.4246625186
  0
VERTEX
  8
1
 10
303.273928213
 20
357.381831827
  0
VERTEX
  8
1
 10
303.4193646284
 20
357.2820249
  0
SEQEND
  8
1
  0
POLYLINE
  8
1
  6
CONTINUOUS
 66
     1
 70
     0
 40
0.0
 41
0.0
  0
VERTEX
  8
1
 10
303.4193646284
 20
357.2820249
  0
VERTEX
  8
1
 10
303.5165466522
 20
357.108606083
  0
VERTEX
  8
1
 10
303.5352576934
 20
356.9521754074
  0
SEQEND
  8
1
  0
POLYLINE
  8
1
  6
CONTINUOUS
 66
     1
 70
     0
 40
0.0
 41
0.0
  0
VERTEX
  8
1
 10
303.5352576934
 20
356.9521754074
  0
VERTEX
  8
1
 10
303.5011412886
 20
356.760550966
  0
VERTEX
  8
1
 10
303.4193646284
 20
356.6312407658
  0
SEQEND
  8
1
  0
POLYLINE
  8
1
  6
CONTINUOUS
 66
     1
 70
     0
 40
0.0
 41
0.0
  0
VERTEX
  8
1
 10
303.4193646284
 20
356.6312407658
  0
VERTEX
  8
1
 10
303.3367286256
 20
356.5558719758
  0
VERTEX
  8
1
 10
303.2588973076
 20
356.5153477006
  0
SEQEND
  8
1
  0
LINE
  8
1
  6
CONTINUOUS
 10
303.2588973076
 20
356.5153477006
 11
303.5798319492
 21
355.6869269026
  0
LINE
  8
1
  6
CONTINUOUS
 10
303.5798319492
 20
355.6869269026
 11
303.3658755214
 21
355.6869269026
  0
LINE
  8
1
  6
CONTINUOUS
 10
303.3658755214
 20
355.6869269026
 11
303.0627705822
 21
356.4892635066
  0
LINE
  8
1
  6
CONTINUOUS
 10
303.0627705822
 20
356.4892635066
 11
302.8131547498
 21
356.4892635066
  0
LINE
  8
1
  6
CONTINUOUS
 10
302.8131547498
 20
356.4892635066
 11
302.8131547498
 21
355.6869269026
  0
LINE
  8
1
  6
CONTINUOUS
 10
302.8131547498
 20
355.6869269026
 11
302.6021699392
 21
355.6869269026
  0
LINE
  8
1
  6
CONTINUOUS
 10
302.6021699392
 20
355.6869269026
 11
302.6021699392
 21
357.4246625186
  0
LINE
  8
1
  6
CONTINUOUS
 10
302.6021699392
 20
357.4246625186
 11
303.053855731
 21
357.4246625186
  0
LINE
  8
1
  6
CONTINUOUS
 10
305.0864417944
 20
356.987834812
 11
305.0864417944
 21
355.6869269026
  0
LINE
  8
1
  6
CONTINUOUS
 10
305.8085447382
 20
357.4246625186
 11
305.8085447382
 21
355.6869269026
  0
LINE
  8
1
  6
CONTINUOUS
 10
305.8085447382
 20
355.6869269026
 11
305.5589289058
 21
355.6869269026
  0
LINE
  8
1
  6
CONTINUOUS
 10
305.5589289058
 20
355.6869269026
 11
305.0953566456
 21
356.987834812
  0
LINE
  8
1
  6
CONTINUOUS
 10
305.0953566456
 20
356.987834812
 11
305.0864417944
 21
356.987834812
  0
LINE
  8
1
  6
CONTINUOUS
 10
305.0864417944
 20
355.6869269026
 11
304.8754569838
 21
355.6869269026
  0
LINE
  8
1
  6
CONTINUOUS
 10
304.8754569838
 20
355.6869269026
 11
304.8754569838
 21
357.4246625186
  0
LINE
  8
1
  6
CONTINUOUS
 10
304.8754569838
 20
357.4246625186
 11
305.1310160502
 21
357.4246625186
  0
LINE
  8
1
  6
CONTINUOUS
 10
305.1310160502
 20
357.4246625186
 11
305.5945883104
 21
356.1230942498
  0
LINE
  8
1
  6
CONTINUOUS
 10
305.5945883104
 20
356.1230942498
 11
305.5975599274
 21
356.1230942498
  0
LINE
  8
1
  6
CONTINUOUS
 10
305.5975599274
 20
356.1230942498
 11
305.5975599274
 21
357.4246625186
  0
LINE
  8
1
  6
CONTINUOUS
 10
305.5975599274
 20
357.4246625186
 11
305.8085447382
 21
357.4246625186
  0
ARC
  8
1
  6
CONTINUOUS
 10
348.3273208642
 20
320.21912206
 40
1.5
 50
0.0
 51
90.0
  0
LINE
  8
1
  6
CONTINUOUS
 10
349.8273208642
 20
312.21912206
 11
349.8273208642
 21
320.21912206
  0
ARC
  8
1
  6
CONTINUOUS
 10
348.3273208642
 20
312.21912206
 40
1.5
 50
270.0
 51
0.0
  0
LINE
  8
1
  6
CONTINUOUS
 10
340.3273208642
 20
310.71912206
 11
348.3273208642
 21
310.71912206
  0
ARC
  8
1
  6
CONTINUOUS
 10
340.3273208642
 20
312.21912206
 40
1.5
 50
180.0
 51
270.0
  0
LINE
  8
1
  6
CONTINUOUS
 10
338.8273208642
 20
320.21912206
 11
338.8273208642
 21
312.21912206
  0
ARC
  8
1
  6
CONTINUOUS
 10
340.3273208642
 20
320.21912206
 40
1.5
 50
90.0
 51
180.0
  0
LINE
  8
1
  6
CONTINUOUS
 10
348.3273208642
 20
321.71912206
 11
340.3273208642
 21
321.71912206
  0
LINE
  8
1
  6
CONTINUOUS
 10
347.8273208642
 20
321.21912206
 11
340.8273208642
 21
321.21912206
  0
ARC
  8
1
  6
CONTINUOUS
 10
340.8273208642
 20
320.7191220600001
 40
0.4999999999999432
 50
90.0
 51
180.0000000000065
  0
LINE
  8
1
  6
CONTINUOUS
 10
340.3273208642
 20
320.71912206
 11
340.3273208642
 21
319.71912206
  0
ARC
  8
1
  6
CONTINUOUS
 10
340.8273208642
 20
319.71912206
 40
0.4999999999999432
 50
179.9999999999935
 51
270.0
  0
LINE
  8
1
  6
CONTINUOUS
 10
340.8273208642
 20
319.21912206
 11
347.8273208642
 21
319.21912206
  0
ARC
  8
1
  6
CONTINUOUS
 10
347.8273208642001
 20
319.71912206
 40
0.4999999999999432
 50
270.0
 51
6.513775987638023E-012
  0
LINE
  8
1
  6
CONTINUOUS
 10
348.3273208642
 20
319.71912206
 11
348.3273208642
 21
320.71912206
  0
ARC
  8
1
  6
CONTINUOUS
 10
347.8273208642001
 20
320.7191220600001
 40
0.4999999999999432
 50
359.9999999999935
 51
90.0
  0
ARC
  8
1
  6
CONTINUOUS
 10
333.3273208642
 20
335.21912206
 40
1.5
 50
0.0
 51
90.0
  0
LINE
  8
1
  6
CONTINUOUS
 10
334.8273208642
 20
327.21912206
 11
334.8273208642
 21
335.21912206
  0
ARC
  8
1
  6
CONTINUOUS
 10
333.3273208642
 20
327.21912206
 40
1.5
 50
270.0
 51
0.0
  0
LINE
  8
1
  6
CONTINUOUS
 10
325.3273208642
 20
325.71912206
 11
333.3273208642
 21
325.71912206
  0
ARC
  8
1
  6
CONTINUOUS
 10
325.3273208642
 20
327.21912206
 40
1.5
 50
180.0
 51
270.0
  0
LINE
  8
1
  6
CONTINUOUS
 10
323.8273208642
 20
335.21912206
 11
323.8273208642
 21
327.21912206
  0
ARC
  8
1
  6
CONTINUOUS
 10
325.3273208642
 20
335.21912206
 40
1.5
 50
90.0
 51
180.0
  0
LINE
  8
1
  6
CONTINUOUS
 10
333.3273208642
 20
336.71912206
 11
325.3273208642
 21
336.71912206
  0
ARC
  8
1
  6
CONTINUOUS
 10
348.3273208642
 20
350.21912206
 40
1.5
 50
0.0
 51
90.0
  0
LINE
  8
1
  6
CONTINUOUS
 10
349.8273208642
 20
342.21912206
 11
349.8273208642
 21
350.21912206
  0
ARC
  8
1
  6
CONTINUOUS
 10
348.3273208642
 20
342.21912206
 40
1.5
 50
270.0
 51
0.0
  0
LINE
  8
1
  6
CONTINUOUS
 10
340.3273208642
 20
340.71912206
 11
348.3273208642
 21
340.71912206
  0
ARC
  8
1
  6
CONTINUOUS
 10
340.3273208642
 20
342.21912206
 40
1.5
 50
180.0
 51
270.0
  0
LINE
  8
1
  6
CONTINUOUS
 10
338.8273208642
 20
350.21912206
 11
338.8273208642
 21
342.21912206
  0
ARC
  8
1
  6
CONTINUOUS
 10
340.3273208642
 20
350.21912206
 40
1.5
 50
90.0
 51
180.0
  0
LINE
  8
1
  6
CONTINUOUS
 10
348.3273208642
 20
351.71912206
 11
340.3273208642
 21
351.71912206
  0
ARC
  8
1
  6
CONTINUOUS
 10
333.3273208642
 20
350.21912206
 40
1.5
 50
0.0
 51
90.0
  0
LINE
  8
1
  6
CONTINUOUS
 10
334.8273208642
 20
342.21912206
 11
334.8273208642
 21
350.21912206
  0
ARC
  8
1
  6
CONTINUOUS
 10
333.3273208642
 20
342.21912206
 40
1.5
 50
270.0
 51
0.0
  0
LINE
  8
1
  6
CONTINUOUS
 10
325.3273208642
 20
340.71912206
 11
333.3273208642
 21
340.71912206
  0
ARC
  8
1
  6
CONTINUOUS
 10
325.3273208642
 20
342.21912206
 40
1.5
 50
180.0
 51
270.0
  0
LINE
  8
1
  6
CONTINUOUS
 10
323.8273208642
 20
350.21912206
 11
323.8273208642
 21
342.21912206
  0
ARC
  8
1
  6
CONTINUOUS
 10
325.3273208642
 20
350.21912206
 40
1.5
 50
90.0
 51
180.0
  0
LINE
  8
1
  6
CONTINUOUS
 10
333.3273208642
 20
351.71912206
 11
325.3273208642
 21
351.71912206
  0
LINE
  8
1
  6
CONTINUOUS
 10
311.675026514
 20
355.396236719
 11
312.6200007366
 21
357.4733970382
  0
LINE
  8
1
  6
CONTINUOUS
 10
312.6200007366
 20
357.4733970382
 11
312.709149248
 21
357.4199079312
  0
LINE
  8
1
  6
CONTINUOUS
 10
312.709149248
 20
357.4199079312
 11
311.7641750256
 21
355.342747612
  0
LINE
  8
1
  6
CONTINUOUS
 10
311.7641750256
 20
355.342747612
 11
311.675026514
 21
355.396236719
  0
LINE
  8
1
  6
CONTINUOUS
 10
312.9141908246
 20
357.348589122
 11
313.787846238
 21
357.348589122
  0
LINE
  8
1
  6
CONTINUOUS
 10
313.787846238
 20
357.348589122
 11
313.787846238
 21
357.17920695
  0
LINE
  8
1
  6
CONTINUOUS
 10
313.787846238
 20
357.17920695
 11
313.0657432944
 21
355.7795753186
  0
LINE
  8
1
  6
CONTINUOUS
 10
313.0657432944
 20
355.7795753186
 11
313.8145907914
 21
355.7795753186
  0
LINE
  8
1
  6
CONTINUOUS
 10
313.8145907914
 20
355.7795753186
 11
313.8145907914
 21
355.610853506
  0
LINE
  8
1
  6
CONTINUOUS
 10
313.8145907914
 20
355.610853506
 11
312.8607017178
 21
355.610853506
  0
LINE
  8
1
  6
CONTINUOUS
 10
312.8607017178
 20
355.610853506
 11
312.8607017178
 21
355.7795753186
  0
LINE
  8
1
  6
CONTINUOUS
 10
312.8607017178
 20
355.7795753186
 11
313.5828046614
 21
357.1798673094
  0
LINE
  8
1
  6
CONTINUOUS
 10
313.5828046614
 20
357.1798673094
 11
312.9141908246
 21
357.1798673094
  0
LINE
  8
1
  6
CONTINUOUS
 10
312.9141908246
 20
357.1798673094
 11
312.9141908246
 21
357.348589122
  0
LINE
  8
1
  6
CONTINUOUS
 10
318.0549697354
 20
357.4246625186
 11
318.2659545462
 21
357.4246625186
  0
LINE
  8
1
  6
CONTINUOUS
 10
318.2659545462
 20
357.4246625186
 11
318.2659545462
 21
355.8556487152
  0
LINE
  8
1
  6
CONTINUOUS
 10
318.2659545462
 20
355.8556487152
 11
318.9880574898
 21
355.8556487152
  0
LINE
  8
1
  6
CONTINUOUS
 10
318.9880574898
 20
355.8556487152
 11
318.9880574898
 21
355.6869269026
  0
LINE
  8
1
  6
CONTINUOUS
 10
318.9880574898
 20
355.6869269026
 11
318.0549697354
 21
355.6869269026
  0
LINE
  8
1
  6
CONTINUOUS
 10
318.0549697354
 20
355.6869269026
 11
318.0549697354
 21
357.4246625186
  0
POLYLINE
  8
1
  6
CONTINUOUS
 66
     1
 70
     0
 40
0.0
 41
0.0
  0
VERTEX
  8
1
 10
319.3624812382
 20
356.5599219564
  0
VERTEX
  8
1
 10
319.3832843516
 20
356.1992504576
  0
VERTEX
  8
1
 10
319.4128179654
 20
356.0604373700001
  0
VERTEX
  8
1
 10
319.4783743034
 20
355.9358823756
  0
SEQEND
  8
1
  0
POLYLINE
  8
1
  6
CONTINUOUS
 66
     1
 70
     0
 40
0.0
 41
0.0
  0
VERTEX
  8
1
 10
319.4783743034
 20
355.9358823756
  0
VERTEX
  8
1
 10
319.570512252
 20
355.8726194602
  0
VERTEX
  8
1
 10
319.6566713264
 20
355.8556487152
  0
SEQEND
  8
1
  0
POLYLINE
  8
1
  6
CONTINUOUS
 66
     1
 70
     0
 40
0.0
 41
0.0
  0
VERTEX
  8
1
 10
319.6566713264
 20
355.8556487152
  0
VERTEX
  8
1
 10
319.7594580274
 20
355.8840754268
  0
VERTEX
  8
1
 10
319.8260534984
 20
355.9358823756
  0
SEQEND
  8
1
  0
POLYLINE
  8
1
  6
CONTINUOUS
 66
     1
 70
     0
 40
0.0
 41
0.0
  0
VERTEX
  8
1
 10
319.8260534984
 20
355.9358823756
  0
VERTEX
  8
1
 10
319.9018707548
 20
356.0977882384
  0
VERTEX
  8
1
 10
319.9303094836
 20
356.2761794932
  0
VERTEX
  8
1
 10
319.9419465634
 20
356.5599219564
  0
SEQEND
  8
1
  0
POLYLINE
  8
1
  6
CONTINUOUS
 66
     1
 70
     0
 40
0.0
 41
0.0
  0
VERTEX
  8
1
 10
319.9419465634
 20
356.5599219564
  0
VERTEX
  8
1
 10
319.921013911
 20
356.9156755962
  0
VERTEX
  8
1
 10
319.8912223836
 20
357.0524573118
  0
VERTEX
  8
1
 10
319.8260534984
 20
357.1750466862
  0
SEQEND
  8
1
  0
POLYLINE
  8
1
  6
CONTINUOUS
 66
     1
 70
     0
 40
0.0
 41
0.0
  0
VERTEX
  8
1
 10
319.8260534984
 20
357.1750466862
  0
VERTEX
  8
1
 10
319.7388117978
 20
357.237327092
  0
VERTEX
  8
1
 10
319.6566713264
 20
357.2552803466
  0
SEQEND
  8
1
  0
POLYLINE
  8
1
  6
CONTINUOUS
 66
     1
 70
     0
 40
0.0
 41
0.0
  0
VERTEX
  8
1
 10
319.6566713264
 20
357.2552803466
  0
VERTEX
  8
1
 10
319.5486875972
 20
357.2280727306
  0
VERTEX
  8
1
 10
319.4783743034
 20
357.1750466862
  0
SEQEND
  8
1
  0
POLYLINE
  8
1
  6
CONTINUOUS
 66
     1
 70
     0
 40
0.0
 41
0.0
  0
VERTEX
  8
1
 10
319.4783743034
 20
357.1750466862
  0
VERTEX
  8
1
 10
319.4028042878
 20
357.0156882394
  0
VERTEX
  8
1
 10
319.3741979238
 20
356.8398089744
  0
VERTEX
  8
1
 10
319.3624812382
 20
356.5599219564
  0
SEQEND
  8
1
  0
POLYLINE
  8
1
  6
CONTINUOUS
 66
     1
 70
     0
 40
0.0
 41
0.0
  0
VERTEX
  8
1
 10
319.9508614146
 20
357.3087694536
  0
VERTEX
  8
1
 10
320.0666267206
 20
357.121442798
  0
VERTEX
  8
1
 10
320.1222242142
 20
356.9071573286
  0
VERTEX
  8
1
 10
320.14698814
 20
356.5599219564
  0
SEQEND
  8
1
  0
POLYLINE
  8
1
  6
CONTINUOUS
 66
     1
 70
     0
 40
0.0
 41
0.0
  0
VERTEX
  8
1
 10
320.14698814
 20
356.5599219564
  0
VERTEX
  8
1
 10
320.1041235126
 20
356.114537072
  0
VERTEX
  8
1
 10
320.0485826052
 20
355.9476629252
  0
VERTEX
  8
1
 10
319.9508614146
 20
355.8021596082
  0
SEQEND
  8
1
  0
POLYLINE
  8
1
  6
CONTINUOUS
 66
     1
 70
     0
 40
0.0
 41
0.0
  0
VERTEX
  8
1
 10
319.9508614146
 20
355.8021596082
  0
VERTEX
  8
1
 10
319.7974088304
 20
355.7078301722
  0
VERTEX
  8
1
 10
319.6566713264
 20
355.6869269026
  0
SEQEND
  8
1
  0
POLYLINE
  8
1
  6
CONTINUOUS
 66
     1
 70
     0
 40
0.0
 41
0.0
  0
VERTEX
  8
1
 10
319.6566713264
 20
355.6869269026
  0
VERTEX
  8
1
 10
319.4744439094
 20
355.720809961
  0
VERTEX
  8
1
 10
319.3535663872
 20
355.8021596082
  0
SEQEND
  8
1
  0
POLYLINE
  8
1
  6
CONTINUOUS
 66
     1
 70
     0
 40
0.0
 41
0.0
  0
VERTEX
  8
1
 10
319.3535663872
 20
355.8021596082
  0
VERTEX
  8
1
 10
319.2372848024
 20
355.9919692224
  0
VERTEX
  8
1
 10
319.1820111048
 20
356.2088604772
  0
VERTEX
  8
1
 10
319.1574396618
 20
356.5599219564
  0
SEQEND
  8
1
  0
POLYLINE
  8
1
  6
CONTINUOUS
 66
     1
 70
     0
 40
0.0
 41
0.0
  0
VERTEX
  8
1
 10
319.1574396618
 20
356.5599219564
  0
VERTEX
  8
1
 10
319.2008226276
 20
357.0003335946
  0
VERTEX
  8
1
 10
319.2564185232
 20
357.1651754842
  0
VERTEX
  8
1
 10
319.3535663872
 20
357.3087694536
  0
SEQEND
  8
1
  0
POLYLINE
  8
1
  6
CONTINUOUS
 66
     1
 70
     0
 40
0.0
 41
0.0
  0
VERTEX
  8
1
 10
319.3535663872
 20
357.3087694536
  0
VERTEX
  8
1
 10
319.5119269766
 20
357.404278763
  0
VERTEX
  8
1
 10
319.6566713264
 20
357.4246625186
  0
SEQEND
  8
1
  0
POLYLINE
  8
1
  6
CONTINUOUS
 66
     1
 70
     0
 40
0.0
 41
0.0
  0
VERTEX
  8
1
 10
319.6566713264
 20
357.4246625186
  0
VERTEX
  8
1
 10
319.8338720896
 20
357.3895569012
  0
VERTEX
  8
1
 10
319.9508614146
 20
357.3087694536
  0
SEQEND
  8
1
  0
LINE
  8
1
  6
CONTINUOUS
 10
321.469357728
 20
355.6869269026
 11
321.469357728
 21
357.4246625186
  0
LINE
  8
1
  6
CONTINUOUS
 10
321.469357728
 20
357.4246625186
 11
321.6803425388
 21
357.4246625186
  0
LINE
  8
1
  6
CONTINUOUS
 10
321.6803425388
 20
356.6936447238
 11
322.1884890546
 21
357.4246625186
  0
LINE
  8
1
  6
CONTINUOUS
 10
322.1884890546
 20
357.4246625186
 11
322.4291900358
 21
357.4246625186
  0
LINE
  8
1
  6
CONTINUOUS
 10
322.4291900358
 20
357.4246625186
 11
321.9567029246
 21
356.7382189796
  0
LINE
  8
1
  6
CONTINUOUS
 10
321.9567029246
 20
356.7382189796
 11
322.4648494404
 21
355.6869269026
  0
LINE
  8
1
  6
CONTINUOUS
 10
322.4648494404
 20
355.6869269026
 11
322.2330633104
 21
355.6869269026
  0
LINE
  8
1
  6
CONTINUOUS
 10
322.2330633104
 20
355.6869269026
 11
321.8229801572
 21
356.5688368076
  0
LINE
  8
1
  6
CONTINUOUS
 10
321.8229801572
 20
356.5688368076
 11
321.6803425388
 21
356.3727100822
  0
LINE
  8
1
  6
CONTINUOUS
 10
321.6803425388
 20
356.3727100822
 11
321.6803425388
 21
355.6869269026
  0
LINE
  8
1
  6
CONTINUOUS
 10
321.6803425388
 20
355.6869269026
 11
321.469357728
 21
355.6869269026
  0
LINE
  8
1
  6
CONTINUOUS
 10
321.6803425388
 20
357.4246625186
 11
321.6803425388
 21
356.6936447238
  0
LINE
  8
1
  6
CONTINUOUS
 10
325.9581929844
 20
355.610853506
 11
325.9581929844
 21
357.348589122
  0
LINE
  8
1
  6
CONTINUOUS
 10
325.9581929844
 20
357.348589122
 11
326.169177795
 21
357.348589122
  0
LINE
  8
1
  6
CONTINUOUS
 10
326.169177795
 20
357.348589122
 11
326.169177795
 21
356.6532307318
  0
LINE
  8
1
  6
CONTINUOUS
 10
326.169177795
 20
356.6532307318
 11
326.6713810768
 21
356.6532307318
  0
LINE
  8
1
  6
CONTINUOUS
 10
326.6713810768
 20
356.6532307318
 11
326.6713810768
 21
357.348589122
  0
LINE
  8
1
  6
CONTINUOUS
 10
326.6713810768
 20
357.348589122
 11
326.8823658874
 21
357.348589122
  0
LINE
  8
1
  6
CONTINUOUS
 10
326.8823658874
 20
357.348589122
 11
326.8823658874
 21
355.610853506
  0
LINE
  8
1
  6
CONTINUOUS
 10
326.8823658874
 20
355.610853506
 11
326.6713810768
 21
355.610853506
  0
LINE
  8
1
  6
CONTINUOUS
 10
326.6713810768
 20
355.610853506
 11
326.6713810768
 21
356.4845089192
  0
LINE
  8
1
  6
CONTINUOUS
 10
326.6713810768
 20
356.4845089192
 11
326.169177795
 21
356.4845089192
  0
LINE
  8
1
  6
CONTINUOUS
 10
326.169177795
 20
356.4845089192
 11
326.169177795
 21
355.610853506
  0
LINE
  8
1
  6
CONTINUOUS
 10
326.169177795
 20
355.610853506
 11
325.9581929844
 21
355.610853506
  0
POLYLINE
  8
1
  6
CONTINUOUS
 66
     1
 70
     0
 40
0.0
 41
0.0
  0
VERTEX
  8
1
 10
327.2746193382
 20
356.48384856
  0
VERTEX
  8
1
 10
327.2954224516
 20
356.123177061
  0
VERTEX
  8
1
 10
327.3249560654
 20
355.9843639736
  0
VERTEX
  8
1
 10
327.3905124034
 20
355.859808979
  0
SEQEND
  8
1
  0
POLYLINE
  8
1
  6
CONTINUOUS
 66
     1
 70
     0
 40
0.0
 41
0.0
  0
VERTEX
  8
1
 10
327.3905124034
 20
355.859808979
  0
VERTEX
  8
1
 10
327.482650352
 20
355.7965460636
  0
VERTEX
  8
1
 10
327.5688094264
 20
355.7795753186
  0
SEQEND
  8
1
  0
POLYLINE
  8
1
  6
CONTINUOUS
 66
     1
 70
     0
 40
0.0
 41
0.0
  0
VERTEX
  8
1
 10
327.5688094264
 20
355.7795753186
  0
VERTEX
  8
1
 10
327.6715961274
 20
355.8080020302
  0
VERTEX
  8
1
 10
327.7381915984
 20
355.859808979
  0
SEQEND
  8
1
  0
POLYLINE
  8
1
  6
CONTINUOUS
 66
     1
 70
     0
 40
0.0
 41
0.0
  0
VERTEX
  8
1
 10
327.7381915984
 20
355.859808979
  0
VERTEX
  8
1
 10
327.8140088548
 20
356.0217148418
  0
VERTEX
  8
1
 10
327.8424475836
 20
356.2001060968
  0
VERTEX
  8
1
 10
327.8540846634
 20
356.48384856
  0
SEQEND
  8
1
  0
POLYLINE
  8
1
  6
CONTINUOUS
 66
     1
 70
     0
 40
0.0
 41
0.0
  0
VERTEX
  8
1
 10
327.8540846634
 20
356.48384856
  0
VERTEX
  8
1
 10
327.833152011
 20
356.8396021998
  0
VERTEX
  8
1
 10
327.8033604836
 20
356.9763839152
  0
VERTEX
  8
1
 10
327.7381915984
 20
357.0989732896
  0
SEQEND
  8
1
  0
POLYLINE
  8
1
  6
CONTINUOUS
 66
     1
 70
     0
 40
0.0
 41
0.0
  0
VERTEX
  8
1
 10
327.7381915984
 20
357.0989732896
  0
VERTEX
  8
1
 10
327.6509498978
 20
357.1612536956
  0
VERTEX
  8
1
 10
327.5688094264
 20
357.17920695
  0
SEQEND
  8
1
  0
POLYLINE
  8
1
  6
CONTINUOUS
 66
     1
 70
     0
 40
0.0
 41
0.0
  0
VERTEX
  8
1
 10
327.5688094264
 20
357.17920695
  0
VERTEX
  8
1
 10
327.4608256972
 20
357.151999334
  0
VERTEX
  8
1
 10
327.3905124034
 20
357.0989732896
  0
SEQEND
  8
1
  0
POLYLINE
  8
1
  6
CONTINUOUS
 66
     1
 70
     0
 40
0.0
 41
0.0
  0
VERTEX
  8
1
 10
327.3905124034
 20
357.0989732896
  0
VERTEX
  8
1
 10
327.3149423878
 20
356.9396148428
  0
VERTEX
  8
1
 10
327.2863360238
 20
356.7637355778
  0
VERTEX
  8
1
 10
327.2746193382
 20
356.48384856
  0
SEQEND
  8
1
  0
POLYLINE
  8
1
  6
CONTINUOUS
 66
     1
 70
     0
 40
0.0
 41
0.0
  0
VERTEX
  8
1
 10
327.8629995146
 20
357.232696057
  0
VERTEX
  8
1
 10
327.9787648206
 20
357.0453694016
  0
VERTEX
  8
1
 10
328.0343623142
 20
356.831083932
  0
VERTEX
  8
1
 10
328.05912624
 20
356.48384856
  0
SEQEND
  8
1
  0
POLYLINE
  8
1
  6
CONTINUOUS
 66
     1
 70
     0
 40
0.0
 41
0.0
  0
VERTEX
  8
1
 10
328.05912624
 20
356.48384856
  0
VERTEX
  8
1
 10
328.0162616126
 20
356.0384636754
  0
VERTEX
  8
1
 10
327.9607207052
 20
355.8715895288
  0
VERTEX
  8
1
 10
327.8629995146
 20
355.7260862118
  0
SEQEND
  8
1
  0
POLYLINE
  8
1
  6
CONTINUOUS
 66
     1
 70
     0
 40
0.0
 41
0.0
  0
VERTEX
  8
1
 10
327.8629995146
 20
355.7260862118
  0
VERTEX
  8
1
 10
327.7095469302
 20
355.6317567756
  0
VERTEX
  8
1
 10
327.5688094264
 20
355.610853506
  0
SEQEND
  8
1
  0
POLYLINE
  8
1
  6
CONTINUOUS
 66
     1
 70
     0
 40
0.0
 41
0.0
  0
VERTEX
  8
1
 10
327.5688094264
 20
355.610853506
  0
VERTEX
  8
1
 10
327.3865820094
 20
355.6447365646
  0
VERTEX
  8
1
 10
327.2657044872
 20
355.7260862118
  0
SEQEND
  8
1
  0
POLYLINE
  8
1
  6
CONTINUOUS
 66
     1
 70
     0
 40
0.0
 41
0.0
  0
VERTEX
  8
1
 10
327.2657044872
 20
355.7260862118
  0
VERTEX
  8
1
 10
327.1494229024
 20
355.9158958258
  0
VERTEX
  8
1
 10
327.0941492048
 20
356.1327870806
  0
VERTEX
  8
1
 10
327.0695777618
 20
356.48384856
  0
SEQEND
  8
1
  0
POLYLINE
  8
1
  6
CONTINUOUS
 66
     1
 70
     0
 40
0.0
 41
0.0
  0
VERTEX
  8
1
 10
327.0695777618
 20
356.48384856
  0
VERTEX
  8
1
 10
327.1129607276
 20
356.924260198
  0
VERTEX
  8
1
 10
327.1685566232
 20
357.0891020876
  0
VERTEX
  8
1
 10
327.2657044872
 20
357.232696057
  0
SEQEND
  8
1
  0
POLYLINE
  8
1
  6
CONTINUOUS
 66
     1
 70
     0
 40
0.0
 41
0.0
  0
VERTEX
  8
1
 10
327.2657044872
 20
357.232696057
  0
VERTEX
  8
1
 10
327.4240650766
 20
357.3282053666
  0
VERTEX
  8
1
 10
327.5688094264
 20
357.348589122
  0
SEQEND
  8
1
  0
POLYLINE
  8
1
  6
CONTINUOUS
 66
     1
 70
     0
 40
0.0
 41
0.0
  0
VERTEX
  8
1
 10
327.5688094264
 20
357.348589122
  0
VERTEX
  8
1
 10
327.7460101896
 20
357.3134835048
  0
VERTEX
  8
1
 10
327.8629995146
 20
357.232696057
  0
SEQEND
  8
1
  0
LINE
  8
1
  6
CONTINUOUS
 10
303.743270887
 20
357.4246625186
 11
303.9542556978
 21
357.4246625186
  0
LINE
  8
1
  6
CONTINUOUS
 10
303.9542556978
 20
357.4246625186
 11
303.9542556978
 21
356.1498388034
  0
POLYLINE
  8
1
  6
CONTINUOUS
 66
     1
 70
     0
 40
0.0
 41
0.0
  0
VERTEX
  8
1
 10
303.9542556978
 20
356.1498388034
  0
VERTEX
  8
1
 10
303.9695310908
 20
356.0281487752
  0
VERTEX
  8
1
 10
304.0166596558
 20
355.9447972268
  0
SEQEND
  8
1
  0
POLYLINE
  8
1
  6
CONTINUOUS
 66
     1
 70
     0
 40
0.0
 41
0.0
  0
VERTEX
  8
1
 10
304.0166596558
 20
355.9447972268
  0
VERTEX
  8
1
 10
304.1154856236
 20
355.8921163142
  0
VERTEX
  8
1
 10
304.20387153
 20
355.8823932686
  0
SEQEND
  8
1
  0
LINE
  8
1
  6
CONTINUOUS
 10
304.20387153
 20
355.8823932686
 11
304.2127863812
 21
355.8823932686
  0
POLYLINE
  8
1
  6
CONTINUOUS
 66
     1
 70
     0
 40
0.0
 41
0.0
  0
VERTEX
  8
1
 10
304.2127863812
 20
355.8823932686
  0
VERTEX
  8
1
 10
304.3195243682
 20
355.8993979604
  0
VERTEX
  8
1
 10
304.3910834044
 20
355.9447972268
  0
SEQEND
  8
1
  0
POLYLINE
  8
1
  6
CONTINUOUS
 66
     1
 70
     0
 40
0.0
 41
0.0
  0
VERTEX
  8
1
 10
304.3910834044
 20
355.9447972268
  0
VERTEX
  8
1
 10
304.4461608588
 20
356.0536829752
  0
VERTEX
  8
1
 10
304.4564589794
 20
356.1498388034
  0
SEQEND
  8
1
  0
LINE
  8
1
  6
CONTINUOUS
 10
304.4564589794
 20
356.1498388034
 11
304.4564589794
 21
357.4246625186
  0
POLYLINE
  8
1
  6
CONTINUOUS
 66
     1
 70
     0
 40
0.0
 41
0.0
  0
VERTEX
  8
1
 10
304.6674437902
 20
356.1498388034
  0
VERTEX
  8
1
 10
304.6295108942
 20
355.9305033886
  0
VERTEX
  8
1
 10
304.5337210228
 20
355.784329906
  0
SEQEND
  8
1
  0
LINE
  8
1
  6
CONTINUOUS
 10
304.2127863812
 20
355.6869269026
 11
304.20387153
 21
355.6869269026
  0
POLYLINE
  8
1
  6
CONTINUOUS
 66
     1
 70
     0
 40
0.0
 41
0.0
  0
VERTEX
  8
1
 10
304.20387153
 20
355.6869269026
  0
VERTEX
  8
1
 10
304.0135480968
 20
355.7110032946
  0
VERTEX
  8
1
 10
303.8829368884
 20
355.784329906
  0
SEQEND
  8
1
  0
POLYLINE
  8
1
  6
CONTINUOUS
 66
     1
 70
     0
 40
0.0
 41
0.0
  0
VERTEX
  8
1
 10
303.8829368884
 20
355.784329906
  0
VERTEX
  8
1
 10
303.7670405984
 20
355.9748982358
  0
VERTEX
  8
1
 10
303.743270887
 20
356.1498388034
  0
SEQEND
  8
1
  0
LINE
  8
1
  6
CONTINUOUS
 10
303.743270887
 20
356.1498388034
 11
303.743270887
 21
357.4246625186
  0
LINE
  8
1
  6
CONTINUOUS
 10
304.4564589794
 20
357.4246625186
 11
304.6674437902
 21
357.4246625186
  0
LINE
  8
1
  6
CONTINUOUS
 10
304.6674437902
 20
357.4246625186
 11
304.6674437902
 21
356.1498388034
  0
POLYLINE
  8
1
  6
CONTINUOUS
 66
     1
 70
     0
 40
0.0
 41
0.0
  0
VERTEX
  8
1
 10
304.5337210228
 20
355.784329906
  0
VERTEX
  8
1
 10
304.4546025008
 20
355.7302299704
  0
VERTEX
  8
1
 10
304.3631863644
 20
355.700640199
  0
VERTEX
  8
1
 10
304.2127863812
 20
355.6869269026
  0
SEQEND
  8
1
  0
LINE
  8
1
  6
CONTINUOUS
 10
310.9707532728
 20
357.348589122
 11
311.1490502958
 21
357.348589122
  0
LINE
  8
1
  6
CONTINUOUS
 10
311.1490502958
 20
357.348589122
 11
311.5947928536
 21
355.610853506
  0
LINE
  8
1
  6
CONTINUOUS
 10
311.5947928536
 20
355.610853506
 11
311.3808364258
 21
355.610853506
  0
LINE
  8
1
  6
CONTINUOUS
 10
311.3808364258
 20
355.610853506
 11
311.2560285098
 21
356.1190000218
  0
LINE
  8
1
  6
CONTINUOUS
 10
310.9083493146
 20
356.2877218346
 11
311.2114542540001
 21
356.2877218346
  0
LINE
  8
1
  6
CONTINUOUS
 10
311.0509869332
 20
356.8761020108
 11
310.9083493146
 21
356.2877218346
  0
LINE
  8
1
  6
CONTINUOUS
 10
311.0688166354
 20
356.8761020108
 11
311.0509869332
 21
356.8761020108
  0
LINE
  8
1
  6
CONTINUOUS
 10
311.2114542540001
 20
356.2877218346
 11
311.0688166354
 21
356.8761020108
  0
LINE
  8
1
  6
CONTINUOUS
 10
310.7389671426
 20
355.610853506
 11
310.525010715
 21
355.610853506
  0
LINE
  8
1
  6
CONTINUOUS
 10
310.525010715
 20
355.610853506
 11
310.9707532728
 21
357.348589122
  0
LINE
  8
1
  6
CONTINUOUS
 10
311.2560285098
 20
356.1190000218
 11
310.8637750588
 21
356.1190000218
  0
LINE
  8
1
  6
CONTINUOUS
 10
310.8637750588
 20
356.1190000218
 11
310.7389671426
 21
355.610853506
  0
LINE
  8
1
  6
CONTINUOUS
 10
303.8773208642
 20
389.7757820328
 11
303.5773208642
 21
389.7757820328
  0
LINE
  8
1
  6
CONTINUOUS
 10
303.8773208642
 20
389.2757820328
 11
303.8773208642
 21
389.7757820328
  0
LINE
  8
1
  6
CONTINUOUS
 10
302.4773208642
 20
389.2757820328
 11
303.8773208642
 21
389.2757820328
  0
LINE
  8
1
  6
CONTINUOUS
 10
302.4773208642
 20
389.7757820328
 11
302.4773208642
 21
389.2757820328
  0
LINE
  8
1
  6
CONTINUOUS
 10
302.7773208642
 20
389.7757820328
 11
302.4773208642
 21
389.7757820328
  0
LINE
  8
1
  6
CONTINUOUS
 10
300.7773208642
 20
391.7757820328
 11
302.7773208642
 21
389.7757820328
  0
LINE
  8
1
  6
CONTINUOUS
 10
300.7773208642
 20
389.7757820328
 11
300.7773208642
 21
391.7757820328
  0
LINE
  8
1
  6
CONTINUOUS
 10
301.0773208642
 20
389.7757820328
 11
300.7773208642
 21
389.7757820328
  0
LINE
  8
1
  6
CONTINUOUS
 10
301.0773208642
 20
389.2757820328
 11
301.0773208642
 21
389.7757820328
  0
LINE
  8
1
  6
CONTINUOUS
 10
299.6773208642
 20
389.2757820328
 11
301.0773208642
 21
389.2757820328
  0
LINE
  8
1
  6
CONTINUOUS
 10
299.6773208642
 20
389.7757820328
 11
299.6773208642
 21
389.2757820328
  0
LINE
  8
1
  6
CONTINUOUS
 10
299.9773208642
 20
389.7757820328
 11
299.6773208642
 21
389.7757820328
  0
LINE
  8
1
  6
CONTINUOUS
 10
299.9773208642
 20
391.7757820328
 11
299.9773208642
 21
389.7757820328
  0
LINE
  8
1
  6
CONTINUOUS
 10
299.6773208642
 20
391.7757820328
 11
299.9773208642
 21
391.7757820328
  0
LINE
  8
1
  6
CONTINUOUS
 10
299.6773208642
 20
392.2757820328
 11
299.6773208642
 21
391.7757820328
  0
LINE
  8
1
  6
CONTINUOUS
 10
301.0773208642
 20
392.2757820328
 11
299.6773208642
 21
392.2757820328
  0
LINE
  8
1
  6
CONTINUOUS
 10
302.7773208642
 20
390.5757820328
 11
301.0773208642
 21
392.2757820328
  0
LINE
  8
1
  6
CONTINUOUS
 10
302.7773208642
 20
391.7757820328
 11
302.7773208642
 21
390.5757820328
  0
LINE
  8
1
  6
CONTINUOUS
 10
302.4773208642
 20
392.2757820328
 11
302.4773208642
 21
391.7757820328
  0
LINE
  8
1
  6
CONTINUOUS
 10
303.8773208642
 20
392.2757820328
 11
302.4773208642
 21
392.2757820328
  0
LINE
  8
1
  6
CONTINUOUS
 10
303.8773208642
 20
391.7757820328
 11
303.8773208642
 21
392.2757820328
  0
LINE
  8
1
  6
CONTINUOUS
 10
303.5773208642
 20
391.7757820328
 11
303.8773208642
 21
391.7757820328
  0
LINE
  8
1
  6
CONTINUOUS
 10
303.5773208642
 20
389.7757820328
 11
303.5773208642
 21
391.7757820328
  0
LINE
  8
1
  6
CONTINUOUS
 10
302.4773208642
 20
391.7757820328
 11
302.7773208642
 21
391.7757820328
  0
LINE
  8
1
  6
CONTINUOUS
 10
310.0773208642
 20
391.7757820328
 11
310.0773208642
 21
391.0257820328
  0
LINE
  8
1
  6
CONTINUOUS
 10
310.0773208642
 20
391.0257820328
 11
312.1023208642
 21
391.0257820328
  0
ARC
  8
1
  6
CONTINUOUS
 10
312.1023208642
 20
391.4007820328
 40
0.375
 50
270.0
 51
90.0
  0
LINE
  8
1
  6
CONTINUOUS
 10
312.1023208642
 20
391.7757820328
 11
310.0773208642
 21
391.7757820328
  0
LINE
  8
1
  6
CONTINUOUS
 10
309.2773208642
 20
389.7757820328
 11
308.9773208642
 21
389.7757820328
  0
LINE
  8
1
  6
CONTINUOUS
 10
309.2773208642
 20
391.7757820328
 11
309.2773208642
 21
389.7757820328
  0
LINE
  8
1
  6
CONTINUOUS
 10
308.9773208642
 20
391.7757820328
 11
309.2773208642
 21
391.7757820328
  0
LINE
  8
1
  6
CONTINUOUS
 10
308.9773208642
 20
392.2757820328
 11
308.9773208642
 21
391.7757820328
  0
LINE
  8
1
  6
CONTINUOUS
 10
312.3023208642
 20
392.2757820328
 11
308.9773208642
 21
392.2757820328
  0
ARC
  8
1
  6
CONTINUOUS
 10
312.3023208642001
 20
391.4007820328
 40
0.8749999999999757
 50
314.4153085971967
 51
90.0
  0
ARC
  8
1
  6
CONTINUOUS
 10
312.3023208642001
 20
390.1507820328
 40
0.875
 50
270.0
 51
45.58469140280334
  0
LINE
  8
1
  6
CONTINUOUS
 10
308.9773208642
 20
389.2757820328
 11
312.3023208642
 21
389.2757820328
  0
LINE
  8
1
  6
CONTINUOUS
 10
308.9773208642
 20
389.7757820328
 11
308.9773208642
 21
389.2757820328
  0
LINE
  8
1
  6
CONTINUOUS
 10
312.1023208642
 20
390.5257820328
 11
310.0773208642
 21
390.5257820328
  0
LINE
  8
1
  6
CONTINUOUS
 10
310.0773208642
 20
390.5257820328
 11
310.0773208642
 21
389.7757820328
  0
LINE
  8
1
  6
CONTINUOUS
 10
310.0773208642
 20
389.7757820328
 11
312.1023208642
 21
389.7757820328
  0
ARC
  8
1
  6
CONTINUOUS
 10
312.1023208642
 20
390.1507820328
 40
0.375
 50
270.0
 51
90.0
  0
LINE
  8
1
  6
CONTINUOUS
 10
335.268150619
 20
355.610853506
 11
335.268150619
 21
356.4845089192
  0
LINE
  8
1
  6
CONTINUOUS
 10
335.268150619
 20
356.4845089192
 11
334.7659473372
 21
356.4845089192
  0
LINE
  8
1
  6
CONTINUOUS
 10
334.7659473372
 20
356.4845089192
 11
334.7659473372
 21
355.610853506
  0
LINE
  8
1
  6
CONTINUOUS
 10
334.7659473372
 20
355.610853506
 11
334.5549625264
 21
355.610853506
  0
LINE
  8
1
  6
CONTINUOUS
 10
334.5549625264
 20
355.610853506
 11
334.5549625264
 21
357.348589122
  0
LINE
  8
1
  6
CONTINUOUS
 10
334.7659473372
 20
357.348589122
 11
334.7659473372
 21
356.6532307318
  0
LINE
  8
1
  6
CONTINUOUS
 10
334.7659473372
 20
356.6532307318
 11
335.268150619
 21
356.6532307318
  0
LINE
  8
1
  6
CONTINUOUS
 10
334.5549625264
 20
357.348589122
 11
334.7659473372
 21
357.348589122
  0
LINE
  8
1
  6
CONTINUOUS
 10
335.268150619
 20
356.6532307318
 11
335.268150619
 21
357.348589122
  0
LINE
  8
1
  6
CONTINUOUS
 10
335.268150619
 20
357.348589122
 11
335.4791354296
 21
357.348589122
  0
LINE
  8
1
  6
CONTINUOUS
 10
335.4791354296
 20
357.348589122
 11
335.4791354296
 21
355.610853506
  0
LINE
  8
1
  6
CONTINUOUS
 10
335.4791354296
 20
355.610853506
 11
335.268150619
 21
355.610853506
  0
LINE
  8
1
  6
CONTINUOUS
 10
336.5400027172
 20
356.4488495146
 11
335.9337928386
 21
356.4488495146
  0
LINE
  8
1
  6
CONTINUOUS
 10
335.9337928386
 20
356.4488495146
 11
335.9337928386
 21
355.7795753186
  0
LINE
  8
1
  6
CONTINUOUS
 10
335.9337928386
 20
355.7795753186
 11
336.6380660798
 21
355.7795753186
  0
LINE
  8
1
  6
CONTINUOUS
 10
336.6380660798
 20
355.7795753186
 11
336.6380660798
 21
355.610853506
  0
LINE
  8
1
  6
CONTINUOUS
 10
336.6380660798
 20
355.610853506
 11
335.7228080278
 21
355.610853506
  0
LINE
  8
1
  6
CONTINUOUS
 10
335.7228080278
 20
355.610853506
 11
335.7228080278
 21
357.348589122
  0
LINE
  8
1
  6
CONTINUOUS
 10
335.7228080278
 20
357.348589122
 11
336.593491824
 21
357.348589122
  0
LINE
  8
1
  6
CONTINUOUS
 10
336.593491824
 20
357.348589122
 11
336.593491824
 21
357.1798673094
  0
LINE
  8
1
  6
CONTINUOUS
 10
336.593491824
 20
357.1798673094
 11
335.9337928386
 21
357.1798673094
  0
LINE
  8
1
  6
CONTINUOUS
 10
335.9337928386
 20
357.1798673094
 11
335.9337928386
 21
356.6175713272
  0
LINE
  8
1
  6
CONTINUOUS
 10
335.9337928386
 20
356.6175713272
 11
336.5400027172
 21
356.6175713272
  0
LINE
  8
1
  6
CONTINUOUS
 10
336.5400027172
 20
356.6175713272
 11
336.5400027172
 21
356.4488495146
  0
POLYLINE
  8
1
  6
CONTINUOUS
 66
     1
 70
     0
 40
0.0
 41
0.0
  0
VERTEX
  8
1
 10
337.166925494
 20
391.4012404046
  0
VERTEX
  8
1
 10
337.0380174084
 20
391.1953610638
  0
VERTEX
  8
1
 10
336.9751216348
 20
390.959471761
  0
VERTEX
  8
1
 10
336.9470258322
 20
390.5766166728
  0
SEQEND
  8
1
  0
POLYLINE
  8
1
  6
CONTINUOUS
 66
     1
 70
     0
 40
0.0
 41
0.0
  0
VERTEX
  8
1
 10
336.9470258322
 20
390.5766166728
  0
VERTEX
  8
1
 10
336.988249458
 20
390.1563131882
  0
VERTEX
  8
1
 10
337.041301095
 20
389.999015145
  0
VERTEX
  8
1
 10
337.1339405448
 20
389.8619427718
  0
SEQEND
  8
1
  0
POLYLINE
  8
1
  6
CONTINUOUS
 66
     1
 70
     0
 40
0.0
 41
0.0
  0
VERTEX
  8
1
 10
337.3318502404
 20
389.773982907
  0
VERTEX
  8
1
 10
337.4452560284
 20
389.8049522766
  0
VERTEX
  8
1
 10
337.518764953
 20
389.8619427718
  0
SEQEND
  8
1
  0
POLYLINE
  8
1
  6
CONTINUOUS
 66
     1
 70
     0
 40
0.0
 41
0.0
  0
VERTEX
  8
1
 10
337.518764953
 20
389.8619427718
  0
VERTEX
  8
1
 10
337.5892840298
 20
389.9909371968
  0
VERTEX
  8
1
 10
337.621489133
 20
390.1355292112
  0
VERTEX
  8
1
 10
337.639709767
 20
390.3677119940001
  0
SEQEND
  8
1
  0
LINE
  8
1
  6
CONTINUOUS
 10
337.639709767
 20
390.3677119940001
 11
337.9035893612
 21
390.3677119940001
  0
POLYLINE
  8
1
  6
CONTINUOUS
 66
     1
 70
     0
 40
0.0
 41
0.0
  0
VERTEX
  8
1
 10
337.9035893612
 20
390.3677119940001
  0
VERTEX
  8
1
 10
337.8407113826
 20
389.972568007
  0
VERTEX
  8
1
 10
337.6946846824
 20
389.6970180254
  0
SEQEND
  8
1
  0
POLYLINE
  8
1
  6
CONTINUOUS
 66
     1
 70
     0
 40
0.0
 41
0.0
  0
VERTEX
  8
1
 10
337.6946846824
 20
389.6970180254
  0
VERTEX
  8
1
 10
337.5064080136
 20
389.5740683658
  0
VERTEX
  8
1
 10
337.3318502404
 20
389.5439027052
  0
SEQEND
  8
1
  0
POLYLINE
  8
1
  6
CONTINUOUS
 66
     1
 70
     0
 40
0.0
 41
0.0
  0
VERTEX
  8
1
 10
337.3318502404
 20
389.5439027052
  0
VERTEX
  8
1
 10
337.1126284538
 20
389.5931124214
  0
VERTEX
  8
1
 10
336.9690157984
 20
389.6970180254
  0
SEQEND
  8
1
  0
POLYLINE
  8
1
  6
CONTINUOUS
 66
     1
 70
     0
 40
0.0
 41
0.0
  0
VERTEX
  8
1
 10
336.9690157984
 20
389.6970180254
  0
VERTEX
  8
1
 10
336.8199618586
 20
389.9071531852
  0
VERTEX
  8
1
 10
336.7350359552
 20
390.1509445726
  0
VERTEX
  8
1
 10
336.694141221
 20
390.5546267066
  0
SEQEND
  8
1
  0
POLYLINE
  8
1
  6
CONTINUOUS
 66
     1
 70
     0
 40
0.0
 41
0.0
  0
VERTEX
  8
1
 10
336.694141221
 20
390.5546267066
  0
VERTEX
  8
1
 10
336.7667748548
 20
391.1352912914
  0
VERTEX
  8
1
 10
336.9910057646
 20
391.5331802018
  0
SEQEND
  8
1
  0
POLYLINE
  8
1
  6
CONTINUOUS
 66
     1
 70
     0
 40
0.0
 41
0.0
  0
VERTEX
  8
1
 10
336.9910057646
 20
391.5331802018
  0
VERTEX
  8
1
 10
337.1729822420001
 20
391.655882211
  0
VERTEX
  8
1
 10
337.3428452234
 20
391.687109965
  0
SEQEND
  8
1
  0
POLYLINE
  8
1
  6
CONTINUOUS
 66
     1
 70
     0
 40
0.0
 41
0.0
  0
VERTEX
  8
1
 10
337.3428452234
 20
391.687109965
  0
VERTEX
  8
1
 10
337.540842125
 20
391.6527435902
  0
VERTEX
  8
1
 10
337.6726947162
 20
391.566165151
  0
SEQEND
  8
1
  0
POLYLINE
  8
1
  6
CONTINUOUS
 66
     1
 70
     0
 40
0.0
 41
0.0
  0
VERTEX
  8
1
 10
337.6726947162
 20
391.566165151
  0
VERTEX
  8
1
 10
337.8607685352
 20
391.2375976736
  0
VERTEX
  8
1
 10
337.892594378
 20
390.9394511148
  0
SEQEND
  8
1
  0
POLYLINE
  8
1
  6
CONTINUOUS
 66
     1
 70
     0
 40
0.0
 41
0.0
  0
VERTEX
  8
1
 10
337.3428452234
 20
391.4782052862
  0
VERTEX
  8
1
 10
337.2362843326
 20
391.4528166418
  0
VERTEX
  8
1
 10
337.166925494
 20
391.4012404046
  0
SEQEND
  8
1
  0
POLYLINE
  8
1
  6
CONTINUOUS
 66
     1
 70
     0
 40
0.0
 41
0.0
  0
VERTEX
  8
1
 10
337.518764953
 20
391.4122353878
  0
VERTEX
  8
1
 10
337.426730238
 20
391.4669823804
  0
VERTEX
  8
1
 10
337.3428452234
 20
391.4782052862
  0
SEQEND
  8
1
  0
POLYLINE
  8
1
  6
CONTINUOUS
 66
     1
 70
     0
 40
0.0
 41
0.0
  0
VERTEX
  8
1
 10
337.1339405448
 20
389.8619427718
  0
VERTEX
  8
1
 10
337.2362609466
 20
389.7923083124
  0
VERTEX
  8
1
 10
337.3318502404
 20
389.773982907
  0
SEQEND
  8
1
  0
LINE
  8
1
  6
CONTINUOUS
 10
337.892594378
 20
390.9394511148
 11
337.6507047500001
 21
390.9394511148
  0
POLYLINE
  8
1
  6
CONTINUOUS
 66
     1
 70
     0
 40
0.0
 41
0.0
  0
VERTEX
  8
1
 10
337.6507047500001
 20
390.9394511148
  0
VERTEX
  8
1
 10
337.616670671
 20
391.2174426918
  0
VERTEX
  8
1
 10
337.518764953
 20
391.4122353878
  0
SEQEND
  8
1
  0
LINE
  8
1
  6
CONTINUOUS
 10
337.9782653702
 20
355.610853506
 11
337.9782653702
 21
357.348589122
  0
LINE
  8
1
  6
CONTINUOUS
 10
337.9782653702
 20
357.348589122
 11
338.189250181
 21
357.348589122
  0
LINE
  8
1
  6
CONTINUOUS
 10
338.189250181
 20
356.6175713272
 11
338.6973966968
 21
357.348589122
  0
LINE
  8
1
  6
CONTINUOUS
 10
338.6973966968
 20
357.348589122
 11
338.938097678
 21
357.348589122
  0
LINE
  8
1
  6
CONTINUOUS
 10
338.938097678
 20
357.348589122
 11
338.4656105668
 21
356.662145583
  0
LINE
  8
1
  6
CONTINUOUS
 10
338.189250181
 20
357.348589122
 11
338.189250181
 21
356.6175713272
  0
LINE
  8
1
  6
CONTINUOUS
 10
338.4656105668
 20
356.662145583
 11
338.9737570826
 21
355.610853506
  0
LINE
  8
1
  6
CONTINUOUS
 10
338.9737570826
 20
355.610853506
 11
338.7419709526
 21
355.610853506
  0
LINE
  8
1
  6
CONTINUOUS
 10
338.7419709526
 20
355.610853506
 11
338.3318877994
 21
356.492763411
  0
LINE
  8
1
  6
CONTINUOUS
 10
338.3318877994
 20
356.492763411
 11
338.189250181
 21
356.2966366856
  0
LINE
  8
1
  6
CONTINUOUS
 10
338.189250181
 20
356.2966366856
 11
338.189250181
 21
355.610853506
  0
LINE
  8
1
  6
CONTINUOUS
 10
338.189250181
 20
355.610853506
 11
337.9782653702
 21
355.610853506
  0
POLYLINE
  8
1
  6
CONTINUOUS
 66
     1
 70
     0
 40
0.0
 41
0.0
  0
VERTEX
  8
1
 10
319.9194302358
 20
363.7227076984
  0
VERTEX
  8
1
 10
319.736786936
 20
363.6191346584
  0
VERTEX
  8
1
 10
319.5717510408
 20
363.5985601414
  0
SEQEND
  8
1
  0
POLYLINE
  8
1
  6
CONTINUOUS
 66
     1
 70
     0
 40
0.0
 41
0.0
  0
VERTEX
  8
1
 10
319.5717510408
 20
363.5985601414
  0
VERTEX
  8
1
 10
319.3743638978
 20
363.6301140864
  0
VERTEX
  8
1
 10
319.241901548
 20
363.7137928472
  0
SEQEND
  8
1
  0
POLYLINE
  8
1
  6
CONTINUOUS
 66
     1
 70
     0
 40
0.0
 41
0.0
  0
VERTEX
  8
1
 10
319.3043055062
 20
364.0614720422
  0
VERTEX
  8
1
 10
319.3230989474
 20
363.9337842712
  0
VERTEX
  8
1
 10
319.3756243154
 20
363.8475156144
  0
SEQEND
  8
1
  0
POLYLINE
  8
1
  6
CONTINUOUS
 66
     1
 70
     0
 40
0.0
 41
0.0
  0
VERTEX
  8
1
 10
319.5539213386
 20
363.7761968052
  0
VERTEX
  8
1
 10
319.681613937
 20
363.7949965418
  0
VERTEX
  8
1
 10
319.7678777662
 20
363.8475156144
  0
SEQEND
  8
1
  0
POLYLINE
  8
1
  6
CONTINUOUS
 66
     1
 70
     0
 40
0.0
 41
0.0
  0
VERTEX
  8
1
 10
319.3043055062
 20
364.569618558
  0
VERTEX
  8
1
 10
319.1849518518
 20
364.7281697386
  0
VERTEX
  8
1
 10
319.1527530366
 20
364.8816383486
  0
SEQEND
  8
1
  0
POLYLINE
  8
1
  6
CONTINUOUS
 66
     1
 70
     0
 40
0.0
 41
0.0
  0
VERTEX
  8
1
 10
319.4736876782
 20
364.6855116232
  0
VERTEX
  8
1
 10
319.6772007788
 20
364.5270107168
  0
VERTEX
  8
1
 10
319.8481114266
 20
364.4180660884
  0
SEQEND
  8
1
  0
POLYLINE
  8
1
  6
CONTINUOUS
 66
     1
 70
     0
 40
0.0
 41
0.0
  0
VERTEX
  8
1
 10
319.8481114266
 20
364.4180660884
  0
VERTEX
  8
1
 10
319.9421950688
 20
364.3492841526
  0
VERTEX
  8
1
 10
320.0126315804
 20
364.2566326156
  0
VERTEX
  8
1
 10
320.0531530032
 20
364.0793017446
  0
SEQEND
  8
1
  0
POLYLINE
  8
1
  6
CONTINUOUS
 66
     1
 70
     0
 40
0.0
 41
0.0
  0
VERTEX
  8
1
 10
320.0531530032
 20
364.0793017446
  0
VERTEX
  8
1
 10
320.014372983
 20
363.8650274218
  0
VERTEX
  8
1
 10
319.9194302358
 20
363.7227076984
  0
SEQEND
  8
1
  0
POLYLINE
  8
1
  6
CONTINUOUS
 66
     1
 70
     0
 40
0.0
 41
0.0
  0
VERTEX
  8
1
 10
319.7233035104
 20
364.2665136188
  0
VERTEX
  8
1
 10
319.4843102644
 20
364.4302734028
  0
VERTEX
  8
1
 10
319.3043055062
 20
364.569618558
  0
SEQEND
  8
1
  0
POLYLINE
  8
1
  6
CONTINUOUS
 66
     1
 70
     0
 40
0.0
 41
0.0
  0
VERTEX
  8
1
 10
319.8481114266
 20
364.052557191
  0
VERTEX
  8
1
 10
319.8378915644
 20
364.1242244368
  0
VERTEX
  8
1
 10
319.8064487948
 20
364.189322478
  0
VERTEX
  8
1
 10
319.7233035104
 20
364.2665136188
  0
SEQEND
  8
1
  0
LINE
  8
1
  6
CONTINUOUS
 10
320.0085787474
 20
364.854893795
 11
319.8035371708
 21
364.854893795
  0
POLYLINE
  8
1
  6
CONTINUOUS
 66
     1
 70
     0
 40
0.0
 41
0.0
  0
VERTEX
  8
1
 10
319.241901548
 20
363.7137928472
  0
VERTEX
  8
1
 10
319.127212513
 20
363.8895676272
  0
VERTEX
  8
1
 10
319.0992639296
 20
364.052557191
  0
SEQEND
  8
1
  0
LINE
  8
1
  6
CONTINUOUS
 10
319.0992639296
 20
364.052557191
 11
319.0992639296
 21
364.1417057026
  0
LINE
  8
1
  6
CONTINUOUS
 10
319.0992639296
 20
364.1417057026
 11
319.3043055062
 21
364.1417057026
  0
LINE
  8
1
  6
CONTINUOUS
 10
319.3043055062
 20
364.1417057026
 11
319.3043055062
 21
364.0614720422
  0
POLYLINE
  8
1
  6
CONTINUOUS
 66
     1
 70
     0
 40
0.0
 41
0.0
  0
VERTEX
  8
1
 10
319.3756243154
 20
363.8475156144
  0
VERTEX
  8
1
 10
319.4684523616
 20
363.789303612
  0
VERTEX
  8
1
 10
319.5539213386
 20
363.7761968052
  0
SEQEND
  8
1
  0
POLYLINE
  8
1
  6
CONTINUOUS
 66
     1
 70
     0
 40
0.0
 41
0.0
  0
VERTEX
  8
1
 10
319.8837708312
 20
365.2293175436
  0
VERTEX
  8
1
 10
319.9924793992
 20
365.0324724298
  0
VERTEX
  8
1
 10
320.0085787474
 20
364.854893795
  0
SEQEND
  8
1
  0
POLYLINE
  8
1
  6
CONTINUOUS
 66
     1
 70
     0
 40
0.0
 41
0.0
  0
VERTEX
  8
1
 10
319.8035371708
 20
364.854893795
  0
VERTEX
  8
1
 10
319.7920557996
 20
364.9990911778
  0
VERTEX
  8
1
 10
319.7322183616
 20
365.0955947762
  0
SEQEND
  8
1
  0
POLYLINE
  8
1
  6
CONTINUOUS
 66
     1
 70
     0
 40
0.0
 41
0.0
  0
VERTEX
  8
1
 10
319.7322183616
 20
365.0955947762
  0
VERTEX
  8
1
 10
319.6534891426
 20
365.1461826864
  0
VERTEX
  8
1
 10
319.580665892
 20
365.1579987344
  0
SEQEND
  8
1
  0
POLYLINE
  8
1
  6
CONTINUOUS
 66
     1
 70
     0
 40
0.0
 41
0.0
  0
VERTEX
  8
1
 10
319.580665892
 20
365.1579987344
  0
VERTEX
  8
1
 10
319.4890977878
 20
365.1385134302
  0
VERTEX
  8
1
 10
319.4291134224
 20
365.0955947762
  0
SEQEND
  8
1
  0
POLYLINE
  8
1
  6
CONTINUOUS
 66
     1
 70
     0
 40
0.0
 41
0.0
  0
VERTEX
  8
1
 10
319.4291134224
 20
365.0955947762
  0
VERTEX
  8
1
 10
319.3648578558
 20
364.9985774042
  0
VERTEX
  8
1
 10
319.348879762
 20
364.908382902
  0
SEQEND
  8
1
  0
POLYLINE
  8
1
  6
CONTINUOUS
 66
     1
 70
     0
 40
0.0
 41
0.0
  0
VERTEX
  8
1
 10
319.348879762
 20
364.908382902
  0
VERTEX
  8
1
 10
319.3614298196
 20
364.8359380566
  0
VERTEX
  8
1
 10
319.3953034406
 20
364.7705732738
  0
VERTEX
  8
1
 10
319.4736876782
 20
364.6855116232
  0
SEQEND
  8
1
  0
POLYLINE
  8
1
  6
CONTINUOUS
 66
     1
 70
     0
 40
0.0
 41
0.0
  0
VERTEX
  8
1
 10
319.580665892
 20
365.3362957574
  0
VERTEX
  8
1
 10
319.7621655674
 20
365.306792575
  0
VERTEX
  8
1
 10
319.8837708312
 20
365.2293175436
  0
SEQEND
  8
1
  0
POLYLINE
  8
1
  6
CONTINUOUS
 66
     1
 70
     0
 40
0.0
 41
0.0
  0
VERTEX
  8
1
 10
319.7678777662
 20
363.8475156144
  0
VERTEX
  8
1
 10
319.8336082718
 20
363.9544774644
  0
VERTEX
  8
1
 10
319.8481114266
 20
364.052557191
  0
SEQEND
  8
1
  0
POLYLINE
  8
1
  6
CONTINUOUS
 66
     1
 70
     0
 40
0.0
 41
0.0
  0
VERTEX
  8
1
 10
319.2864758038
 20
365.2114878414
  0
VERTEX
  8
1
 10
319.4396462608
 20
365.3104406064
  0
VERTEX
  8
1
 10
319.580665892
 20
365.3362957574
  0
SEQEND
  8
1
  0
POLYLINE
  8
1
  6
CONTINUOUS
 66
     1
 70
     0
 40
0.0
 41
0.0
  0
VERTEX
  8
1
 10
319.1527530366
 20
364.8816383486
  0
VERTEX
  8
1
 10
319.1905819554
 20
365.082152075
  0
VERTEX
  8
1
 10
319.2864758038
 20
365.2114878414
  0
SEQEND
  8
1
  0
POLYLINE
  8
1
  6
CONTINUOUS
 66
     1
 70
     0
 40
0.0
 41
0.0
  0
VERTEX
  8
1
 10
321.297003939
 20
356.3548803798
  0
VERTEX
  8
1
 10
321.2460217942
 20
356.0344933634
  0
VERTEX
  8
1
 10
321.1276217672
 20
355.8110744594
  0
SEQEND
  8
1
  0
POLYLINE
  8
1
  6
CONTINUOUS
 66
     1
 70
     0
 40
0.0
 41
0.0
  0
VERTEX
  8
1
 10
321.1276217672
 20
355.8110744594
  0
VERTEX
  8
1
 10
320.9749650086
 20
355.7113855462
  0
VERTEX
  8
1
 10
320.833431679
 20
355.6869269026
  0
SEQEND
  8
1
  0
POLYLINE
  8
1
  6
CONTINUOUS
 66
     1
 70
     0
 40
0.0
 41
0.0
  0
VERTEX
  8
1
 10
320.833431679
 20
355.6869269026
  0
VERTEX
  8
1
 10
320.6556842844
 20
355.7268266724
  0
VERTEX
  8
1
 10
320.5392415908
 20
355.8110744594
  0
SEQEND
  8
1
  0
POLYLINE
  8
1
  6
CONTINUOUS
 66
     1
 70
     0
 40
0.0
 41
0.0
  0
VERTEX
  8
1
 10
320.5392415908
 20
355.8110744594
  0
VERTEX
  8
1
 10
320.418387045
 20
355.9814543186
  0
VERTEX
  8
1
 10
320.3495282046
 20
356.1791230112
  0
VERTEX
  8
1
 10
320.316370312
 20
356.5064328496
  0
SEQEND
  8
1
  0
POLYLINE
  8
1
  6
CONTINUOUS
 66
     1
 70
     0
 40
0.0
 41
0.0
  0
VERTEX
  8
1
 10
320.316370312
 20
356.5064328496
  0
VERTEX
  8
1
 10
320.3752624474
 20
356.9772419724
  0
VERTEX
  8
1
 10
320.5570712932
 20
357.2998546024
  0
SEQEND
  8
1
  0
POLYLINE
  8
1
  6
CONTINUOUS
 66
     1
 70
     0
 40
0.0
 41
0.0
  0
VERTEX
  8
1
 10
320.5570712932
 20
357.2998546024
  0
VERTEX
  8
1
 10
320.7046197884
 20
357.399342718
  0
VERTEX
  8
1
 10
320.8423465302
 20
357.4246625186
  0
SEQEND
  8
1
  0
POLYLINE
  8
1
  6
CONTINUOUS
 66
     1
 70
     0
 40
0.0
 41
0.0
  0
VERTEX
  8
1
 10
320.8423465302
 20
357.4246625186
  0
VERTEX
  8
1
 10
321.0028845584
 20
357.3967978902
  0
VERTEX
  8
1
 10
321.1097920648
 20
357.3265991558
  0
SEQEND
  8
1
  0
POLYLINE
  8
1
  6
CONTINUOUS
 66
     1
 70
     0
 40
0.0
 41
0.0
  0
VERTEX
  8
1
 10
321.1097920648
 20
357.3265991558
  0
VERTEX
  8
1
 10
321.2622843504
 20
357.0601930932
  0
VERTEX
  8
1
 10
321.288089088
 20
356.81845264
  0
SEQEND
  8
1
  0
LINE
  8
1
  6
CONTINUOUS
 10
321.288089088
 20
356.81845264
 11
321.0919623624
 21
356.81845264
  0
POLYLINE
  8
1
  6
CONTINUOUS
 66
     1
 70
     0
 40
0.0
 41
0.0
  0
VERTEX
  8
1
 10
321.0919623624
 20
356.81845264
  0
VERTEX
  8
1
 10
321.0643671632
 20
357.0438512158
  0
VERTEX
  8
1
 10
320.9849841486
 20
357.2017912396
  0
SEQEND
  8
1
  0
POLYLINE
  8
1
  6
CONTINUOUS
 66
     1
 70
     0
 40
0.0
 41
0.0
  0
VERTEX
  8
1
 10
320.9849841486
 20
357.2017912396
  0
VERTEX
  8
1
 10
320.9103614068
 20
357.2461806932
  0
VERTEX
  8
1
 10
320.8423465302
 20
357.2552803466
  0
SEQEND
  8
1
  0
POLYLINE
  8
1
  6
CONTINUOUS
 66
     1
 70
     0
 40
0.0
 41
0.0
  0
VERTEX
  8
1
 10
320.8423465302
 20
357.2552803466
  0
VERTEX
  8
1
 10
320.7559458078
 20
357.2346949592
  0
VERTEX
  8
1
 10
320.6997089116
 20
357.1928763886
  0
SEQEND
  8
1
  0
POLYLINE
  8
1
  6
CONTINUOUS
 66
     1
 70
     0
 40
0.0
 41
0.0
  0
VERTEX
  8
1
 10
320.6997089116
 20
357.1928763886
  0
VERTEX
  8
1
 10
320.5951888422
 20
357.0259471932
  0
VERTEX
  8
1
 10
320.544192269
 20
356.8346855964
  0
VERTEX
  8
1
 10
320.5214118886
 20
356.5242625518
  0
SEQEND
  8
1
  0
POLYLINE
  8
1
  6
CONTINUOUS
 66
     1
 70
     0
 40
0.0
 41
0.0
  0
VERTEX
  8
1
 10
320.5214118886
 20
356.5242625518
  0
VERTEX
  8
1
 10
320.55483645
 20
356.1834759428
  0
VERTEX
  8
1
 10
320.597851291
 20
356.0559369888
  0
VERTEX
  8
1
 10
320.6729643582
 20
355.9447972268
  0
SEQEND
  8
1
  0
POLYLINE
  8
1
  6
CONTINUOUS
 66
     1
 70
     0
 40
0.0
 41
0.0
  0
VERTEX
  8
1
 10
320.6729643582
 20
355.9447972268
  0
VERTEX
  8
1
 10
320.7559268462
 20
355.8883368544
  0
VERTEX
  8
1
 10
320.833431679
 20
355.8734784174
  0
SEQEND
  8
1
  0
POLYLINE
  8
1
  6
CONTINUOUS
 66
     1
 70
     0
 40
0.0
 41
0.0
  0
VERTEX
  8
1
 10
320.833431679
 20
355.8734784174
  0
VERTEX
  8
1
 10
320.925382318
 20
355.898588717
  0
VERTEX
  8
1
 10
320.9849841486
 20
355.9447972268
  0
SEQEND
  8
1
  0
POLYLINE
  8
1
  6
CONTINUOUS
 66
     1
 70
     0
 40
0.0
 41
0.0
  0
VERTEX
  8
1
 10
320.9849841486
 20
355.9447972268
  0
VERTEX
  8
1
 10
321.0421617786
 20
356.0493873012
  0
VERTEX
  8
1
 10
321.0682740244
 20
356.1666240696
  0
VERTEX
  8
1
 10
321.0830475114
 20
356.3548803798
  0
SEQEND
  8
1
  0
LINE
  8
1
  6
CONTINUOUS
 10
321.0830475114
 20
356.3548803798
 11
321.297003939
 21
356.3548803798
  0
LINE
  8
1
  6
CONTINUOUS
 10
342.1256628684
 20
390.6205966052
 11
342.1256628684
 21
390.4385685518
  0
LINE
  8
1
  6
CONTINUOUS
 10
342.1256628684
 20
390.4385685518
 11
340.872234796
 21
390.4385685518
  0
LINE
  8
1
  6
CONTINUOUS
 10
340.872234796
 20
390.4385685518
 11
340.872234796
 21
390.6205966052
  0
LINE
  8
1
  6
CONTINUOUS
 10
340.872234796
 20
390.6205966052
 11
342.1256628684
 21
390.6205966052
  0
POLYLINE
  8
1
  6
CONTINUOUS
 66
     1
 70
     0
 40
0.0
 41
0.0
  0
VERTEX
  8
1
 10
343.1262063298
 20
390.6425865712
  0
VERTEX
  8
1
 10
343.2312502466
 20
390.5912494286
  0
VERTEX
  8
1
 10
343.3021260594
 20
390.5326367404
  0
SEQEND
  8
1
  0
POLYLINE
  8
1
  6
CONTINUOUS
 66
     1
 70
     0
 40
0.0
 41
0.0
  0
VERTEX
  8
1
 10
343.3021260594
 20
390.5326367404
  0
VERTEX
  8
1
 10
343.4392032922
 20
390.3401288018
  0
VERTEX
  8
1
 10
343.4780457888
 20
390.1588073152
  0
SEQEND
  8
1
  0
POLYLINE
  8
1
  6
CONTINUOUS
 66
     1
 70
     0
 40
0.0
 41
0.0
  0
VERTEX
  8
1
 10
343.4780457888
 20
390.1588073152
  0
VERTEX
  8
1
 10
343.4273291254
 20
389.8748730740001
  0
VERTEX
  8
1
 10
343.3021260594
 20
389.6860230422
  0
SEQEND
  8
1
  0
POLYLINE
  8
1
  6
CONTINUOUS
 66
     1
 70
     0
 40
0.0
 41
0.0
  0
VERTEX
  8
1
 10
343.3021260594
 20
389.6860230422
  0
VERTEX
  8
1
 10
343.0943320694
 20
389.5674519382
  0
VERTEX
  8
1
 10
342.906306668
 20
389.5439027052
  0
SEQEND
  8
1
  0
POLYLINE
  8
1
  6
CONTINUOUS
 66
     1
 70
     0
 40
0.0
 41
0.0
  0
VERTEX
  8
1
 10
342.906306668
 20
389.5439027052
  0
VERTEX
  8
1
 10
342.6690972228
 20
389.5837879238
  0
VERTEX
  8
1
 10
342.5104872766
 20
389.6860230422
  0
SEQEND
  8
1
  0
POLYLINE
  8
1
  6
CONTINUOUS
 66
     1
 70
     0
 40
0.0
 41
0.0
  0
VERTEX
  8
1
 10
342.5104872766
 20
389.6860230422
  0
VERTEX
  8
1
 10
342.3648238464
 20
389.933573974
  0
VERTEX
  8
1
 10
342.3345675472
 20
390.1588073152
  0
SEQEND
  8
1
  0
POLYLINE
  8
1
  6
CONTINUOUS
 66
     1
 70
     0
 40
0.0
 41
0.0
  0
VERTEX
  8
1
 10
342.3345675472
 20
390.1588073152
  0
VERTEX
  8
1
 10
342.3964228392
 20
390.3855266708
  0
VERTEX
  8
1
 10
342.5104872766
 20
390.5326367404
  0
SEQEND
  8
1
  0
POLYLINE
  8
1
  6
CONTINUOUS
 66
     1
 70
     0
 40
0.0
 41
0.0
  0
VERTEX
  8
1
 10
342.5104872766
 20
390.5326367404
  0
VERTEX
  8
1
 10
342.6027543806
 20
390.6044758504
  0
VERTEX
  8
1
 10
342.6864070062
 20
390.6425865712
  0
SEQEND
  8
1
  0
POLYLINE
  8
1
  6
CONTINUOUS
 66
     1
 70
     0
 40
0.0
 41
0.0
  0
VERTEX
  8
1
 10
342.6864070062
 20
390.6425865712
  0
VERTEX
  8
1
 10
342.6016363328
 20
390.6843772952
  0
VERTEX
  8
1
 10
342.543472226
 20
390.730546436
  0
SEQEND
  8
1
  0
POLYLINE
  8
1
  6
CONTINUOUS
 66
     1
 70
     0
 40
0.0
 41
0.0
  0
VERTEX
  8
1
 10
342.543472226
 20
390.730546436
  0
VERTEX
  8
1
 10
342.419970603
 20
390.9187251664
  0
VERTEX
  8
1
 10
342.3895424626
 20
391.093380878
  0
SEQEND
  8
1
  0
LINE
  8
1
  6
CONTINUOUS
 10
342.3895424626
 20
391.093380878
 11
342.3895424626
 21
391.1043758612
  0
POLYLINE
  8
1
  6
CONTINUOUS
 66
     1
 70
     0
 40
0.0
 41
0.0
  0
VERTEX
  8
1
 10
342.554467209
 20
391.5441751848
  0
VERTEX
  8
1
 10
342.7374973014
 20
391.6602250886
  0
VERTEX
  8
1
 10
342.906306668
 20
391.687109965
  0
SEQEND
  8
1
  0
POLYLINE
  8
1
  6
CONTINUOUS
 66
     1
 70
     0
 40
0.0
 41
0.0
  0
VERTEX
  8
1
 10
342.906306668
 20
391.687109965
  0
VERTEX
  8
1
 10
343.1185790108
 20
391.6427392884
  0
VERTEX
  8
1
 10
343.258146127
 20
391.5441751848
  0
SEQEND
  8
1
  0
POLYLINE
  8
1
  6
CONTINUOUS
 66
     1
 70
     0
 40
0.0
 41
0.0
  0
VERTEX
  8
1
 10
343.258146127
 20
391.5441751848
  0
VERTEX
  8
1
 10
343.3945364284
 20
391.3140596638
  0
VERTEX
  8
1
 10
343.4230708734
 20
391.1043758612
  0
SEQEND
  8
1
  0
LINE
  8
1
  6
CONTINUOUS
 10
343.4230708734
 20
391.1043758612
 11
343.4230708734
 21
391.093380878
  0
POLYLINE
  8
1
  6
CONTINUOUS
 66
     1
 70
     0
 40
0.0
 41
0.0
  0
VERTEX
  8
1
 10
343.4230708734
 20
391.093380878
  0
VERTEX
  8
1
 10
343.373575929
 20
390.8740154466
  0
VERTEX
  8
1
 10
343.26914111
 20
390.730546436
  0
SEQEND
  8
1
  0
POLYLINE
  8
1
  6
CONTINUOUS
 66
     1
 70
     0
 40
0.0
 41
0.0
  0
VERTEX
  8
1
 10
343.26914111
 20
390.730546436
  0
VERTEX
  8
1
 10
343.1935982936
 20
390.6738795804
  0
VERTEX
  8
1
 10
343.1262063298
 20
390.6425865712
  0
SEQEND
  8
1
  0
POLYLINE
  8
1
  6
CONTINUOUS
 66
     1
 70
     0
 40
0.0
 41
0.0
  0
VERTEX
  8
1
 10
342.6974019892
 20
390.4556718588
  0
VERTEX
  8
1
 10
342.6062846168
 20
390.3001695676
  0
VERTEX
  8
1
 10
342.5874521584
 20
390.1588073152
  0
SEQEND
  8
1
  0
POLYLINE
  8
1
  6
CONTINUOUS
 66
     1
 70
     0
 40
0.0
 41
0.0
  0
VERTEX
  8
1
 10
342.5874521584
 20
390.1588073152
  0
VERTEX
  8
1
 10
342.6166492504
 20
389.9620424982
  0
VERTEX
  8
1
 10
342.6974019892
 20
389.8289578224
  0
SEQEND
  8
1
  0
POLYLINE
  8
1
  6
CONTINUOUS
 66
     1
 70
     0
 40
0.0
 41
0.0
  0
VERTEX
  8
1
 10
342.6974019892
 20
389.8289578224
  0
VERTEX
  8
1
 10
342.805779313
 20
389.7581748232
  0
VERTEX
  8
1
 10
342.906306668
 20
389.7409979578
  0
SEQEND
  8
1
  0
POLYLINE
  8
1
  6
CONTINUOUS
 66
     1
 70
     0
 40
0.0
 41
0.0
  0
VERTEX
  8
1
 10
342.906306668
 20
389.7409979578
  0
VERTEX
  8
1
 10
343.032605397
 20
389.7691002776
  0
VERTEX
  8
1
 10
343.1152113468
 20
389.8289578224
  0
SEQEND
  8
1
  0
POLYLINE
  8
1
  6
CONTINUOUS
 66
     1
 70
     0
 40
0.0
 41
0.0
  0
VERTEX
  8
1
 10
343.1152113468
 20
389.8289578224
  0
VERTEX
  8
1
 10
343.208209365
 20
390.003064422
  0
VERTEX
  8
1
 10
343.2251611776
 20
390.1588073152
  0
SEQEND
  8
1
  0
POLYLINE
  8
1
  6
CONTINUOUS
 66
     1
 70
     0
 40
0.0
 41
0.0
  0
VERTEX
  8
1
 10
343.2251611776
 20
390.1588073152
  0
VERTEX
  8
1
 10
343.1938126814
 20
390.3371526628
  0
VERTEX
  8
1
 10
343.1152113468
 20
390.4556718588
  0
SEQEND
  8
1
  0
POLYLINE
  8
1
  6
CONTINUOUS
 66
     1
 70
     0
 40
0.0
 41
0.0
  0
VERTEX
  8
1
 10
342.906306668
 20
390.5436317234
  0
VERTEX
  8
1
 10
342.7799749918
 20
390.515558442
  0
VERTEX
  8
1
 10
342.6974019892
 20
390.4556718588
  0
SEQEND
  8
1
  0
POLYLINE
  8
1
  6
CONTINUOUS
 66
     1
 70
     0
 40
0.0
 41
0.0
  0
VERTEX
  8
1
 10
343.1152113468
 20
390.4556718588
  0
VERTEX
  8
1
 10
343.0068241242
 20
390.526516
  0
VERTEX
  8
1
 10
342.906306668
 20
390.5436317234
  0
SEQEND
  8
1
  0
POLYLINE
  8
1
  6
CONTINUOUS
 66
     1
 70
     0
 40
0.0
 41
0.0
  0
VERTEX
  8
1
 10
342.3895424626
 20
391.1043758612
  0
VERTEX
  8
1
 10
342.4372614718
 20
391.3686867864
  0
VERTEX
  8
1
 10
342.554467209
 20
391.5441751848
  0
SEQEND
  8
1
  0
POLYLINE
  8
1
  6
CONTINUOUS
 66
     1
 70
     0
 40
0.0
 41
0.0
  0
VERTEX
  8
1
 10
343.1811812452
 20
391.1043758612
  0
VERTEX
  8
1
 10
343.1605701222
 20
391.2863746960001
  0
VERTEX
  8
1
 10
343.0932213806
 20
391.4122353878
  0
SEQEND
  8
1
  0
LINE
  8
1
  6
CONTINUOUS
 10
343.1811812452
 20
391.093380878
 11
343.1811812452
 21
391.1043758612
  0
POLYLINE
  8
1
  6
CONTINUOUS
 66
     1
 70
     0
 40
0.0
 41
0.0
  0
VERTEX
  8
1
 10
342.906306668
 20
390.730546436
  0
VERTEX
  8
1
 10
343.0192406632
 20
390.7545783112
  0
VERTEX
  8
1
 10
343.0932213806
 20
390.8075113176
  0
SEQEND
  8
1
  0
POLYLINE
  8
1
  6
CONTINUOUS
 66
     1
 70
     0
 40
0.0
 41
0.0
  0
VERTEX
  8
1
 10
342.7193919554
 20
390.8075113176
  0
VERTEX
  8
1
 10
342.8164913256
 20
390.745119562
  0
VERTEX
  8
1
 10
342.906306668
 20
390.730546436
  0
SEQEND
  8
1
  0
POLYLINE
  8
1
  6
CONTINUOUS
 66
     1
 70
     0
 40
0.0
 41
0.0
  0
VERTEX
  8
1
 10
342.6314320908
 20
391.093380878
  0
VERTEX
  8
1
 10
342.6532741986
 20
390.9236447796
  0
VERTEX
  8
1
 10
342.7193919554
 20
390.8075113176
  0
SEQEND
  8
1
  0
LINE
  8
1
  6
CONTINUOUS
 10
342.6314320908
 20
391.1043758612
 11
342.6314320908
 21
391.093380878
  0
POLYLINE
  8
1
  6
CONTINUOUS
 66
     1
 70
     0
 40
0.0
 41
0.0
  0
VERTEX
  8
1
 10
342.7193919554
 20
391.4122353878
  0
VERTEX
  8
1
 10
342.6691883504
 20
391.3359147672
  0
VERTEX
  8
1
 10
342.6431726408
 20
391.248021685
  0
VERTEX
  8
1
 10
342.6314320908
 20
391.1043758612
  0
SEQEND
  8
1
  0
POLYLINE
  8
1
  6
CONTINUOUS
 66
     1
 70
     0
 40
0.0
 41
0.0
  0
VERTEX
  8
1
 10
342.906306668
 20
391.4892002694
  0
VERTEX
  8
1
 10
342.7933726728
 20
391.4651683942
  0
VERTEX
  8
1
 10
342.7193919554
 20
391.4122353878
  0
SEQEND
  8
1
  0
POLYLINE
  8
1
  6
CONTINUOUS
 66
     1
 70
     0
 40
0.0
 41
0.0
  0
VERTEX
  8
1
 10
343.0932213806
 20
391.4122353878
  0
VERTEX
  8
1
 10
342.9961220104
 20
391.4746271434
  0
VERTEX
  8
1
 10
342.906306668
 20
391.4892002694
  0
SEQEND
  8
1
  0
POLYLINE
  8
1
  6
CONTINUOUS
 66
     1
 70
     0
 40
0.0
 41
0.0
  0
VERTEX
  8
1
 10
343.0932213806
 20
390.8075113176
  0
VERTEX
  8
1
 10
343.1419673774
 20
390.87776475
  0
VERTEX
  8
1
 10
343.1687470746
 20
390.959220521
  0
VERTEX
  8
1
 10
343.1811812452
 20
391.093380878
  0
SEQEND
  8
1
  0
LINE
  8
1
  6
CONTINUOUS
 10
328.2493097314
 20
357.348589122
 11
328.460294542
 21
357.348589122
  0
LINE
  8
1
  6
CONTINUOUS
 10
328.460294542
 20
357.348589122
 11
328.460294542
 21
355.7795753186
  0
LINE
  8
1
  6
CONTINUOUS
 10
328.460294542
 20
355.7795753186
 11
329.1823974856
 21
355.7795753186
  0
LINE
  8
1
  6
CONTINUOUS
 10
329.1823974856
 20
355.7795753186
 11
329.1823974856
 21
355.610853506
  0
LINE
  8
1
  6
CONTINUOUS
 10
329.1823974856
 20
355.610853506
 11
328.2493097314
 21
355.610853506
  0
LINE
  8
1
  6
CONTINUOUS
 10
328.2493097314
 20
355.610853506
 11
328.2493097314
 21
357.348589122
  0
POLYLINE
  8
1
  6
CONTINUOUS
 66
     1
 70
     0
 40
0.0
 41
0.0
  0
VERTEX
  8
1
 10
330.1452014104
 20
355.7884901698
  0
VERTEX
  8
1
 10
329.9079318084
 20
355.6431276344
  0
VERTEX
  8
1
 10
329.6905440014
 20
355.610853506
  0
SEQEND
  8
1
  0
LINE
  8
1
  6
CONTINUOUS
 10
329.6905440014
 20
355.610853506
 11
329.381495828
 21
355.610853506
  0
LINE
  8
1
  6
CONTINUOUS
 10
329.381495828
 20
355.610853506
 11
329.381495828
 21
357.348589122
  0
LINE
  8
1
  6
CONTINUOUS
 10
329.381495828
 20
357.348589122
 11
329.6905440014
 21
357.348589122
  0
LINE
  8
1
  6
CONTINUOUS
 10
329.5924806388
 20
357.1798673094
 11
329.5924806388
 21
355.7795753186
  0
LINE
  8
1
  6
CONTINUOUS
 10
329.6905440014
 20
357.1798673094
 11
329.5924806388
 21
357.1798673094
  0
POLYLINE
  8
1
  6
CONTINUOUS
 66
     1
 70
     0
 40
0.0
 41
0.0
  0
VERTEX
  8
1
 10
329.9669043874
 20
357.063313885
  0
VERTEX
  8
1
 10
329.8235960156
 20
357.1571063422
  0
VERTEX
  8
1
 10
329.6905440014
 20
357.1798673094
  0
SEQEND
  8
1
  0
POLYLINE
  8
1
  6
CONTINUOUS
 66
     1
 70
     0
 40
0.0
 41
0.0
  0
VERTEX
  8
1
 10
330.1095420058
 20
356.4749337088
  0
VERTEX
  8
1
 10
330.0796427832
 20
356.8194728472
  0
VERTEX
  8
1
 10
330.0400786444
 20
356.949497248
  0
VERTEX
  8
1
 10
329.9669043874
 20
357.063313885
  0
SEQEND
  8
1
  0
POLYLINE
  8
1
  6
CONTINUOUS
 66
     1
 70
     0
 40
0.0
 41
0.0
  0
VERTEX
  8
1
 10
329.9758192384
 20
355.9043832348
  0
VERTEX
  8
1
 10
330.0578741074
 20
356.0488521312
  0
VERTEX
  8
1
 10
330.0938920292
 20
356.2122695376
  0
VERTEX
  8
1
 10
330.1095420058
 20
356.4749337088
  0
SEQEND
  8
1
  0
POLYLINE
  8
1
  6
CONTINUOUS
 66
     1
 70
     0
 40
0.0
 41
0.0
  0
VERTEX
  8
1
 10
329.6905440014
 20
355.7795753186
  0
VERTEX
  8
1
 10
329.8631498894
 20
355.8209467066
  0
VERTEX
  8
1
 10
329.9758192384
 20
355.9043832348
  0
SEQEND
  8
1
  0
LINE
  8
1
  6
CONTINUOUS
 10
329.5924806388
 20
355.7795753186
 11
329.6905440014
 21
355.7795753186
  0
POLYLINE
  8
1
  6
CONTINUOUS
 66
     1
 70
     0
 40
0.0
 41
0.0
  0
VERTEX
  8
1
 10
330.1273717082
 20
357.1881218012
  0
VERTEX
  8
1
 10
330.2438413622
 20
357.0114061144
  0
VERTEX
  8
1
 10
330.30473709
 20
356.8078724
  0
VERTEX
  8
1
 10
330.3324132846
 20
356.4749337088
  0
SEQEND
  8
1
  0
POLYLINE
  8
1
  6
CONTINUOUS
 66
     1
 70
     0
 40
0.0
 41
0.0
  0
VERTEX
  8
1
 10
330.3324132846
 20
356.4749337088
  0
VERTEX
  8
1
 10
330.2898527966
 20
356.0702610576
  0
VERTEX
  8
1
 10
330.1452014104
 20
355.7884901698
  0
SEQEND
  8
1
  0
POLYLINE
  8
1
  6
CONTINUOUS
 66
     1
 70
     0
 40
0.0
 41
0.0
  0
VERTEX
  8
1
 10
329.6905440014
 20
357.348589122
  0
VERTEX
  8
1
 10
329.9527331998
 20
357.3028810592
  0
VERTEX
  8
1
 10
330.1273717082
 20
357.1881218012
  0
SEQEND
  8
1
  0
POLYLINE
  8
1
  6
CONTINUOUS
 66
     1
 70
     0
 40
0.0
 41
0.0
  0
VERTEX
  8
1
 10
334.3826087374
 20
356.2788069834
  0
VERTEX
  8
1
 10
334.3316265926
 20
355.9584199668
  0
VERTEX
  8
1
 10
334.2132265654
 20
355.7350010628
  0
SEQEND
  8
1
  0
POLYLINE
  8
1
  6
CONTINUOUS
 66
     1
 70
     0
 40
0.0
 41
0.0
  0
VERTEX
  8
1
 10
334.2132265654
 20
355.7350010628
  0
VERTEX
  8
1
 10
334.060569807
 20
355.6353121496
  0
VERTEX
  8
1
 10
333.9190364774
 20
355.610853506
  0
SEQEND
  8
1
  0
POLYLINE
  8
1
  6
CONTINUOUS
 66
     1
 70
     0
 40
0.0
 41
0.0
  0
VERTEX
  8
1
 10
333.9190364774
 20
355.610853506
  0
VERTEX
  8
1
 10
333.7412890828
 20
355.6507532758
  0
VERTEX
  8
1
 10
333.6248463892
 20
355.7350010628
  0
SEQEND
  8
1
  0
POLYLINE
  8
1
  6
CONTINUOUS
 66
     1
 70
     0
 40
0.0
 41
0.0
  0
VERTEX
  8
1
 10
333.78531371
 20
357.116802992
  0
VERTEX
  8
1
 10
333.6807936406
 20
356.9498737968
  0
VERTEX
  8
1
 10
333.6297970674
 20
356.7586121998
  0
VERTEX
  8
1
 10
333.607016687
 20
356.4481891554
  0
SEQEND
  8
1
  0
POLYLINE
  8
1
  6
CONTINUOUS
 66
     1
 70
     0
 40
0.0
 41
0.0
  0
VERTEX
  8
1
 10
333.607016687
 20
356.4481891554
  0
VERTEX
  8
1
 10
333.6404412484
 20
356.1074025462
  0
VERTEX
  8
1
 10
333.6834560892
 20
355.9798635924
  0
VERTEX
  8
1
 10
333.7585691566
 20
355.8687238302
  0
SEQEND
  8
1
  0
POLYLINE
  8
1
  6
CONTINUOUS
 66
     1
 70
     0
 40
0.0
 41
0.0
  0
VERTEX
  8
1
 10
333.7585691566
 20
355.8687238302
  0
VERTEX
  8
1
 10
333.8415316446
 20
355.8122634578
  0
VERTEX
  8
1
 10
333.9190364774
 20
355.797405021
  0
SEQEND
  8
1
  0
POLYLINE
  8
1
  6
CONTINUOUS
 66
     1
 70
     0
 40
0.0
 41
0.0
  0
VERTEX
  8
1
 10
333.9190364774
 20
355.797405021
  0
VERTEX
  8
1
 10
334.0109871162
 20
355.8225153206
  0
VERTEX
  8
1
 10
334.070588947
 20
355.8687238302
  0
SEQEND
  8
1
  0
POLYLINE
  8
1
  6
CONTINUOUS
 66
     1
 70
     0
 40
0.0
 41
0.0
  0
VERTEX
  8
1
 10
334.070588947
 20
355.8687238302
  0
VERTEX
  8
1
 10
334.1277665768
 20
355.9733139046
  0
VERTEX
  8
1
 10
334.1538788226
 20
356.090550673
  0
VERTEX
  8
1
 10
334.1686523098
 20
356.2788069834
  0
SEQEND
  8
1
  0
LINE
  8
1
  6
CONTINUOUS
 10
334.1686523098
 20
356.2788069834
 11
334.3826087374
 21
356.2788069834
  0
POLYLINE
  8
1
  6
CONTINUOUS
 66
     1
 70
     0
 40
0.0
 41
0.0
  0
VERTEX
  8
1
 10
333.6248463892
 20
355.7350010628
  0
VERTEX
  8
1
 10
333.5039918434
 20
355.905380922
  0
VERTEX
  8
1
 10
333.435133003
 20
356.1030496146
  0
VERTEX
  8
1
 10
333.4019751104
 20
356.430359453
  0
SEQEND
  8
1
  0
POLYLINE
  8
1
  6
CONTINUOUS
 66
     1
 70
     0
 40
0.0
 41
0.0
  0
VERTEX
  8
1
 10
333.4019751104
 20
356.430359453
  0
VERTEX
  8
1
 10
333.4608672458
 20
356.9011685758
  0
VERTEX
  8
1
 10
333.6426760916
 20
357.2237812058
  0
SEQEND
  8
1
  0
POLYLINE
  8
1
  6
CONTINUOUS
 66
     1
 70
     0
 40
0.0
 41
0.0
  0
VERTEX
  8
1
 10
333.6426760916
 20
357.2237812058
  0
VERTEX
  8
1
 10
333.7902245868
 20
357.3232693216
  0
VERTEX
  8
1
 10
333.9279513286
 20
357.348589122
  0
SEQEND
  8
1
  0
POLYLINE
  8
1
  6
CONTINUOUS
 66
     1
 70
     0
 40
0.0
 41
0.0
  0
VERTEX
  8
1
 10
333.9279513286
 20
357.348589122
  0
VERTEX
  8
1
 10
334.0884893568
 20
357.3207244938
  0
VERTEX
  8
1
 10
334.1953968632
 20
357.2505257594
  0
SEQEND
  8
1
  0
POLYLINE
  8
1
  6
CONTINUOUS
 66
     1
 70
     0
 40
0.0
 41
0.0
  0
VERTEX
  8
1
 10
334.1953968632
 20
357.2505257594
  0
VERTEX
  8
1
 10
334.3478891488
 20
356.9841196966
  0
VERTEX
  8
1
 10
334.3736938862
 20
356.7423792434
  0
SEQEND
  8
1
  0
LINE
  8
1
  6
CONTINUOUS
 10
334.3736938862
 20
356.7423792434
 11
334.1775671608
 21
356.7423792434
  0
POLYLINE
  8
1
  6
CONTINUOUS
 66
     1
 70
     0
 40
0.0
 41
0.0
  0
VERTEX
  8
1
 10
334.1775671608
 20
356.7423792434
  0
VERTEX
  8
1
 10
334.1499719616
 20
356.9677778194
  0
VERTEX
  8
1
 10
334.070588947
 20
357.1257178432
  0
SEQEND
  8
1
  0
POLYLINE
  8
1
  6
CONTINUOUS
 66
     1
 70
     0
 40
0.0
 41
0.0
  0
VERTEX
  8
1
 10
333.9279513286
 20
357.17920695
  0
VERTEX
  8
1
 10
333.8415506062
 20
357.1586215628
  0
VERTEX
  8
1
 10
333.78531371
 20
357.116802992
  0
SEQEND
  8
1
  0
POLYLINE
  8
1
  6
CONTINUOUS
 66
     1
 70
     0
 40
0.0
 41
0.0
  0
VERTEX
  8
1
 10
334.070588947
 20
357.1257178432
  0
VERTEX
  8
1
 10
333.9959662052
 20
357.1701072966
  0
VERTEX
  8
1
 10
333.9279513286
 20
357.17920695
  0
SEQEND
  8
1
  0
POLYLINE
  8
1
  6
CONTINUOUS
 66
     1
 70
     0
 40
0.0
 41
0.0
  0
VERTEX
  8
1
 10
335.9719411888
 20
363.8748544914
  0
VERTEX
  8
1
 10
335.7892978888
 20
363.7712814514
  0
VERTEX
  8
1
 10
335.6242619936
 20
363.7507069346
  0
SEQEND
  8
1
  0
POLYLINE
  8
1
  6
CONTINUOUS
 66
     1
 70
     0
 40
0.0
 41
0.0
  0
VERTEX
  8
1
 10
335.6242619936
 20
363.7507069346
  0
VERTEX
  8
1
 10
335.4268748506
 20
363.7822608794
  0
VERTEX
  8
1
 10
335.294412501
 20
363.8659396402
  0
SEQEND
  8
1
  0
POLYLINE
  8
1
  6
CONTINUOUS
 66
     1
 70
     0
 40
0.0
 41
0.0
  0
VERTEX
  8
1
 10
335.294412501
 20
363.8659396402
  0
VERTEX
  8
1
 10
335.179723466
 20
364.0417144204
  0
VERTEX
  8
1
 10
335.1517748824
 20
364.2047039842
  0
SEQEND
  8
1
  0
LINE
  8
1
  6
CONTINUOUS
 10
335.1517748824
 20
364.2047039842
 11
335.1517748824
 21
364.2938524956
  0
POLYLINE
  8
1
  6
CONTINUOUS
 66
     1
 70
     0
 40
0.0
 41
0.0
  0
VERTEX
  8
1
 10
335.526198631
 20
364.8376584162
  0
VERTEX
  8
1
 10
335.7297117318
 20
364.67915751
  0
VERTEX
  8
1
 10
335.9006223796
 20
364.5702128816
  0
SEQEND
  8
1
  0
POLYLINE
  8
1
  6
CONTINUOUS
 66
     1
 70
     0
 40
0.0
 41
0.0
  0
VERTEX
  8
1
 10
335.9006223796
 20
364.5702128816
  0
VERTEX
  8
1
 10
335.9947060216
 20
364.5014309458
  0
VERTEX
  8
1
 10
336.0651425334
 20
364.4087794086
  0
VERTEX
  8
1
 10
336.1056639562
 20
364.2314485376
  0
SEQEND
  8
1
  0
POLYLINE
  8
1
  6
CONTINUOUS
 66
     1
 70
     0
 40
0.0
 41
0.0
  0
VERTEX
  8
1
 10
336.1056639562
 20
364.2314485376
  0
VERTEX
  8
1
 10
336.066883936
 20
364.017174215
  0
VERTEX
  8
1
 10
335.9719411888
 20
363.8748544914
  0
SEQEND
  8
1
  0
LINE
  8
1
  6
CONTINUOUS
 10
335.1517748824
 20
364.2938524956
 11
335.356816459
 21
364.2938524956
  0
LINE
  8
1
  6
CONTINUOUS
 10
335.356816459
 20
364.2938524956
 11
335.356816459
 21
364.2136188352
  0
POLYLINE
  8
1
  6
CONTINUOUS
 66
     1
 70
     0
 40
0.0
 41
0.0
  0
VERTEX
  8
1
 10
335.356816459
 20
364.2136188352
  0
VERTEX
  8
1
 10
335.3756099004
 20
364.0859310642
  0
VERTEX
  8
1
 10
335.4281352682
 20
363.9996624076
  0
SEQEND
  8
1
  0
POLYLINE
  8
1
  6
CONTINUOUS
 66
     1
 70
     0
 40
0.0
 41
0.0
  0
VERTEX
  8
1
 10
335.4281352682
 20
363.9996624076
  0
VERTEX
  8
1
 10
335.5209633144
 20
363.941450405
  0
VERTEX
  8
1
 10
335.6064322914
 20
363.9283435984
  0
SEQEND
  8
1
  0
POLYLINE
  8
1
  6
CONTINUOUS
 66
     1
 70
     0
 40
0.0
 41
0.0
  0
VERTEX
  8
1
 10
335.6064322914
 20
363.9283435984
  0
VERTEX
  8
1
 10
335.7341248898
 20
363.947143335
  0
VERTEX
  8
1
 10
335.8203887192
 20
363.9996624076
  0
SEQEND
  8
1
  0
POLYLINE
  8
1
  6
CONTINUOUS
 66
     1
 70
     0
 40
0.0
 41
0.0
  0
VERTEX
  8
1
 10
335.8203887192
 20
363.9996624076
  0
VERTEX
  8
1
 10
335.8861192246
 20
364.1066242574
  0
VERTEX
  8
1
 10
335.9006223796
 20
364.2047039842
  0
SEQEND
  8
1
  0
POLYLINE
  8
1
  6
CONTINUOUS
 66
     1
 70
     0
 40
0.0
 41
0.0
  0
VERTEX
  8
1
 10
335.9006223796
 20
364.2047039842
  0
VERTEX
  8
1
 10
335.8904025172
 20
364.2763712298
  0
VERTEX
  8
1
 10
335.8589597476
 20
364.341469271
  0
VERTEX
  8
1
 10
335.7758144634
 20
364.4186604118
  0
SEQEND
  8
1
  0
POLYLINE
  8
1
  6
CONTINUOUS
 66
     1
 70
     0
 40
0.0
 41
0.0
  0
VERTEX
  8
1
 10
335.7758144634
 20
364.4186604118
  0
VERTEX
  8
1
 10
335.5368212172
 20
364.5824201958
  0
VERTEX
  8
1
 10
335.356816459
 20
364.7217653512
  0
SEQEND
  8
1
  0
POLYLINE
  8
1
  6
CONTINUOUS
 66
     1
 70
     0
 40
0.0
 41
0.0
  0
VERTEX
  8
1
 10
335.356816459
 20
364.7217653512
  0
VERTEX
  8
1
 10
335.2374628048
 20
364.8803165316
  0
VERTEX
  8
1
 10
335.2052639894
 20
365.0337851416
  0
SEQEND
  8
1
  0
POLYLINE
  8
1
  6
CONTINUOUS
 66
     1
 70
     0
 40
0.0
 41
0.0
  0
VERTEX
  8
1
 10
335.2052639894
 20
365.0337851416
  0
VERTEX
  8
1
 10
335.2430929084
 20
365.2342988682
  0
VERTEX
  8
1
 10
335.3389867568
 20
365.3636346344
  0
SEQEND
  8
1
  0
POLYLINE
  8
1
  6
CONTINUOUS
 66
     1
 70
     0
 40
0.0
 41
0.0
  0
VERTEX
  8
1
 10
335.3389867568
 20
365.3636346344
  0
VERTEX
  8
1
 10
335.4921572136
 20
365.4625873994
  0
VERTEX
  8
1
 10
335.6331768448
 20
365.4884425506
  0
SEQEND
  8
1
  0
POLYLINE
  8
1
  6
CONTINUOUS
 66
     1
 70
     0
 40
0.0
 41
0.0
  0
VERTEX
  8
1
 10
335.6331768448
 20
365.4884425506
  0
VERTEX
  8
1
 10
335.8146765202
 20
365.458939368
  0
VERTEX
  8
1
 10
335.9362817842
 20
365.3814643366
  0
SEQEND
  8
1
  0
POLYLINE
  8
1
  6
CONTINUOUS
 66
     1
 70
     0
 40
0.0
 41
0.0
  0
VERTEX
  8
1
 10
335.9362817842
 20
365.3814643366
  0
VERTEX
  8
1
 10
336.044990352
 20
365.1846192228
  0
VERTEX
  8
1
 10
336.0610897004
 20
365.0070405882
  0
SEQEND
  8
1
  0
LINE
  8
1
  6
CONTINUOUS
 10
336.0610897004
 20
365.0070405882
 11
335.8560481238
 21
365.0070405882
  0
POLYLINE
  8
1
  6
CONTINUOUS
 66
     1
 70
     0
 40
0.0
 41
0.0
  0
VERTEX
  8
1
 10
335.8560481238
 20
365.0070405882
  0
VERTEX
  8
1
 10
335.8445667526
 20
365.151237971
  0
VERTEX
  8
1
 10
335.7847293146
 20
365.2477415694
  0
SEQEND
  8
1
  0
POLYLINE
  8
1
  6
CONTINUOUS
 66
     1
 70
     0
 40
0.0
 41
0.0
  0
VERTEX
  8
1
 10
335.7847293146
 20
365.2477415694
  0
VERTEX
  8
1
 10
335.7060000954
 20
365.2983294794
  0
VERTEX
  8
1
 10
335.6331768448
 20
365.3101455274
  0
SEQEND
  8
1
  0
POLYLINE
  8
1
  6
CONTINUOUS
 66
     1
 70
     0
 40
0.0
 41
0.0
  0
VERTEX
  8
1
 10
335.6331768448
 20
365.3101455274
  0
VERTEX
  8
1
 10
335.5416087406
 20
365.2906602232
  0
VERTEX
  8
1
 10
335.4816243752
 20
365.2477415694
  0
SEQEND
  8
1
  0
POLYLINE
  8
1
  6
CONTINUOUS
 66
     1
 70
     0
 40
0.0
 41
0.0
  0
VERTEX
  8
1
 10
335.4816243752
 20
365.2477415694
  0
VERTEX
  8
1
 10
335.4173688086
 20
365.1507241972
  0
VERTEX
  8
1
 10
335.4013907148
 20
365.060529695
  0
SEQEND
  8
1
  0
POLYLINE
  8
1
  6
CONTINUOUS
 66
     1
 70
     0
 40
0.0
 41
0.0
  0
VERTEX
  8
1
 10
335.4013907148
 20
365.060529695
  0
VERTEX
  8
1
 10
335.4139407726
 20
364.9880848496
  0
VERTEX
  8
1
 10
335.4478143934
 20
364.922720067
  0
VERTEX
  8
1
 10
335.526198631
 20
364.8376584162
  0
SEQEND
  8
1
  0
LINE
  8
1
  6
CONTINUOUS
 10
337.2645946064
 20
364.3295119004
 11
337.2645946064
 21
364.1607900876
  0
LINE
  8
1
  6
CONTINUOUS
 10
337.2645946064
 20
364.1607900876
 11
337.0773827320001
 21
364.1607900876
  0
LINE
  8
1
  6
CONTINUOUS
 10
337.0773827320001
 20
364.1607900876
 11
337.0773827320001
 21
363.7507069346
  0
LINE
  8
1
  6
CONTINUOUS
 10
337.0773827320001
 20
363.7507069346
 11
336.8663979214
 21
363.7507069346
  0
LINE
  8
1
  6
CONTINUOUS
 10
336.8663979214
 20
365.114018802
 11
336.4711728534
 21
364.3295119004
  0
LINE
  8
1
  6
CONTINUOUS
 10
336.8663979214
 20
364.3295119004
 11
336.8663979214
 21
365.114018802
  0
LINE
  8
1
  6
CONTINUOUS
 10
336.4711728534
 20
364.3295119004
 11
336.8663979214
 21
364.3295119004
  0
LINE
  8
1
  6
CONTINUOUS
 10
336.8663979214
 20
363.7507069346
 11
336.8663979214
 21
364.1607900876
  0
LINE
  8
1
  6
CONTINUOUS
 10
336.8663979214
 20
364.1607900876
 11
336.275046128
 21
364.1607900876
  0
LINE
  8
1
  6
CONTINUOUS
 10
336.275046128
 20
364.1607900876
 11
336.275046128
 21
364.3295119004
  0
LINE
  8
1
  6
CONTINUOUS
 10
336.275046128
 20
364.3295119004
 11
336.8723411554
 21
365.4884425506
  0
LINE
  8
1
  6
CONTINUOUS
 10
336.8723411554
 20
365.4884425506
 11
337.0773827320001
 21
365.4884425506
  0
LINE
  8
1
  6
CONTINUOUS
 10
337.0773827320001
 20
365.4884425506
 11
337.0773827320001
 21
364.3295119004
  0
LINE
  8
1
  6
CONTINUOUS
 10
337.0773827320001
 20
364.3295119004
 11
337.2645946064
 21
364.3295119004
  0
LINE
  8
1
  6
CONTINUOUS
 10
305.4273208642
 20
392.2757820328
 11
304.0773208642
 21
392.2757820328
  0
LINE
  8
1
  6
CONTINUOUS
 10
307.4273208642
 20
389.2757820328
 11
308.7773208642
 21
389.2757820328
  0
LINE
  8
1
  6
CONTINUOUS
 10
307.4273208642
 20
392.2757820328
 11
306.4273208642
 21
390.3527051098
  0
LINE
  8
1
  6
CONTINUOUS
 10
308.7773208642
 20
389.2757820328
 11
308.7773208642
 21
389.7757820328
  0
LINE
  8
1
  6
CONTINUOUS
 10
304.3773208642
 20
391.7757820328
 11
304.3773208642
 21
389.7757820328
  0
LINE
  8
1
  6
CONTINUOUS
 10
304.3773208642
 20
389.7757820328
 11
304.0773208642
 21
389.7757820328
  0
LINE
  8
1
  6
CONTINUOUS
 10
304.0773208642
 20
391.7757820328
 11
304.3773208642
 21
391.7757820328
  0
LINE
  8
1
  6
CONTINUOUS
 10
304.0773208642
 20
392.2757820328
 11
304.0773208642
 21
391.7757820328
  0
LINE
  8
1
  6
CONTINUOUS
 10
306.4273208642
 20
390.3527051098
 11
305.4273208642
 21
392.2757820328
  0
LINE
  8
1
  6
CONTINUOUS
 10
308.7773208642
 20
392.2757820328
 11
307.4273208642
 21
392.2757820328
  0
LINE
  8
1
  6
CONTINUOUS
 10
308.7773208642
 20
391.7757820328
 11
308.7773208642
 21
392.2757820328
  0
LINE
  8
1
  6
CONTINUOUS
 10
308.4773208642
 20
391.7757820328
 11
308.7773208642
 21
391.7757820328
  0
LINE
  8
1
  6
CONTINUOUS
 10
308.4773208642
 20
389.7757820328
 11
308.4773208642
 21
391.7757820328
  0
LINE
  8
1
  6
CONTINUOUS
 10
308.7773208642
 20
389.7757820328
 11
308.4773208642
 21
389.7757820328
  0
LINE
  8
1
  6
CONTINUOUS
 10
307.7273208642
 20
389.7757820328
 11
307.4273208642
 21
389.7757820328
  0
LINE
  8
1
  6
CONTINUOUS
 10
307.7273208642
 20
391.7757820328
 11
307.7273208642
 21
389.7757820328
  0
LINE
  8
1
  6
CONTINUOUS
 10
306.4273208642
 20
389.2757820328
 11
307.7273208642
 21
391.7757820328
  0
LINE
  8
1
  6
CONTINUOUS
 10
305.1273208642
 20
391.7757820328
 11
306.4273208642
 21
389.2757820328
  0
LINE
  8
1
  6
CONTINUOUS
 10
305.1273208642
 20
389.7757820328
 11
305.1273208642
 21
391.7757820328
  0
LINE
  8
1
  6
CONTINUOUS
 10
305.4273208642
 20
389.7757820328
 11
305.1273208642
 21
389.7757820328
  0
LINE
  8
1
  6
CONTINUOUS
 10
305.4273208642
 20
389.2757820328
 11
305.4273208642
 21
389.7757820328
  0
LINE
  8
1
  6
CONTINUOUS
 10
304.0773208642
 20
389.2757820328
 11
305.4273208642
 21
389.2757820328
  0
LINE
  8
1
  6
CONTINUOUS
 10
307.4273208642
 20
389.7757820328
 11
307.4273208642
 21
389.2757820328
  0
LINE
  8
1
  6
CONTINUOUS
 10
304.0773208642
 20
389.7757820328
 11
304.0773208642
 21
389.2757820328
  0
ARC
  8
1
  6
CONTINUOUS
 10
325.3273208642
 20
327.21912206
 40
1.999999999999943
 50
179.9999999999984
 51
270.0
  0
LINE
  8
1
  6
CONTINUOUS
 10
323.3273208642
 20
335.21912206
 11
323.3273208642
 21
327.21912206
  0
ARC
  8
1
  6
CONTINUOUS
 10
325.3273208642
 20
335.2191220600001
 40
1.999999999999943
 50
90.0
 51
180.0000000000016
  0
LINE
  8
1
  6
CONTINUOUS
 10
333.3273208642
 20
337.21912206
 11
325.3273208642
 21
337.21912206
  0
ARC
  8
1
  6
CONTINUOUS
 10
333.3273208642001
 20
335.2191220600001
 40
1.999999999999943
 50
359.9999999999984
 51
90.0
  0
LINE
  8
1
  6
CONTINUOUS
 10
335.3273208642
 20
327.21912206
 11
335.3273208642
 21
335.21912206
  0
LINE
  8
1
  6
CONTINUOUS
 10
325.3273208642
 20
325.21912206
 11
333.3273208642
 21
325.21912206
  0
ARC
  8
1
  6
CONTINUOUS
 10
333.3273208642001
 20
327.21912206
 40
1.999999999999943
 50
270.0
 51
1.628443996909367E-012
  0
LINE
  8
1
  6
CONTINUOUS
 10
348.3273208642
 20
352.21912206
 11
340.3273208642
 21
352.21912206
  0
LINE
  8
1
  6
CONTINUOUS
 10
350.3273208642
 20
342.21912206
 11
350.3273208642
 21
350.21912206
  0
ARC
  8
1
  6
CONTINUOUS
 10
348.3273208642001
 20
342.21912206
 40
1.999999999999943
 50
270.0
 51
1.628443996909367E-012
  0
ARC
  8
1
  6
CONTINUOUS
 10
340.3273208642
 20
342.21912206
 40
1.999999999999943
 50
179.9999999999984
 51
270.0
  0
ARC
  8
1
  6
CONTINUOUS
 10
348.3273208642001
 20
350.2191220600001
 40
1.999999999999943
 50
359.9999999999984
 51
90.0
  0
LINE
  8
1
  6
CONTINUOUS
 10
338.3273208642
 20
350.21912206
 11
338.3273208642
 21
342.21912206
  0
ARC
  8
1
  6
CONTINUOUS
 10
340.3273208642
 20
350.2191220600001
 40
1.999999999999943
 50
90.0
 51
180.0000000000016
  0
LINE
  8
1
  6
CONTINUOUS
 10
340.3273208642
 20
340.21912206
 11
348.3273208642
 21
340.21912206
  0
ARC
  8
1
  6
CONTINUOUS
 10
325.3273208642
 20
320.2191220600001
 40
1.999999999999943
 50
90.0
 51
180.0000000000016
  0
ARC
  8
1
  6
CONTINUOUS
 10
333.3273208642001
 20
320.2191220600001
 40
1.999999999999943
 50
359.9999999999984
 51
90.0
  0
ARC
  8
1
  6
CONTINUOUS
 10
333.3273208642001
 20
312.21912206
 40
1.999999999999943
 50
270.0
 51
1.628443996909367E-012
  0
LINE
  8
1
  6
CONTINUOUS
 10
325.3273208642
 20
310.21912206
 11
333.3273208642
 21
310.21912206
  0
LINE
  8
1
  6
CONTINUOUS
 10
323.3273208642
 20
320.21912206
 11
323.3273208642
 21
312.21912206
  0
ARC
  8
1
  6
CONTINUOUS
 10
325.3273208642
 20
312.21912206
 40
1.999999999999943
 50
179.9999999999984
 51
270.0
  0
LINE
  8
1
  6
CONTINUOUS
 10
335.3273208642
 20
312.21912206
 11
335.3273208642
 21
320.21912206
  0
LINE
  8
1
  6
CONTINUOUS
 10
333.3273208642
 20
322.21912206
 11
325.3273208642
 21
322.21912206
  0
ARC
  8
1
  6
CONTINUOUS
 10
325.3273208642
 20
342.21912206
 40
1.999999999999943
 50
179.9999999999984
 51
270.0
  0
ARC
  8
1
  6
CONTINUOUS
 10
333.3273208642001
 20
350.2191220600001
 40
1.999999999999943
 50
359.9999999999984
 51
90.0
  0
LINE
  8
1
  6
CONTINUOUS
 10
325.3273208642
 20
340.21912206
 11
333.3273208642
 21
340.21912206
  0
ARC
  8
1
  6
CONTINUOUS
 10
333.3273208642001
 20
342.21912206
 40
1.999999999999943
 50
270.0
 51
1.628443996909367E-012
  0
LINE
  8
1
  6
CONTINUOUS
 10
323.3273208642
 20
350.21912206
 11
323.3273208642
 21
342.21912206
  0
LINE
  8
1
  6
CONTINUOUS
 10
335.3273208642
 20
342.21912206
 11
335.3273208642
 21
350.21912206
  0
ARC
  8
1
  6
CONTINUOUS
 10
325.3273208642
 20
350.2191220600001
 40
1.999999999999943
 50
90.0
 51
180.0000000000016
  0
LINE
  8
1
  6
CONTINUOUS
 10
333.3273208642
 20
352.21912206
 11
325.3273208642
 21
352.21912206
  0
ARC
  8
1
  6
CONTINUOUS
 10
348.3273208642001
 20
320.2191220600001
 40
1.999999999999943
 50
359.9999999999984
 51
90.0
  0
LINE
  8
1
  6
CONTINUOUS
 10
350.3273208642
 20
312.21912206
 11
350.3273208642
 21
320.21912206
  0
ARC
  8
1
  6
CONTINUOUS
 10
340.3273208642
 20
320.2191220600001
 40
1.999999999999943
 50
90.0
 51
180.0000000000016
  0
LINE
  8
1
  6
CONTINUOUS
 10
348.3273208642
 20
322.21912206
 11
340.3273208642
 21
322.21912206
  0
LINE
  8
1
  6
CONTINUOUS
 10
340.3273208642
 20
310.21912206
 11
348.3273208642
 21
310.21912206
  0
ARC
  8
1
  6
CONTINUOUS
 10
340.3273208642
 20
312.21912206
 40
1.999999999999943
 50
179.9999999999984
 51
270.0
  0
LINE
  8
1
  6
CONTINUOUS
 10
338.3273208642
 20
320.21912206
 11
338.3273208642
 21
312.21912206
  0
ARC
  8
1
  6
CONTINUOUS
 10
348.3273208642001
 20
312.21912206
 40
1.999999999999943
 50
270.0
 51
1.628443996909367E-012
  0
ARC
  8
1
  6
CONTINUOUS
 10
340.3273208642
 20
327.21912206
 40
1.999999999999943
 50
179.9999999999984
 51
270.0
  0
LINE
  8
1
  6
CONTINUOUS
 10
340.3273208642
 20
325.21912206
 11
348.3273208642
 21
325.21912206
  0
ARC
  8
1
  6
CONTINUOUS
 10
348.3273208642001
 20
327.21912206
 40
1.999999999999943
 50
270.0
 51
1.628443996909367E-012
  0
ARC
  8
1
  6
CONTINUOUS
 10
348.3273208642001
 20
335.2191220600001
 40
1.999999999999943
 50
359.9999999999984
 51
90.0
  0
LINE
  8
1
  6
CONTINUOUS
 10
348.3273208642
 20
337.21912206
 11
340.3273208642
 21
337.21912206
  0
ARC
  8
1
  6
CONTINUOUS
 10
340.3273208642
 20
335.2191220600001
 40
1.999999999999943
 50
90.0
 51
180.0000000000016
  0
LINE
  8
1
  6
CONTINUOUS
 10
338.3273208642
 20
335.21912206
 11
338.3273208642
 21
327.21912206
  0
LINE
  8
1
  6
CONTINUOUS
 10
350.3273208642
 20
327.21912206
 11
350.3273208642
 21
335.21912206
  0
LINE
  8
1
  6
CONTINUOUS
 10
350.6773208642
 20
363.0757820328
 11
350.6773208642
 21
368.5757820328
  0
LINE
  8
1
  6
CONTINUOUS
 10
350.6773208642
 20
368.5757820328
 11
343.1773208642
 21
368.5757820328
  0
LINE
  8
1
  6
CONTINUOUS
 10
343.1773208642
 20
368.5757820328
 11
343.1773208642
 21
363.0757820328
  0
LINE
  8
1
  6
CONTINUOUS
 10
343.1773208642
 20
363.0757820328
 11
350.6773208642
 21
363.0757820328
  0
LINE
  8
1
  6
CONTINUOUS
 10
302.6273208642
 20
358.3757820328
 11
305.6273208642
 21
358.3757820328
  0
LINE
  8
1
  6
CONTINUOUS
 10
305.6273208642
 20
358.3757820328
 11
305.6273208642
 21
360.3757820328
  0
LINE
  8
1
  6
CONTINUOUS
 10
313.6273208642
 20
360.3757820328
 11
310.6273208642
 21
360.3757820328
  0
LINE
  8
1
  6
CONTINUOUS
 10
310.6273208642
 20
360.3757820328
 11
310.6273208642
 21
358.3757820328
  0
LINE
  8
1
  6
CONTINUOUS
 10
297.4273208642
 20
370.8257820328
 11
350.9273208642
 21
370.8257820328
  0
LINE
  8
1
  6
CONTINUOUS
 10
318.6273208642
 20
358.3757820328
 11
321.6273208642
 21
358.3757820328
  0
LINE
  8
1
  6
CONTINUOUS
 10
305.6273208642
 20
360.3757820328
 11
302.6273208642
 21
360.3757820328
  0
LINE
  8
1
  6
CONTINUOUS
 10
329.9273208642
 20
392.8257820328
 11
329.9273208642
 21
393.5757820328
  0
LINE
  8
1
  6
CONTINUOUS
 10
297.4273208642
 20
386.8257820328
 11
297.4273208642
 21
370.8257820328
  0
LINE
  8
1
  6
CONTINUOUS
 10
318.4273208642
 20
393.5757820328
 11
318.4273208642
 21
392.8257820328
  0
LINE
  8
1
  6
CONTINUOUS
 10
351.9273208642
 20
395.5757820328
 11
331.9273208642
 21
395.5757820328
  0
LINE
  8
1
  6
CONTINUOUS
 10
351.1773208642
 20
362.5757820328
 11
351.1773208642
 21
369.0757820328
  0
LINE
  8
1
  6
CONTINUOUS
 10
351.1773208642
 20
369.0757820328
 11
342.6773208642
 21
369.0757820328
  0
LINE
  8
1
  6
CONTINUOUS
 10
342.6773208642
 20
369.0757820328
 11
342.6773208642
 21
362.5757820328
  0
LINE
  8
1
  6
CONTINUOUS
 10
326.6273208642
 20
368.3757820328
 11
326.6273208642
 21
366.3757820328
  0
ARC
  8
1
  6
CONTINUOUS
 10
331.9273208641999
 20
393.5757820328001
 40
1.999999999999943
 50
90.0
 51
180.0000000000016
  0
ARC
  8
1
  6
CONTINUOUS
 10
316.4273208642001
 20
393.5757820328001
 40
1.999999999999943
 50
359.9999999999984
 51
90.0
  0
LINE
  8
1
  6
CONTINUOUS
 10
321.6273208642
 20
358.3757820328
 11
321.6273208642
 21
360.3757820328
  0
ARC
  8
1
  6
CONTINUOUS
 10
296.4273208641999
 20
356.0757820328
 40
1.999999999999943
 50
179.9999999999984
 51
270.0
  0
LINE
  8
1
  6
CONTINUOUS
 10
294.4273208642
 20
393.5757820328
 11
294.4273208642
 21
356.0757820328
  0
ARC
  8
1
  6
CONTINUOUS
 10
296.4273208641999
 20
393.5757820328001
 40
1.999999999999943
 50
90.0
 51
180.0000000000016
  0
LINE
  8
1
  6
CONTINUOUS
 10
310.6273208642
 20
366.3757820328
 11
313.6273208642
 21
366.3757820328
  0
LINE
  8
1
  6
CONTINUOUS
 10
302.6273208642
 20
360.3757820328
 11
302.6273208642
 21
358.3757820328
  0
LINE
  8
1
  6
CONTINUOUS
 10
326.6273208642
 20
366.3757820328
 11
329.6273208642
 21
366.3757820328
  0
LINE
  8
1
  6
CONTINUOUS
 10
337.6273208642
 20
368.3757820328
 11
334.6273208642
 21
368.3757820328
  0
ARC
  8
1
  6
CONTINUOUS
 10
324.1773208642
 20
392.8257820328
 40
5.75
 50
180.0
 51
0.0
  0
LINE
  8
1
  6
CONTINUOUS
 10
337.6273208642
 20
366.3757820328
 11
337.6273208642
 21
368.3757820328
  0
LINE
  8
1
  6
CONTINUOUS
 10
334.6273208642
 20
366.3757820328
 11
337.6273208642
 21
366.3757820328
  0
LINE
  8
1
  6
CONTINUOUS
 10
322.4273208642
 20
308.0757820328
 11
351.9273208642
 21
308.0757820328
  0
LINE
  8
1
  6
CONTINUOUS
 10
329.6273208642
 20
366.3757820328
 11
329.6273208642
 21
368.3757820328
  0
LINE
  8
1
  6
CONTINUOUS
 10
321.6273208642
 20
360.3757820328
 11
318.6273208642
 21
360.3757820328
  0
LINE
  8
1
  6
CONTINUOUS
 10
318.6273208642
 20
368.3757820328
 11
318.6273208642
 21
366.3757820328
  0
LINE
  8
1
  6
CONTINUOUS
 10
318.6273208642
 20
366.3757820328
 11
321.6273208642
 21
366.3757820328
  0
LINE
  8
1
  6
CONTINUOUS
 10
321.6273208642
 20
366.3757820328
 11
321.6273208642
 21
368.3757820328
  0
LINE
  8
1
  6
CONTINUOUS
 10
350.9273208642
 20
386.8257820328
 11
297.4273208642
 21
386.8257820328
  0
LINE
  8
1
  6
CONTINUOUS
 10
350.9273208642
 20
370.8257820328
 11
350.9273208642
 21
386.8257820328
  0
LINE
  8
1
  6
CONTINUOUS
 10
310.6273208642
 20
368.3757820328
 11
310.6273208642
 21
366.3757820328
  0
LINE
  8
1
  6
CONTINUOUS
 10
302.6273208642
 20
366.3757820328
 11
305.6273208642
 21
366.3757820328
  0
LINE
  8
1
  6
CONTINUOUS
 10
305.6273208642
 20
366.3757820328
 11
305.6273208642
 21
368.3757820328
  0
LINE
  8
1
  6
CONTINUOUS
 10
302.6273208642
 20
368.3757820328
 11
302.6273208642
 21
366.3757820328
  0
LINE
  8
1
  6
CONTINUOUS
 10
334.6273208642
 20
360.3757820328
 11
334.6273208642
 21
358.3757820328
  0
LINE
  8
1
  6
CONTINUOUS
 10
353.9273208642
 20
310.0757820328
 11
353.9273208642
 21
393.5757820328
  0
ARC
  8
1
  6
CONTINUOUS
 10
351.9273208642001
 20
310.0757820328
 40
1.999999999999943
 50
270.0
 51
1.628443996909367E-012
  0
LINE
  8
1
  6
CONTINUOUS
 10
337.6273208642
 20
358.3757820328
 11
337.6273208642
 21
360.3757820328
  0
LINE
  8
1
  6
CONTINUOUS
 10
329.6273208642
 20
368.3757820328
 11
326.6273208642
 21
368.3757820328
  0
LINE
  8
1
  6
CONTINUOUS
 10
320.4273208642
 20
352.5757820328
 11
320.4273208642
 21
310.0757820328
  0
LINE
  8
1
  6
CONTINUOUS
 10
329.6273208642
 20
358.3757820328
 11
329.6273208642
 21
360.3757820328
  0
LINE
  8
1
  6
CONTINUOUS
 10
296.4273208642
 20
354.0757820328
 11
318.9273208642
 21
354.0757820328
  0
LINE
  8
1
  6
CONTINUOUS
 10
318.6273208642
 20
360.3757820328
 11
318.6273208642
 21
358.3757820328
  0
LINE
  8
1
  6
CONTINUOUS
 10
321.6273208642
 20
368.3757820328
 11
318.6273208642
 21
368.3757820328
  0
LINE
  8
1
  6
CONTINUOUS
 10
342.6773208642
 20
362.5757820328
 11
351.1773208642
 21
362.5757820328
  0
LINE
  8
1
  6
CONTINUOUS
 10
313.6273208642
 20
366.3757820328
 11
313.6273208642
 21
368.3757820328
  0
LINE
  8
1
  6
CONTINUOUS
 10
313.6273208642
 20
358.3757820328
 11
313.6273208642
 21
360.3757820328
  0
LINE
  8
1
  6
CONTINUOUS
 10
334.6273208642
 20
368.3757820328
 11
334.6273208642
 21
366.3757820328
  0
LINE
  8
1
  6
CONTINUOUS
 10
326.6273208642
 20
358.3757820328
 11
329.6273208642
 21
358.3757820328
  0
LINE
  8
1
  6
CONTINUOUS
 10
316.4273208642
 20
395.5757820328
 11
296.4273208642
 21
395.5757820328
  0
LINE
  8
1
  6
CONTINUOUS
 10
337.6273208642
 20
360.3757820328
 11
334.6273208642
 21
360.3757820328
  0
ARC
  8
1
  6
CONTINUOUS
 10
351.9273208642001
 20
393.5757820328001
 40
1.999999999999943
 50
359.9999999999984
 51
90.0
  0
ARC
  8
1
  6
CONTINUOUS
 10
322.4273208641999
 20
310.0757820328
 40
1.999999999999943
 50
179.9999999999984
 51
270.0
  0
LINE
  8
1
  6
CONTINUOUS
 10
326.6273208642
 20
360.3757820328
 11
326.6273208642
 21
358.3757820328
  0
ARC
  8
1
  6
CONTINUOUS
 10
318.9273208642001
 20
352.5757820328
 40
1.499999999999943
 50
0.0
 51
90.0
  0
LINE
  8
1
  6
CONTINUOUS
 10
329.6273208642
 20
360.3757820328
 11
326.6273208642
 21
360.3757820328
  0
LINE
  8
1
  6
CONTINUOUS
 10
305.6273208642
 20
368.3757820328
 11
302.6273208642
 21
368.3757820328
  0
LINE
  8
1
  6
CONTINUOUS
 10
313.6273208642
 20
368.3757820328
 11
310.6273208642
 21
368.3757820328
  0
LINE
  8
1
  6
CONTINUOUS
 10
310.6273208642
 20
358.3757820328
 11
313.6273208642
 21
358.3757820328
  0
LINE
  8
1
  6
CONTINUOUS
 10
334.6273208642
 20
358.3757820328
 11
337.6273208642
 21
358.3757820328
  0
LINE
  8
1
  6
CONTINUOUS
 10
308.2273208642
 20
372.3257820328
 11
308.2273208642
 21
385.3257820328
  0
LINE
  8
1
  6
CONTINUOUS
 10
300.7273208642
 20
377.8257820328
 11
300.7273208642
 21
379.8257820328
  0
LINE
  8
1
  6
CONTINUOUS
 10
347.2273208642
 20
372.3257820328
 11
308.2273208642
 21
372.3257820328
  0
LINE
  8
1
  6
CONTINUOUS
 10
347.2273208642
 20
385.3257820328
 11
347.2273208642
 21
372.3257820328
  0
LINE
  8
1
  6
CONTINUOUS
 10
308.2273208642
 20
385.3257820328
 11
347.2273208642
 21
385.3257820328
  0
LINE
  8
1
  6
CONTINUOUS
 10
300.7273208642
 20
379.8257820328
 11
304.7273208642
 21
379.8257820328
  0
LINE
  8
1
  6
CONTINUOUS
 10
304.7273208642
 20
377.8257820328
 11
300.7273208642
 21
377.8257820328
  0
LINE
  8
1
  6
CONTINUOUS
 10
304.7273208642
 20
379.8257820328
 11
304.7273208642
 21
377.8257820328
  0
LINE
  8
1
  6
CONTINUOUS
 10
304.6773208642
 20
203.3257820328
 11
304.6773208642
 21
206.3257820328
  0
ARC
  8
1
  6
CONTINUOUS
 10
305.6773208642
 20
409.3257820328
 40
1.0
 50
90.0
 51
180.0
  0
ARC
  8
1
  6
CONTINUOUS
 10
299.6773208642
 20
409.3257820328
 40
1.0
 50
0.0
 51
90.0
  0
ARC
  8
1
  6
CONTINUOUS
 10
348.6773208642
 20
203.3257820328
 40
1.0
 50
179.9999999999984
 51
270.0
  0
ARC
  8
1
  6
CONTINUOUS
 10
342.6773208642
 20
203.3257820328
 40
0.9999999999999716
 50
270.0
 51
1.628443996909413E-012
  0
LINE
  8
1
  6
CONTINUOUS
 10
347.6773208642
 20
203.3257820328
 11
347.6773208642
 21
206.3257820328
  0
ARC
  8
1
  6
CONTINUOUS
 10
342.6773208642
 20
409.3257820328
 40
1.0
 50
0.0
 51
90.0
  0
ARC
  8
1
  6
CONTINUOUS
 10
348.6773208642
 20
409.3257820328
 40
1.0
 50
90.0
 51
180.0
  0
LINE
  8
1
  6
CONTINUOUS
 10
290.6773208642
 20
408.3257820328
 11
290.6773208642
 21
396.8285229634
  0
LINE
  8
1
  6
CONTINUOUS
 10
290.6773208642
 20
215.8230411024
 11
290.6773208642
 21
204.3257820328
  0
ARC
  8
1
  6
CONTINUOUS
 10
292.6773208641999
 20
204.3257820328
 40
1.999999999999943
 50
179.9999999999992
 51
270.0
  0
LINE
  8
1
  6
CONTINUOUS
 10
300.6773208642
 20
206.3257820328
 11
300.6773208642
 21
203.3257820328
  0
ARC
  8
1
  6
CONTINUOUS
 10
302.6773208642
 20
206.3257820328
 40
2.0
 50
0.0
 51
180.0
  0
LINE
  8
1
  6
CONTINUOUS
 10
343.6773208642
 20
206.3257820328
 11
343.6773208642
 21
203.3257820328
  0
ARC
  8
1
  6
CONTINUOUS
 10
345.6773208642
 20
206.3257820328
 40
2.0
 50
0.0
 51
180.0
  0
ARC
  8
1
  6
CONTINUOUS
 10
355.6773208642001
 20
408.3257820328001
 40
1.999999999999943
 50
359.9999999999984
 51
90.0
  0
LINE
  8
1
  6
CONTINUOUS
 10
300.6773208642
 20
409.3257820328
 11
300.6773208642
 21
406.3257820328
  0
LINE
  8
1
  6
CONTINUOUS
 10
304.6773208642
 20
406.3257820328
 11
304.6773208642
 21
409.3257820328
  0
ARC
  8
1
  6
CONTINUOUS
 10
302.6773208642
 20
406.3257820328
 40
2.0
 50
180.0
 51
0.0
  0
LINE
  8
1
  6
CONTINUOUS
 10
347.6773208642
 20
406.3257820328
 11
347.6773208642
 21
409.3257820328
  0
ARC
  8
1
  6
CONTINUOUS
 10
345.6773208642
 20
406.3257820328
 40
2.0
 50
180.0
 51
0.0
  0
LINE
  8
1
  6
CONTINUOUS
 10
343.6773208642
 20
409.3257820328
 11
343.6773208642
 21
406.3257820328
  0
ARC
  8
1
  6
CONTINUOUS
 10
305.6773208642
 20
203.3257820328
 40
1.0
 50
179.9999999999984
 51
270.0
  0
LINE
  8
1
  6
CONTINUOUS
 10
342.6773208642
 20
410.3257820328
 11
305.6773208642
 21
410.3257820328
  0
LINE
  8
1
  6
CONTINUOUS
 10
355.6773208642
 20
410.3257820328
 11
348.6773208642
 21
410.3257820328
  0
ARC
  8
1
  6
CONTINUOUS
 10
292.6773208641999
 20
408.3257820328001
 40
1.999999999999943
 50
90.0
 51
180.0000000000016
  0
LINE
  8
1
  6
CONTINUOUS
 10
299.6773208642
 20
410.3257820328
 11
292.6773208642
 21
410.3257820328
  0
LINE
  8
1
  6
CONTINUOUS
 10
357.6773208642
 20
204.3257820328
 11
357.6773208642
 21
215.8230411024
  0
LINE
  8
1
  6
CONTINUOUS
 10
357.6773208642
 20
396.8285229634
 11
357.6773208642
 21
408.3257820328
  0
LINE
  8
1
  6
CONTINUOUS
 10
348.6773208642
 20
202.3257820328
 11
355.6773208642
 21
202.3257820328
  0
LINE
  8
1
  6
CONTINUOUS
 10
305.6773208642
 20
202.3257820328
 11
342.6773208642
 21
202.3257820328
  0
ARC
  8
1
  6
CONTINUOUS
 10
355.6773208642001
 20
204.3257820328
 40
1.999999999999972
 50
270.0
 51
8.142219984546603E-013
  0
ARC
  8
1
  6
CONTINUOUS
 10
299.6773208642
 20
203.3257820328
 40
0.9999999999999716
 50
270.0
 51
1.628443996909413E-012
  0
LINE
  8
1
  6
CONTINUOUS
 10
292.6773208642
 20
202.3257820328
 11
299.6773208642
 21
202.3257820328
  0
LINE
  8
1
  6
CONTINUOUS
 10
317.6773208642
 20
230.535242812
 11
317.6773208642
 21
352.6163212538
  0
LINE
  8
1
  6
CONTINUOUS
 10
298.2773208642
 20
351.9257820328
 11
299.2773208642
 21
351.9257820328
  0
LINE
  8
1
  6
CONTINUOUS
 10
318.6356924214
 20
378.614457225
 11
318.017781859
 21
378.0959687
  0
LINE
  8
1
  6
CONTINUOUS
 10
319.0397285224
 20
378.13294575
 11
318.6356924214
 21
378.614457225
  0
LINE
  8
1
  6
CONTINUOUS
 10
318.6734356014
 20
376.0555953658
 11
319.0397285224
 21
378.13294575
  0
LINE
  8
1
  6
CONTINUOUS
 10
317.4816820088
 20
375.0555953658
 11
318.6734356014
 21
376.0555953658
  0
LINE
  8
1
  6
CONTINUOUS
 10
318.017781859
 20
378.0959687
 11
317.4816820088
 21
375.0555953658
  0
LINE
  8
1
  6
CONTINUOUS
 10
341.1356924214
 20
378.614457225
 11
340.517781859
 21
378.0959687
  0
LINE
  8
1
  6
CONTINUOUS
 10
341.5397285224
 20
378.13294575
 11
341.1356924214
 21
378.614457225
  0
LINE
  8
1
  6
CONTINUOUS
 10
341.1734356014
 20
376.0555953658
 11
341.5397285224
 21
378.13294575
  0
LINE
  8
1
  6
CONTINUOUS
 10
339.9816820088
 20
375.0555953658
 11
341.1734356014
 21
376.0555953658
  0
LINE
  8
1
  6
CONTINUOUS
 10
340.517781859
 20
378.0959687
 11
339.9816820088
 21
375.0555953658
  0
LINE
  8
1
  6
CONTINUOUS
 10
319.4834163168
 20
379.3257820328
 11
318.8655057544
 21
378.8072935078
  0
LINE
  8
1
  6
CONTINUOUS
 10
321.0850998732
 20
379.3257820328
 11
319.4834163168
 21
379.3257820328
  0
LINE
  8
1
  6
CONTINUOUS
 10
321.4891359742
 20
378.844270558
 11
321.0850998732
 21
379.3257820328
  0
LINE
  8
1
  6
CONTINUOUS
 10
320.8712254118
 20
378.3257820328
 11
321.4891359742
 21
378.844270558
  0
LINE
  8
1
  6
CONTINUOUS
 10
319.2695418554
 20
378.3257820328
 11
320.8712254118
 21
378.3257820328
  0
LINE
  8
1
  6
CONTINUOUS
 10
318.8655057544
 20
378.8072935078
 11
319.2695418554
 21
378.3257820328
  0
LINE
  8
1
  6
CONTINUOUS
 10
343.5850998732
 20
379.3257820328
 11
341.9834163168
 21
379.3257820328
  0
LINE
  8
1
  6
CONTINUOUS
 10
341.7695418554
 20
378.3257820328
 11
343.3712254118
 21
378.3257820328
  0
LINE
  8
1
  6
CONTINUOUS
 10
341.9834163168
 20
379.3257820328
 11
341.3655057544
 21
378.8072935078
  0
LINE
  8
1
  6
CONTINUOUS
 10
341.3655057544
 20
378.8072935078
 11
341.7695418554
 21
378.3257820328
  0
LINE
  8
1
  6
CONTINUOUS
 10
343.9891359742
 20
378.844270558
 11
343.5850998732
 21
379.3257820328
  0
LINE
  8
1
  6
CONTINUOUS
 10
343.3712254118
 20
378.3257820328
 11
343.9891359742
 21
378.844270558
  0
LINE
  8
1
  6
CONTINUOUS
 10
334.0475866568
 20
382.8257820328
 11
334.886686288
 21
381.8257820328
  0
LINE
  8
1
  6
CONTINUOUS
 10
337.6801234368
 20
382.8257820328
 11
334.0475866568
 21
382.8257820328
  0
LINE
  8
1
  6
CONTINUOUS
 10
336.4883698442
 20
381.8257820328
 11
337.6801234368
 21
382.8257820328
  0
LINE
  8
1
  6
CONTINUOUS
 10
334.886686288
 20
381.8257820328
 11
336.4883698442
 21
381.8257820328
  0
LINE
  8
1
  6
CONTINUOUS
 10
337.3368598696
 20
379.5555953658
 11
337.8729597198
 21
382.5959687
  0
LINE
  8
1
  6
CONTINUOUS
 10
336.7189493072
 20
379.0371068408
 11
337.3368598696
 21
379.5555953658
  0
LINE
  8
1
  6
CONTINUOUS
 10
336.314913206
 20
379.5186183158
 11
336.7189493072
 21
379.0371068408
  0
LINE
  8
1
  6
CONTINUOUS
 10
337.8729597198
 20
382.5959687
 11
336.6812061272
 21
381.5959687
  0
LINE
  8
1
  6
CONTINUOUS
 10
336.6812061272
 20
381.5959687
 11
336.314913206
 21
379.5186183158
  0
LINE
  8
1
  6
CONTINUOUS
 10
319.2905800338
 20
379.5555953658
 11
319.656872955
 21
381.63294575
  0
LINE
  8
1
  6
CONTINUOUS
 10
319.656872955
 20
381.63294575
 11
318.8177733238
 21
382.63294575
  0
LINE
  8
1
  6
CONTINUOUS
 10
318.2686333704
 20
379.5186183158
 11
318.6726694714
 21
379.0371068408
  0
LINE
  8
1
  6
CONTINUOUS
 10
318.6726694714
 20
379.0371068408
 11
319.2905800338
 21
379.5555953658
  0
LINE
  8
1
  6
CONTINUOUS
 10
318.8177733238
 20
382.63294575
 11
318.2686333704
 21
379.5186183158
  0
LINE
  8
1
  6
CONTINUOUS
 10
341.3177733238
 20
382.63294575
 11
340.7686333704
 21
379.5186183158
  0
LINE
  8
1
  6
CONTINUOUS
 10
342.156872955
 20
381.63294575
 11
341.3177733238
 21
382.63294575
  0
LINE
  8
1
  6
CONTINUOUS
 10
341.7905800338
 20
379.5555953658
 11
342.156872955
 21
381.63294575
  0
LINE
  8
1
  6
CONTINUOUS
 10
341.1726694714
 20
379.0371068408
 11
341.7905800338
 21
379.5555953658
  0
LINE
  8
1
  6
CONTINUOUS
 10
340.7686333704
 20
379.5186183158
 11
341.1726694714
 21
379.0371068408
  0
LINE
  8
1
  6
CONTINUOUS
 10
344.8368598696
 20
379.5555953658
 11
345.3729597198
 21
382.5959687
  0
LINE
  8
1
  6
CONTINUOUS
 10
344.2189493072
 20
379.0371068408
 11
344.8368598696
 21
379.5555953658
  0
LINE
  8
1
  6
CONTINUOUS
 10
343.814913206
 20
379.5186183158
 11
344.2189493072
 21
379.0371068408
  0
LINE
  8
1
  6
CONTINUOUS
 10
344.1812061272
 20
381.5959687
 11
343.814913206
 21
379.5186183158
  0
LINE
  8
1
  6
CONTINUOUS
 10
345.3729597198
 20
382.5959687
 11
344.1812061272
 21
381.5959687
  0
LINE
  8
1
  6
CONTINUOUS
 10
341.3662718842
 20
375.8257820328
 11
340.1745182916
 21
374.8257820328
  0
LINE
  8
1
  6
CONTINUOUS
 10
342.9679554406
 20
375.8257820328
 11
341.3662718842
 21
375.8257820328
  0
LINE
  8
1
  6
CONTINUOUS
 10
343.8070550718
 20
374.8257820328
 11
342.9679554406
 21
375.8257820328
  0
LINE
  8
1
  6
CONTINUOUS
 10
340.1745182916
 20
374.8257820328
 11
343.8070550718
 21
374.8257820328
  0
LINE
  8
1
  6
CONTINUOUS
 10
345.1801234368
 20
382.8257820328
 11
341.5475866568
 21
382.8257820328
  0
LINE
  8
1
  6
CONTINUOUS
 10
343.9883698442
 20
381.8257820328
 11
345.1801234368
 21
382.8257820328
  0
LINE
  8
1
  6
CONTINUOUS
 10
341.5475866568
 20
382.8257820328
 11
342.386686288
 21
381.8257820328
  0
LINE
  8
1
  6
CONTINUOUS
 10
342.386686288
 20
381.8257820328
 11
343.9883698442
 21
381.8257820328
  0
LINE
  8
1
  6
CONTINUOUS
 10
314.5860083582
 20
378.13294575
 11
314.181972257
 21
378.614457225
  0
LINE
  8
1
  6
CONTINUOUS
 10
314.0368684048
 20
375.0186183158
 11
314.5860083582
 21
378.13294575
  0
LINE
  8
1
  6
CONTINUOUS
 10
313.1977687736
 20
376.0186183158
 11
314.0368684048
 21
375.0186183158
  0
LINE
  8
1
  6
CONTINUOUS
 10
313.5640616946
 20
378.0959687
 11
313.1977687736
 21
376.0186183158
  0
LINE
  8
1
  6
CONTINUOUS
 10
314.181972257
 20
378.614457225
 11
313.5640616946
 21
378.0959687
  0
LINE
  8
1
  6
CONTINUOUS
 10
311.3662718842
 20
375.8257820328
 11
310.1745182916
 21
374.8257820328
  0
LINE
  8
1
  6
CONTINUOUS
 10
312.9679554406
 20
375.8257820328
 11
311.3662718842
 21
375.8257820328
  0
LINE
  8
1
  6
CONTINUOUS
 10
313.8070550718
 20
374.8257820328
 11
312.9679554406
 21
375.8257820328
  0
LINE
  8
1
  6
CONTINUOUS
 10
310.1745182916
 20
374.8257820328
 11
313.8070550718
 21
374.8257820328
  0
LINE
  8
1
  6
CONTINUOUS
 10
334.4834163168
 20
379.3257820328
 11
333.8655057544
 21
378.8072935078
  0
LINE
  8
1
  6
CONTINUOUS
 10
334.2695418554
 20
378.3257820328
 11
335.8712254118
 21
378.3257820328
  0
LINE
  8
1
  6
CONTINUOUS
 10
333.8655057544
 20
378.8072935078
 11
334.2695418554
 21
378.3257820328
  0
LINE
  8
1
  6
CONTINUOUS
 10
335.8712254118
 20
378.3257820328
 11
336.4891359742
 21
378.844270558
  0
LINE
  8
1
  6
CONTINUOUS
 10
336.0850998732
 20
379.3257820328
 11
334.4834163168
 21
379.3257820328
  0
LINE
  8
1
  6
CONTINUOUS
 10
336.4891359742
 20
378.844270558
 11
336.0850998732
 21
379.3257820328
  0
LINE
  8
1
  6
CONTINUOUS
 10
333.8177733238
 20
382.63294575
 11
333.2686333704
 21
379.5186183158
  0
LINE
  8
1
  6
CONTINUOUS
 10
334.656872955
 20
381.63294575
 11
333.8177733238
 21
382.63294575
  0
LINE
  8
1
  6
CONTINUOUS
 10
334.2905800338
 20
379.5555953658
 11
334.656872955
 21
381.63294575
  0
LINE
  8
1
  6
CONTINUOUS
 10
333.6726694714
 20
379.0371068408
 11
334.2905800338
 21
379.5555953658
  0
LINE
  8
1
  6
CONTINUOUS
 10
333.2686333704
 20
379.5186183158
 11
333.6726694714
 21
379.0371068408
  0
LINE
  8
1
  6
CONTINUOUS
 10
311.5397285224
 20
378.13294575
 11
311.1356924214
 21
378.614457225
  0
LINE
  8
1
  6
CONTINUOUS
 10
311.1734356014
 20
376.0555953658
 11
311.5397285224
 21
378.13294575
  0
LINE
  8
1
  6
CONTINUOUS
 10
310.517781859
 20
378.0959687
 11
309.9816820088
 21
375.0555953658
  0
LINE
  8
1
  6
CONTINUOUS
 10
311.1356924214
 20
378.614457225
 11
310.517781859
 21
378.0959687
  0
LINE
  8
1
  6
CONTINUOUS
 10
309.9816820088
 20
375.0555953658
 11
311.1734356014
 21
376.0555953658
  0
LINE
  8
1
  6
CONTINUOUS
 10
329.181972257
 20
378.614457225
 11
328.5640616946
 21
378.0959687
  0
LINE
  8
1
  6
CONTINUOUS
 10
329.5860083582
 20
378.13294575
 11
329.181972257
 21
378.614457225
  0
LINE
  8
1
  6
CONTINUOUS
 10
329.0368684048
 20
375.0186183158
 11
329.5860083582
 21
378.13294575
  0
LINE
  8
1
  6
CONTINUOUS
 10
328.5640616946
 20
378.0959687
 11
328.1977687736
 21
376.0186183158
  0
LINE
  8
1
  6
CONTINUOUS
 10
328.1977687736
 20
376.0186183158
 11
329.0368684048
 21
375.0186183158
  0
LINE
  8
1
  6
CONTINUOUS
 10
337.0860083582
 20
378.13294575
 11
336.681972257
 21
378.614457225
  0
LINE
  8
1
  6
CONTINUOUS
 10
336.5368684048
 20
375.0186183158
 11
337.0860083582
 21
378.13294575
  0
LINE
  8
1
  6
CONTINUOUS
 10
335.6977687736
 20
376.0186183158
 11
336.5368684048
 21
375.0186183158
  0
LINE
  8
1
  6
CONTINUOUS
 10
336.0640616946
 20
378.0959687
 11
335.6977687736
 21
376.0186183158
  0
LINE
  8
1
  6
CONTINUOUS
 10
336.681972257
 20
378.614457225
 11
336.0640616946
 21
378.0959687
  0
LINE
  8
1
  6
CONTINUOUS
 10
326.3662718842
 20
375.8257820328
 11
325.1745182916
 21
374.8257820328
  0
LINE
  8
1
  6
CONTINUOUS
 10
327.9679554406
 20
375.8257820328
 11
326.3662718842
 21
375.8257820328
  0
LINE
  8
1
  6
CONTINUOUS
 10
328.8070550718
 20
374.8257820328
 11
327.9679554406
 21
375.8257820328
  0
LINE
  8
1
  6
CONTINUOUS
 10
325.1745182916
 20
374.8257820328
 11
328.8070550718
 21
374.8257820328
  0
LINE
  8
1
  6
CONTINUOUS
 10
336.3070550718
 20
374.8257820328
 11
335.4679554406
 21
375.8257820328
  0
LINE
  8
1
  6
CONTINUOUS
 10
333.8662718842
 20
375.8257820328
 11
332.6745182916
 21
374.8257820328
  0
LINE
  8
1
  6
CONTINUOUS
 10
335.4679554406
 20
375.8257820328
 11
333.8662718842
 21
375.8257820328
  0
LINE
  8
1
  6
CONTINUOUS
 10
332.6745182916
 20
374.8257820328
 11
336.3070550718
 21
374.8257820328
  0
LINE
  8
1
  6
CONTINUOUS
 10
325.7686333704
 20
379.5186183158
 11
326.1726694714
 21
379.0371068408
  0
LINE
  8
1
  6
CONTINUOUS
 10
326.7905800338
 20
379.5555953658
 11
327.156872955
 21
381.63294575
  0
LINE
  8
1
  6
CONTINUOUS
 10
326.1726694714
 20
379.0371068408
 11
326.7905800338
 21
379.5555953658
  0
LINE
  8
1
  6
CONTINUOUS
 10
326.3177733238
 20
382.63294575
 11
325.7686333704
 21
379.5186183158
  0
LINE
  8
1
  6
CONTINUOUS
 10
327.156872955
 20
381.63294575
 11
326.3177733238
 21
382.63294575
  0
LINE
  8
1
  6
CONTINUOUS
 10
330.3729597198
 20
382.5959687
 11
329.1812061272
 21
381.5959687
  0
LINE
  8
1
  6
CONTINUOUS
 10
329.8368598696
 20
379.5555953658
 11
330.3729597198
 21
382.5959687
  0
LINE
  8
1
  6
CONTINUOUS
 10
329.2189493072
 20
379.0371068408
 11
329.8368598696
 21
379.5555953658
  0
LINE
  8
1
  6
CONTINUOUS
 10
328.814913206
 20
379.5186183158
 11
329.2189493072
 21
379.0371068408
  0
LINE
  8
1
  6
CONTINUOUS
 10
329.1812061272
 20
381.5959687
 11
328.814913206
 21
379.5186183158
  0
LINE
  8
1
  6
CONTINUOUS
 10
326.3655057544
 20
378.8072935078
 11
326.7695418554
 21
378.3257820328
  0
LINE
  8
1
  6
CONTINUOUS
 10
326.9834163168
 20
379.3257820328
 11
326.3655057544
 21
378.8072935078
  0
LINE
  8
1
  6
CONTINUOUS
 10
326.7695418554
 20
378.3257820328
 11
328.3712254118
 21
378.3257820328
  0
LINE
  8
1
  6
CONTINUOUS
 10
328.5850998732
 20
379.3257820328
 11
326.9834163168
 21
379.3257820328
  0
LINE
  8
1
  6
CONTINUOUS
 10
328.9891359742
 20
378.844270558
 11
328.5850998732
 21
379.3257820328
  0
LINE
  8
1
  6
CONTINUOUS
 10
328.3712254118
 20
378.3257820328
 11
328.9891359742
 21
378.844270558
  0
LINE
  8
1
  6
CONTINUOUS
 10
343.1977687736
 20
376.0186183158
 11
344.0368684048
 21
375.0186183158
  0
LINE
  8
1
  6
CONTINUOUS
 10
343.5640616946
 20
378.0959687
 11
343.1977687736
 21
376.0186183158
  0
LINE
  8
1
  6
CONTINUOUS
 10
344.5860083582
 20
378.13294575
 11
344.181972257
 21
378.614457225
  0
LINE
  8
1
  6
CONTINUOUS
 10
344.0368684048
 20
375.0186183158
 11
344.5860083582
 21
378.13294575
  0
LINE
  8
1
  6
CONTINUOUS
 10
344.181972257
 20
378.614457225
 11
343.5640616946
 21
378.0959687
  0
LINE
  8
1
  6
CONTINUOUS
 10
319.0475866568
 20
382.8257820328
 11
319.886686288
 21
381.8257820328
  0
LINE
  8
1
  6
CONTINUOUS
 10
322.6801234368
 20
382.8257820328
 11
319.0475866568
 21
382.8257820328
  0
LINE
  8
1
  6
CONTINUOUS
 10
319.886686288
 20
381.8257820328
 11
321.4883698442
 21
381.8257820328
  0
LINE
  8
1
  6
CONTINUOUS
 10
321.4883698442
 20
381.8257820328
 11
322.6801234368
 21
382.8257820328
  0
LINE
  8
1
  6
CONTINUOUS
 10
334.0397285224
 20
378.13294575
 11
333.6356924214
 21
378.614457225
  0
LINE
  8
1
  6
CONTINUOUS
 10
333.6356924214
 20
378.614457225
 11
333.017781859
 21
378.0959687
  0
LINE
  8
1
  6
CONTINUOUS
 10
333.6734356014
 20
376.0555953658
 11
334.0397285224
 21
378.13294575
  0
LINE
  8
1
  6
CONTINUOUS
 10
333.017781859
 20
378.0959687
 11
332.4816820088
 21
375.0555953658
  0
LINE
  8
1
  6
CONTINUOUS
 10
332.4816820088
 20
375.0555953658
 11
333.6734356014
 21
376.0555953658
  0
LINE
  8
1
  6
CONTINUOUS
 10
311.9834163168
 20
379.3257820328
 11
311.3655057544
 21
378.8072935078
  0
LINE
  8
1
  6
CONTINUOUS
 10
313.5850998732
 20
379.3257820328
 11
311.9834163168
 21
379.3257820328
  0
LINE
  8
1
  6
CONTINUOUS
 10
313.9891359742
 20
378.844270558
 11
313.5850998732
 21
379.3257820328
  0
LINE
  8
1
  6
CONTINUOUS
 10
313.3712254118
 20
378.3257820328
 11
313.9891359742
 21
378.844270558
  0
LINE
  8
1
  6
CONTINUOUS
 10
311.7695418554
 20
378.3257820328
 11
313.3712254118
 21
378.3257820328
  0
LINE
  8
1
  6
CONTINUOUS
 10
311.3655057544
 20
378.8072935078
 11
311.7695418554
 21
378.3257820328
  0
LINE
  8
1
  6
CONTINUOUS
 10
322.0860083582
 20
378.13294575
 11
321.681972257
 21
378.614457225
  0
LINE
  8
1
  6
CONTINUOUS
 10
320.6977687736
 20
376.0186183158
 11
321.5368684048
 21
375.0186183158
  0
LINE
  8
1
  6
CONTINUOUS
 10
321.0640616946
 20
378.0959687
 11
320.6977687736
 21
376.0186183158
  0
LINE
  8
1
  6
CONTINUOUS
 10
321.681972257
 20
378.614457225
 11
321.0640616946
 21
378.0959687
  0
LINE
  8
1
  6
CONTINUOUS
 10
321.5368684048
 20
375.0186183158
 11
322.0860083582
 21
378.13294575
  0
LINE
  8
1
  6
CONTINUOUS
 10
317.6745182916
 20
374.8257820328
 11
321.3070550718
 21
374.8257820328
  0
LINE
  8
1
  6
CONTINUOUS
 10
318.8662718842
 20
375.8257820328
 11
317.6745182916
 21
374.8257820328
  0
LINE
  8
1
  6
CONTINUOUS
 10
320.4679554406
 20
375.8257820328
 11
318.8662718842
 21
375.8257820328
  0
LINE
  8
1
  6
CONTINUOUS
 10
321.3070550718
 20
374.8257820328
 11
320.4679554406
 21
375.8257820328
  0
LINE
  8
1
  6
CONTINUOUS
 10
326.5475866568
 20
382.8257820328
 11
327.386686288
 21
381.8257820328
  0
LINE
  8
1
  6
CONTINUOUS
 10
330.1801234368
 20
382.8257820328
 11
326.5475866568
 21
382.8257820328
  0
LINE
  8
1
  6
CONTINUOUS
 10
328.9883698442
 20
381.8257820328
 11
330.1801234368
 21
382.8257820328
  0
LINE
  8
1
  6
CONTINUOUS
 10
327.386686288
 20
381.8257820328
 11
328.9883698442
 21
381.8257820328
  0
LINE
  8
1
  6
CONTINUOUS
 10
311.7905800338
 20
379.5555953658
 11
312.156872955
 21
381.63294575
  0
LINE
  8
1
  6
CONTINUOUS
 10
311.1726694714
 20
379.0371068408
 11
311.7905800338
 21
379.5555953658
  0
LINE
  8
1
  6
CONTINUOUS
 10
311.3177733238
 20
382.63294575
 11
310.7686333704
 21
379.5186183158
  0
LINE
  8
1
  6
CONTINUOUS
 10
312.156872955
 20
381.63294575
 11
311.3177733238
 21
382.63294575
  0
LINE
  8
1
  6
CONTINUOUS
 10
310.7686333704
 20
379.5186183158
 11
311.1726694714
 21
379.0371068408
  0
LINE
  8
1
  6
CONTINUOUS
 10
325.517781859
 20
378.0959687
 11
324.9816820088
 21
375.0555953658
  0
LINE
  8
1
  6
CONTINUOUS
 10
326.1356924214
 20
378.614457225
 11
325.517781859
 21
378.0959687
  0
LINE
  8
1
  6
CONTINUOUS
 10
326.5397285224
 20
378.13294575
 11
326.1356924214
 21
378.614457225
  0
LINE
  8
1
  6
CONTINUOUS
 10
324.9816820088
 20
375.0555953658
 11
326.1734356014
 21
376.0555953658
  0
LINE
  8
1
  6
CONTINUOUS
 10
326.1734356014
 20
376.0555953658
 11
326.5397285224
 21
378.13294575
  0
LINE
  8
1
  6
CONTINUOUS
 10
315.3729597198
 20
382.5959687
 11
314.1812061272
 21
381.5959687
  0
LINE
  8
1
  6
CONTINUOUS
 10
314.1812061272
 20
381.5959687
 11
313.814913206
 21
379.5186183158
  0
LINE
  8
1
  6
CONTINUOUS
 10
314.8368598696
 20
379.5555953658
 11
315.3729597198
 21
382.5959687
  0
LINE
  8
1
  6
CONTINUOUS
 10
313.814913206
 20
379.5186183158
 11
314.2189493072
 21
379.0371068408
  0
LINE
  8
1
  6
CONTINUOUS
 10
314.2189493072
 20
379.0371068408
 11
314.8368598696
 21
379.5555953658
  0
LINE
  8
1
  6
CONTINUOUS
 10
312.386686288
 20
381.8257820328
 11
313.9883698442
 21
381.8257820328
  0
LINE
  8
1
  6
CONTINUOUS
 10
311.5475866568
 20
382.8257820328
 11
312.386686288
 21
381.8257820328
  0
LINE
  8
1
  6
CONTINUOUS
 10
315.1801234368
 20
382.8257820328
 11
311.5475866568
 21
382.8257820328
  0
LINE
  8
1
  6
CONTINUOUS
 10
313.9883698442
 20
381.8257820328
 11
315.1801234368
 21
382.8257820328
  0
LINE
  8
1
  6
CONTINUOUS
 10
322.8729597198
 20
382.5959687
 11
321.6812061272
 21
381.5959687
  0
LINE
  8
1
  6
CONTINUOUS
 10
322.3368598696
 20
379.5555953658
 11
322.8729597198
 21
382.5959687
  0
LINE
  8
1
  6
CONTINUOUS
 10
321.7189493072
 20
379.0371068408
 11
322.3368598696
 21
379.5555953658
  0
LINE
  8
1
  6
CONTINUOUS
 10
321.6812061272
 20
381.5959687
 11
321.314913206
 21
379.5186183158
  0
LINE
  8
1
  6
CONTINUOUS
 10
321.314913206
 20
379.5186183158
 11
321.7189493072
 21
379.0371068408
  0
LINE
  8
1
  6
CONTINUOUS
 10
298.2773208642
 20
352.6163212538
 11
298.2773208642
 21
351.8857820328
  0
LINE
  8
1
  6
CONTINUOUS
 10
298.2773208642
 20
231.4657820328
 11
298.2773208642
 21
230.535242812
  0
LINE
  8
1
  6
CONTINUOUS
 10
317.6773208642
 20
297.8257820328
 11
316.7773208642
 21
297.8257820328
  0
LINE
  8
1
  6
CONTINUOUS
 10
306.2773208642
 20
352.6163212538
 11
306.2773208642
 21
351.8857820328
  0
LINE
  8
1
  6
CONTINUOUS
 10
299.2773208642
 20
352.6163212538
 11
299.2773208642
 21
351.8857820328
  0
LINE
  8
1
  6
CONTINUOUS
 10
299.2773208642
 20
352.1757820328
 11
298.2773208642
 21
352.1757820328
  0
LINE
  8
1
  6
CONTINUOUS
 10
306.2773208642
 20
231.4657820328
 11
306.2773208642
 21
230.535242812
  0
LINE
  8
1
  6
CONTINUOUS
 10
299.2773208642
 20
231.4657820328
 11
299.2773208642
 21
230.535242812
  0
LINE
  8
1
  6
CONTINUOUS
 10
299.2773208642
 20
231.1757820328
 11
298.2773208642
 21
231.1757820328
  0
LINE
  8
1
  6
CONTINUOUS
 10
316.7773208642
 20
231.4657820328
 11
316.7773208642
 21
351.8857820328
  0
LINE
  8
1
  6
CONTINUOUS
 10
297.7773208642
 20
231.4657820328
 11
316.7773208642
 21
231.4657820328
  0
LINE
  8
1
  6
CONTINUOUS
 10
316.7773208642
 20
351.8857820328
 11
297.7773208642
 21
351.8857820328
  0
LINE
  8
1
  6
CONTINUOUS
 10
297.7773208642
 20
351.8857820328
 11
297.7773208642
 21
231.4657820328
  0
LINE
  8
1
  6
CONTINUOUS
 10
317.6773208642
 20
302.8257820328
 11
316.7773208642
 21
302.8257820328
  0
LINE
  8
1
  6
CONTINUOUS
 10
317.6773208642
 20
304.3257820328
 11
316.7773208642
 21
304.3257820328
  0
CIRCLE
  8
1
  6
CONTINUOUS
 10
302.7773208642
 20
234.5257820328
 40
2.041666666600008
  0
CIRCLE
  8
1
  6
CONTINUOUS
 10
302.7773208642
 20
234.5257820328
 40
2.75
  0
CIRCLE
  8
1
  6
CONTINUOUS
 10
302.7773208642
 20
234.5257820328
 40
3.0
  0
CIRCLE
  8
1
  6
CONTINUOUS
 10
302.7773208642
 20
348.8257820328
 40
2.041666666600008
  0
CIRCLE
  8
1
  6
CONTINUOUS
 10
302.7773208642
 20
348.8257820328
 40
2.75
  0
CIRCLE
  8
1
  6
CONTINUOUS
 10
302.7773208642
 20
348.8257820328
 40
3.0
  0
LINE
  8
1
  6
CONTINUOUS
 10
316.7773208642
 20
307.8257820328
 11
317.6773208642
 21
307.8257820328
  0
LINE
  8
1
  6
CONTINUOUS
 10
316.7773208642
 20
301.8257820328
 11
317.6773208642
 21
301.8257820328
  0
LINE
  8
1
  6
CONTINUOUS
 10
298.3773208642
 20
231.4657820328
 11
298.3773208642
 21
231.1757820328
  0
LINE
  8
1
  6
CONTINUOUS
 10
298.7773208642
 20
231.1757820328
 11
298.7773208642
 21
231.4657820328
  0
LINE
  8
1
  6
CONTINUOUS
 10
317.6773208642
 20
307.1257820328
 11
316.7773208642
 21
307.1257820328
  0
LINE
  8
1
  6
CONTINUOUS
 10
348.6773208642
 20
230.9305124224
 11
348.6773208642
 21
301.7210516434
  0
CIRCLE
  8
1
  6
CONTINUOUS
 10
324.1773208642
 20
219.8257820328
 40
4.199999999999989
  0
LINE
  8
1
  6
CONTINUOUS
 10
324.4773208642
 20
219.3257820328
 11
325.4273208642
 21
219.3257820328
  0
LINE
  8
1
  6
CONTINUOUS
 10
324.4773208642
 20
222.0257820328
 11
323.8773208642
 21
222.0257820328
  0
LINE
  8
1
  6
CONTINUOUS
 10
324.4773208642
 20
217.6257820328
 11
324.4773208642
 21
219.3257820328
  0
LINE
  8
1
  6
CONTINUOUS
 10
325.4273208642
 20
219.3257820328
 11
325.4273208642
 21
220.3257820328
  0
LINE
  8
1
  6
CONTINUOUS
 10
324.4773208642
 20
220.3257820328
 11
324.4773208642
 21
222.0257820328
  0
LINE
  8
1
  6
CONTINUOUS
 10
323.8773208642
 20
220.3257820328
 11
322.9273208642
 21
220.3257820328
  0
LINE
  8
1
  6
CONTINUOUS
 10
323.8773208642
 20
222.0257820328
 11
323.8773208642
 21
220.3257820328
  0
LINE
  8
1
  6
CONTINUOUS
 10
323.8773208642
 20
219.3257820328
 11
323.8773208642
 21
217.6257820328
  0
LINE
  8
1
  6
CONTINUOUS
 10
323.8773208642
 20
217.6257820328
 11
324.4773208642
 21
217.6257820328
  0
LINE
  8
1
  6
CONTINUOUS
 10
325.4273208642
 20
220.3257820328
 11
324.4773208642
 21
220.3257820328
  0
LINE
  8
1
  6
CONTINUOUS
 10
322.9273208642
 20
219.3257820328
 11
323.8773208642
 21
219.3257820328
  0
LINE
  8
1
  6
CONTINUOUS
 10
322.9273208642
 20
220.3257820328
 11
322.9273208642
 21
219.3257820328
  0
CIRCLE
  8
1
  6
CONTINUOUS
 10
324.1773208642
 20
392.8257820328
 40
4.199999999999989
  0
LINE
  8
1
  6
CONTINUOUS
 10
324.4773208642
 20
392.3257820328
 11
325.4273208642
 21
392.3257820328
  0
LINE
  8
1
  6
CONTINUOUS
 10
324.4773208642
 20
395.0257820328
 11
323.8773208642
 21
395.0257820328
  0
LINE
  8
1
  6
CONTINUOUS
 10
324.4773208642
 20
390.6257820328
 11
324.4773208642
 21
392.3257820328
  0
LINE
  8
1
  6
CONTINUOUS
 10
325.4273208642
 20
392.3257820328
 11
325.4273208642
 21
393.3257820328
  0
LINE
  8
1
  6
CONTINUOUS
 10
324.4773208642
 20
393.3257820328
 11
324.4773208642
 21
395.0257820328
  0
LINE
  8
1
  6
CONTINUOUS
 10
323.8773208642
 20
393.3257820328
 11
322.9273208642
 21
393.3257820328
  0
LINE
  8
1
  6
CONTINUOUS
 10
323.8773208642
 20
395.0257820328
 11
323.8773208642
 21
393.3257820328
  0
LINE
  8
1
  6
CONTINUOUS
 10
323.8773208642
 20
392.3257820328
 11
323.8773208642
 21
390.6257820328
  0
LINE
  8
1
  6
CONTINUOUS
 10
323.8773208642
 20
390.6257820328
 11
324.4773208642
 21
390.6257820328
  0
LINE
  8
1
  6
CONTINUOUS
 10
325.4273208642
 20
393.3257820328
 11
324.4773208642
 21
393.3257820328
  0
LINE
  8
1
  6
CONTINUOUS
 10
322.9273208642
 20
392.3257820328
 11
323.8773208642
 21
392.3257820328
  0
LINE
  8
1
  6
CONTINUOUS
 10
322.9273208642
 20
393.3257820328
 11
322.9273208642
 21
392.3257820328
  0
LINE
  8
1
  6
CONTINUOUS
 10
290.6773208642
 20
232.8257820328
 11
289.6773208642
 21
232.8257820328
  0
LINE
  8
1
  6
CONTINUOUS
 10
290.6773208642
 20
358.8257820328
 11
289.6773208642
 21
358.8257820328
  0
LINE
  8
1
  6
CONTINUOUS
 10
289.6773208642
 20
358.8257820328
 11
289.6773208642
 21
232.8257820328
  0
LINE
  8
1
  6
CONTINUOUS
 10
317.6773208642
 20
308.7149021746
 11
316.7773208642
 21
308.7149021746
  0
LINE
  8
1
  6
CONTINUOUS
 10
316.7773208642
 20
309.6714221982
 11
317.6773208642
 21
309.6714221982
  0
LINE
  8
1
  6
CONTINUOUS
 10
316.7773208642
 20
309.6714221982
 11
317.6773208642
 21
309.6714221982
  0
LINE
  8
1
  6
CONTINUOUS
 10
317.6773208642
 20
308.7149021746
 11
316.7773208642
 21
308.7149021746
  0
LINE
  8
1
  6
CONTINUOUS
 10
198.4371853812
 20
345.9257820328
 11
212.9371853812
 21
345.9257820328
  0
LINE
  8
1
  6
CONTINUOUS
 10
212.9371853812
 20
351.7257820328
 11
198.4371853812
 21
351.7257820328
  0
LINE
  8
1
  6
CONTINUOUS
 10
198.4371853812
 20
231.6257820328
 11
212.9371853812
 21
231.6257820328
  0
LINE
  8
1
  6
CONTINUOUS
 10
212.9371853812
 20
237.4257820328
 11
198.4371853812
 21
237.4257820328
  0
ARC
  8
1
  6
CONTINUOUS
 10
197.8771853812005
 20
341.2057820328011
 40
2.959999999998791
 50
57.62852602749719
 51
71.07535558390221
  0
ARC
  8
1
  6
CONTINUOUS
 10
197.8771853812005
 20
341.2057820327989
 40
2.959999999998793
 50
288.9246444160978
 51
302.3714739725028
  0
LINE
  8
1
  6
CONTINUOUS
 10
198.4371853812
 20
338.4057820328
 11
198.8371853812
 21
338.4057820328
  0
LINE
  8
1
  6
CONTINUOUS
 10
198.8371853812
 20
344.0057820328
 11
198.4371853812
 21
344.0057820328
  0
LINE
  8
1
  6
CONTINUOUS
 10
198.4371853812
 20
330.7857820328
 11
198.8371853812
 21
330.7857820328
  0
LINE
  8
1
  6
CONTINUOUS
 10
198.8371853812
 20
336.3857820328
 11
198.4371853812
 21
336.3857820328
  0
LINE
  8
1
  6
CONTINUOUS
 10
198.4371853812
 20
307.9257820328
 11
198.8371853812
 21
307.9257820328
  0
LINE
  8
1
  6
CONTINUOUS
 10
198.8371853812
 20
313.5257820328
 11
198.4371853812
 21
313.5257820328
  0
LINE
  8
1
  6
CONTINUOUS
 10
198.4371853812
 20
323.1657820328
 11
198.8371853812
 21
323.1657820328
  0
LINE
  8
1
  6
CONTINUOUS
 10
198.8371853812
 20
328.7657820328
 11
198.4371853812
 21
328.7657820328
  0
ARC
  8
1
  6
CONTINUOUS
 10
197.8771853812005
 20
318.3457820328011
 40
2.959999999998791
 50
57.62852602749719
 51
71.07535558390221
  0
ARC
  8
1
  6
CONTINUOUS
 10
197.8771853812005
 20
318.3457820327989
 40
2.959999999998793
 50
288.9246444160978
 51
302.3714739725028
  0
LINE
  8
1
  6
CONTINUOUS
 10
198.4371853812
 20
315.5457820328
 11
198.8371853812
 21
315.5457820328
  0
LINE
  8
1
  6
CONTINUOUS
 10
198.8371853812
 20
321.1457820328
 11
198.4371853812
 21
321.1457820328
  0
ARC
  8
1
  6
CONTINUOUS
 10
197.8771853812005
 20
333.5857820328011
 40
2.959999999998791
 50
57.62852602749719
 51
71.07535558390221
  0
ARC
  8
1
  6
CONTINUOUS
 10
197.8771853812005
 20
333.5857820327989
 40
2.959999999998793
 50
288.9246444160978
 51
302.3714739725028
  0
ARC
  8
1
  6
CONTINUOUS
 10
197.8771853812005
 20
325.9657820328011
 40
2.959999999998791
 50
57.62852602749719
 51
71.07535558390221
  0
ARC
  8
1
  6
CONTINUOUS
 10
197.8771853812005
 20
325.9657820327989
 40
2.959999999998793
 50
288.9246444160978
 51
302.3714739725028
  0
LINE
  8
1
  6
CONTINUOUS
 10
198.4371853812
 20
285.0657820328
 11
198.8371853812
 21
285.0657820328
  0
LINE
  8
1
  6
CONTINUOUS
 10
198.8371853812
 20
290.6657820328
 11
198.4371853812
 21
290.6657820328
  0
ARC
  8
1
  6
CONTINUOUS
 10
197.8771853812005
 20
310.7257820328011
 40
2.959999999998791
 50
57.62852602749719
 51
71.07535558390221
  0
ARC
  8
1
  6
CONTINUOUS
 10
197.8771853812005
 20
310.7257820327989
 40
2.959999999998793
 50
288.9246444160978
 51
302.3714739725028
  0
LINE
  8
1
  6
CONTINUOUS
 10
198.4371853812
 20
300.3057820328
 11
198.8371853812
 21
300.3057820328
  0
LINE
  8
1
  6
CONTINUOUS
 10
198.8371853812
 20
305.9057820328
 11
198.4371853812
 21
305.9057820328
  0
LINE
  8
1
  6
CONTINUOUS
 10
198.4371853812
 20
292.6857820328
 11
198.8371853812
 21
292.6857820328
  0
LINE
  8
1
  6
CONTINUOUS
 10
198.8371853812
 20
298.2857820328
 11
198.4371853812
 21
298.2857820328
  0
ARC
  8
1
  6
CONTINUOUS
 10
197.8771853812005
 20
295.4857820328011
 40
2.959999999998791
 50
57.62852602749719
 51
71.07535558390221
  0
ARC
  8
1
  6
CONTINUOUS
 10
197.8771853812005
 20
295.4857820327989
 40
2.959999999998793
 50
288.9246444160978
 51
302.3714739725028
  0
ARC
  8
1
  6
CONTINUOUS
 10
197.8771853812005
 20
287.8657820328011
 40
2.959999999998791
 50
57.62852602749719
 51
71.07535558390221
  0
ARC
  8
1
  6
CONTINUOUS
 10
197.8771853812005
 20
287.8657820327989
 40
2.959999999998793
 50
288.9246444160978
 51
302.3714739725028
  0
ARC
  8
1
  6
CONTINUOUS
 10
197.8771853812005
 20
303.1057820328011
 40
2.959999999998791
 50
57.62852602749719
 51
71.07535558390221
  0
ARC
  8
1
  6
CONTINUOUS
 10
197.8771853812005
 20
303.1057820327989
 40
2.959999999998793
 50
288.9246444160978
 51
302.3714739725028
  0
LINE
  8
1
  6
CONTINUOUS
 10
198.4371853812
 20
277.4457820328
 11
198.8371853812
 21
277.4457820328
  0
LINE
  8
1
  6
CONTINUOUS
 10
198.8371853812
 20
283.0457820328
 11
198.4371853812
 21
283.0457820328
  0
ARC
  8
1
  6
CONTINUOUS
 10
197.8771853812007
 20
272.6257820328015
 40
2.959999999998364
 50
57.62852602749585
 51
71.07535558390283
  0
ARC
  8
1
  6
CONTINUOUS
 10
197.8771853812007
 20
272.6257820327986
 40
2.959999999998362
 50
288.9246444160972
 51
302.3714739725041
  0
LINE
  8
1
  6
CONTINUOUS
 10
198.4371853812
 20
254.5857820328
 11
198.8371853812
 21
254.5857820328
  0
LINE
  8
1
  6
CONTINUOUS
 10
198.8371853812
 20
260.1857820328
 11
198.4371853812
 21
260.1857820328
  0
ARC
  8
1
  6
CONTINUOUS
 10
197.8771853812007
 20
265.0057820328015
 40
2.959999999998364
 50
57.62852602749585
 51
71.07535558390283
  0
ARC
  8
1
  6
CONTINUOUS
 10
197.8771853812007
 20
265.0057820327986
 40
2.959999999998362
 50
288.9246444160972
 51
302.3714739725041
  0
LINE
  8
1
  6
CONTINUOUS
 10
198.4371853812
 20
269.8257820328
 11
198.8371853812
 21
269.8257820328
  0
LINE
  8
1
  6
CONTINUOUS
 10
198.8371853812
 20
275.4257820328
 11
198.4371853812
 21
275.4257820328
  0
LINE
  8
1
  6
CONTINUOUS
 10
198.4371853812
 20
262.2057820328
 11
198.8371853812
 21
262.2057820328
  0
LINE
  8
1
  6
CONTINUOUS
 10
198.8371853812
 20
267.8057820328
 11
198.4371853812
 21
267.8057820328
  0
ARC
  8
1
  6
CONTINUOUS
 10
197.8771853812007
 20
280.2457820328015
 40
2.959999999998364
 50
57.62852602749585
 51
71.07535558390283
  0
ARC
  8
1
  6
CONTINUOUS
 10
197.8771853812007
 20
280.2457820327986
 40
2.959999999998362
 50
288.9246444160972
 51
302.3714739725041
  0
ARC
  8
1
  6
CONTINUOUS
 10
197.8771853812007
 20
257.3857820328015
 40
2.959999999998364
 50
57.62852602749585
 51
71.07535558390283
  0
ARC
  8
1
  6
CONTINUOUS
 10
197.8771853812006
 20
257.3857820327987
 40
2.959999999998578
 50
288.9246444160975
 51
302.3714739725035
  0
LINE
  8
1
  6
CONTINUOUS
 10
198.4371853812
 20
246.9657820328
 11
198.8371853812
 21
246.9657820328
  0
LINE
  8
1
  6
CONTINUOUS
 10
198.8371853812
 20
252.5657820328
 11
198.4371853812
 21
252.5657820328
  0
LINE
  8
1
  6
CONTINUOUS
 10
198.4371853812
 20
239.3457820328
 11
198.8371853812
 21
239.3457820328
  0
LINE
  8
1
  6
CONTINUOUS
 10
198.8371853812
 20
244.9457820328
 11
198.4371853812
 21
244.9457820328
  0
ARC
  8
1
  6
CONTINUOUS
 10
197.877185381199
 20
242.145782032798
 40
2.960000000002253
 50
57.62852602750449
 51
71.07535558389374
  0
ARC
  8
1
  6
CONTINUOUS
 10
197.8771853812006
 20
242.1457820327987
 40
2.959999999998578
 50
288.9246444160975
 51
302.3714739725035
  0
ARC
  8
1
  6
CONTINUOUS
 10
197.877185381199
 20
249.765782032798
 40
2.960000000002253
 50
57.62852602750449
 51
71.07535558389374
  0
ARC
  8
1
  6
CONTINUOUS
 10
197.8771853812006
 20
249.7657820327987
 40
2.959999999998578
 50
288.9246444160975
 51
302.3714739725035
  0
LINE
  8
1
  6
CONTINUOUS
 10
206.4371853812
 20
342.2157820328
 11
206.8371853812
 21
342.2157820328
  0
LINE
  8
1
  6
CONTINUOUS
 10
206.4371853812
 20
334.5957820328
 11
206.8371853812
 21
334.5957820328
  0
LINE
  8
1
  6
CONTINUOUS
 10
206.8371853812
 20
340.1957820328
 11
206.4371853812
 21
340.1957820328
  0
LINE
  8
1
  6
CONTINUOUS
 10
206.4371853812
 20
326.9757820328
 11
206.8371853812
 21
326.9757820328
  0
LINE
  8
1
  6
CONTINUOUS
 10
206.8371853812
 20
332.5757820328
 11
206.4371853812
 21
332.5757820328
  0
ARC
  8
1
  6
CONTINUOUS
 10
205.8771853812007
 20
345.0157820327985
 40
2.959999999998362
 50
288.9246444160972
 51
302.3714739725041
  0
LINE
  8
1
  6
CONTINUOUS
 10
206.4371853812
 20
319.3557820328
 11
206.8371853812
 21
319.3557820328
  0
LINE
  8
1
  6
CONTINUOUS
 10
206.8371853812
 20
324.9557820328
 11
206.4371853812
 21
324.9557820328
  0
ARC
  8
1
  6
CONTINUOUS
 10
205.8771853812007
 20
337.3957820328015
 40
2.959999999998364
 50
57.62852602749585
 51
71.07535558390283
  0
ARC
  8
1
  6
CONTINUOUS
 10
205.8771853812007
 20
337.3957820327985
 40
2.959999999998362
 50
288.9246444160972
 51
302.3714739725041
  0
ARC
  8
1
  6
CONTINUOUS
 10
205.8771853812007
 20
329.7757820328015
 40
2.959999999998364
 50
57.62852602749585
 51
71.07535558390283
  0
ARC
  8
1
  6
CONTINUOUS
 10
205.8771853812007
 20
329.7757820327985
 40
2.959999999998362
 50
288.9246444160972
 51
302.3714739725041
  0
LINE
  8
1
  6
CONTINUOUS
 10
206.4371853812
 20
304.1157820328
 11
206.8371853812
 21
304.1157820328
  0
LINE
  8
1
  6
CONTINUOUS
 10
206.8371853812
 20
309.7157820328
 11
206.4371853812
 21
309.7157820328
  0
LINE
  8
1
  6
CONTINUOUS
 10
206.4371853812
 20
311.7357820328
 11
206.8371853812
 21
311.7357820328
  0
LINE
  8
1
  6
CONTINUOUS
 10
206.8371853812
 20
317.3357820328
 11
206.4371853812
 21
317.3357820328
  0
ARC
  8
1
  6
CONTINUOUS
 10
205.8771853812007
 20
322.1557820328015
 40
2.959999999998364
 50
57.62852602749585
 51
71.07535558390283
  0
ARC
  8
1
  6
CONTINUOUS
 10
205.8771853812007
 20
322.1557820327985
 40
2.959999999998362
 50
288.9246444160972
 51
302.3714739725041
  0
LINE
  8
1
  6
CONTINUOUS
 10
206.4371853812
 20
288.8757820328
 11
206.8371853812
 21
288.8757820328
  0
LINE
  8
1
  6
CONTINUOUS
 10
206.8371853812
 20
294.4757820328
 11
206.4371853812
 21
294.4757820328
  0
LINE
  8
1
  6
CONTINUOUS
 10
206.4371853812
 20
296.4957820328
 11
206.8371853812
 21
296.4957820328
  0
LINE
  8
1
  6
CONTINUOUS
 10
206.8371853812
 20
302.0957820328
 11
206.4371853812
 21
302.0957820328
  0
ARC
  8
1
  6
CONTINUOUS
 10
205.8771853812007
 20
306.9157820328015
 40
2.959999999998364
 50
57.62852602749585
 51
71.07535558390283
  0
ARC
  8
1
  6
CONTINUOUS
 10
205.8771853812007
 20
306.9157820327985
 40
2.959999999998362
 50
288.9246444160972
 51
302.3714739725041
  0
LINE
  8
1
  6
CONTINUOUS
 10
206.4371853812
 20
281.2557820328
 11
206.8371853812
 21
281.2557820328
  0
LINE
  8
1
  6
CONTINUOUS
 10
206.8371853812
 20
286.8557820328
 11
206.4371853812
 21
286.8557820328
  0
ARC
  8
1
  6
CONTINUOUS
 10
205.8771853812007
 20
314.5357820328015
 40
2.959999999998364
 50
57.62852602749585
 51
71.07535558390283
  0
ARC
  8
1
  6
CONTINUOUS
 10
205.8771853812007
 20
314.5357820327985
 40
2.959999999998362
 50
288.9246444160972
 51
302.3714739725041
  0
LINE
  8
1
  6
CONTINUOUS
 10
206.4371853812
 20
273.6357820328
 11
206.8371853812
 21
273.6357820328
  0
LINE
  8
1
  6
CONTINUOUS
 10
206.8371853812
 20
279.2357820328
 11
206.4371853812
 21
279.2357820328
  0
ARC
  8
1
  6
CONTINUOUS
 10
205.8771853812007
 20
291.6757820328015
 40
2.959999999998364
 50
57.62852602749585
 51
71.07535558390283
  0
ARC
  8
1
  6
CONTINUOUS
 10
205.8771853812007
 20
291.6757820327985
 40
2.959999999998362
 50
288.9246444160972
 51
302.3714739725041
  0
ARC
  8
1
  6
CONTINUOUS
 10
205.8771853812007
 20
299.2957820328015
 40
2.959999999998364
 50
57.62852602749585
 51
71.07535558390283
  0
ARC
  8
1
  6
CONTINUOUS
 10
205.8771853812007
 20
299.2957820327985
 40
2.959999999998362
 50
288.9246444160972
 51
302.3714739725041
  0
LINE
  8
1
  6
CONTINUOUS
 10
206.4371853812
 20
266.0157820328
 11
206.8371853812
 21
266.0157820328
  0
LINE
  8
1
  6
CONTINUOUS
 10
206.8371853812
 20
271.6157820328
 11
206.4371853812
 21
271.6157820328
  0
ARC
  8
1
  6
CONTINUOUS
 10
205.8771853812007
 20
284.0557820328015
 40
2.959999999998364
 50
57.62852602749585
 51
71.07535558390283
  0
ARC
  8
1
  6
CONTINUOUS
 10
205.8771853812007
 20
284.0557820327985
 40
2.959999999998362
 50
288.9246444160972
 51
302.3714739725041
  0
ARC
  8
1
  6
CONTINUOUS
 10
205.8771853812005
 20
276.4357820328011
 40
2.959999999998791
 50
57.62852602749719
 51
71.07535558390221
  0
ARC
  8
1
  6
CONTINUOUS
 10
205.8771853812005
 20
276.435782032799
 40
2.959999999998793
 50
288.9246444160978
 51
302.3714739725028
  0
LINE
  8
1
  6
CONTINUOUS
 10
206.4371853812
 20
250.7757820328
 11
206.8371853812
 21
250.7757820328
  0
LINE
  8
1
  6
CONTINUOUS
 10
206.8371853812
 20
256.3757820328
 11
206.4371853812
 21
256.3757820328
  0
LINE
  8
1
  6
CONTINUOUS
 10
206.4371853812
 20
258.3957820328
 11
206.8371853812
 21
258.3957820328
  0
LINE
  8
1
  6
CONTINUOUS
 10
206.8371853812
 20
263.9957820328
 11
206.4371853812
 21
263.9957820328
  0
ARC
  8
1
  6
CONTINUOUS
 10
205.8771853812005
 20
268.8157820328011
 40
2.959999999998791
 50
57.62852602749719
 51
71.07535558390221
  0
ARC
  8
1
  6
CONTINUOUS
 10
205.8771853812005
 20
268.815782032799
 40
2.959999999998793
 50
288.9246444160978
 51
302.3714739725028
  0
LINE
  8
1
  6
CONTINUOUS
 10
206.8371853812
 20
241.1357820328
 11
206.4371853812
 21
241.1357820328
  0
LINE
  8
1
  6
CONTINUOUS
 10
206.4371853812
 20
243.1557820328
 11
206.8371853812
 21
243.1557820328
  0
LINE
  8
1
  6
CONTINUOUS
 10
206.8371853812
 20
248.7557820328
 11
206.4371853812
 21
248.7557820328
  0
ARC
  8
1
  6
CONTINUOUS
 10
205.8771853812005
 20
261.1957820328011
 40
2.959999999998791
 50
57.62852602749719
 51
71.07535558390221
  0
ARC
  8
1
  6
CONTINUOUS
 10
205.8771853812005
 20
261.195782032799
 40
2.959999999998793
 50
288.9246444160978
 51
302.3714739725028
  0
ARC
  8
1
  6
CONTINUOUS
 10
205.8771853812005
 20
253.5757820328011
 40
2.959999999998767
 50
57.62852602749689
 51
71.07535558390204
  0
ARC
  8
1
  6
CONTINUOUS
 10
205.8771853812006
 20
253.5757820327987
 40
2.959999999998578
 50
288.9246444160975
 51
302.3714739725035
  0
ARC
  8
1
  6
CONTINUOUS
 10
205.877185381199
 20
238.335782032798
 40
2.960000000002253
 50
57.62852602750449
 51
71.07535558389374
  0
ARC
  8
1
  6
CONTINUOUS
 10
205.877185381199
 20
245.955782032798
 40
2.960000000002253
 50
57.62852602750449
 51
71.07535558389374
  0
ARC
  8
1
  6
CONTINUOUS
 10
205.8771853812006
 20
245.9557820327987
 40
2.959999999998578
 50
288.9246444160975
 51
302.3714739725035
  0
LINE
  8
1
  6
CONTINUOUS
 10
215.1371853812
 20
237.5257820328
 11
214.4371853812
 21
237.5257820328
  0
LINE
  8
1
  6
CONTINUOUS
 10
214.4371853812
 20
231.5257820328
 11
215.1371853812
 21
231.5257820328
  0
LINE
  8
1
  6
CONTINUOUS
 10
216.0263055228
 20
237.2757820328
 11
215.1371853812
 21
237.2757820328
  0
LINE
  8
1
  6
CONTINUOUS
 10
215.1371853812
 20
231.7757820328
 11
216.0263055228
 21
231.7757820328
  0
ARC
  8
1
  6
CONTINUOUS
 10
216.0263055228
 20
232.7757820328
 40
1.000000000000028
 50
270.0
 51
343.0422366999987
  0
ARC
  8
1
  6
CONTINUOUS
 10
216.0263055228
 20
236.2757820328
 40
1.000000000000032
 50
16.95776330000132
 51
90.0
  0
ARC
  8
1
  6
CONTINUOUS
 10
210.2871853812002
 20
234.5257820328
 40
6.99999999999983
 50
343.0422366999997
 51
16.95776330000036
  0
LINE
  8
1
  6
CONTINUOUS
 10
215.1371853812
 20
351.8257820328
 11
214.4371853812
 21
351.8257820328
  0
LINE
  8
1
  6
CONTINUOUS
 10
214.4371853812
 20
345.8257820328
 11
215.1371853812
 21
345.8257820328
  0
LINE
  8
1
  6
CONTINUOUS
 10
216.0263055228
 20
351.5757820328
 11
215.1371853812
 21
351.5757820328
  0
LINE
  8
1
  6
CONTINUOUS
 10
215.1371853812
 20
346.0757820328
 11
216.0263055228
 21
346.0757820328
  0
ARC
  8
1
  6
CONTINUOUS
 10
216.0263055228
 20
347.0757820328001
 40
1.000000000000057
 50
270.0
 51
343.0422366999991
  0
ARC
  8
1
  6
CONTINUOUS
 10
216.0263055228
 20
350.5757820328
 40
1.000000000000059
 50
16.95776330000085
 51
90.0
  0
ARC
  8
1
  6
CONTINUOUS
 10
210.2871853812002
 20
348.8257820328
 40
6.99999999999983
 50
343.0422366999997
 51
16.95776330000036
  0
LINE
  8
1
  6
CONTINUOUS
 10
197.7371853812
 20
230.8257820328
 11
197.4371853812
 21
230.8257820328
  0
LINE
  8
1
  6
CONTINUOUS
 10
198.6263055228
 20
230.5757820328
 11
197.7371853812
 21
230.5757820328
  0
ARC
  8
1
  6
CONTINUOUS
 10
198.6263055227998
 20
229.5757820327994
 40
1.000000000000687
 50
68.81138892410438
 51
90.0
  0
LINE
  8
1
  6
CONTINUOUS
 10
71.93718538120001
 20
215.8257820328
 11
190.9371853812
 21
215.8257820328
  0
LINE
  8
1
  6
CONTINUOUS
 10
190.9371853812
 20
396.8257820328
 11
71.93718538120001
 21
396.8257820328
  0
LINE
  8
1
  6
CONTINUOUS
 10
190.9371853812
 20
396.8257820328
 11
190.9371853812
 21
215.8257820328
  0
LINE
  8
1
  6
CONTINUOUS
 10
71.93718538120001
 20
396.8257820328
 11
71.93718538120001
 21
215.8257820328
  0
LINE
  8
1
  6
CONTINUOUS
 10
71.93718538120001
 20
398.8257820328
 11
190.9371853812
 21
398.8257820328
  0
LINE
  8
1
  6
CONTINUOUS
 10
190.9371853812
 20
213.8257820328
 11
71.93718538120001
 21
213.8257820328
  0
LINE
  8
1
  6
CONTINUOUS
 10
190.9371853812
 20
213.8257820328
 11
190.9371853812
 21
215.8230411024
  0
LINE
  8
1
  6
CONTINUOUS
 10
190.9371853812
 20
215.8230411024
 11
208.9633533592
 21
216.7677525352
  0
POLYLINE
  8
1
  6
CONTINUOUS
 66
     1
 70
     0
 40
0.0
 41
0.0
  0
VERTEX
  8
1
 10
208.9633533592
 20
214.7704934656
  0
VERTEX
  8
1
 10
208.9679346868
 20
214.8090820814
  0
VERTEX
  8
1
 10
208.9713384402
 20
214.9228374272
  0
VERTEX
  8
1
 10
208.9734342694
 20
215.1074031322
  0
VERTEX
  8
1
 10
208.9741419124
 20
215.3557110748
  0
VERTEX
  8
1
 10
208.9734342694
 20
215.6582520634
  0
VERTEX
  8
1
 10
208.9713384402
 20
216.0034399994
  0
VERTEX
  8
1
 10
208.9679346868
 20
216.3780555782
  0
VERTEX
  8
1
 10
208.9633533592
 20
216.7677525352
  0
SEQEND
  8
1
  0
LINE
  8
1
  6
CONTINUOUS
 10
208.9633533592
 20
214.7704934656
 11
190.9371853812
 21
213.8257820328
  0
LINE
  8
1
  6
CONTINUOUS
 10
190.9371853812
 20
398.8257820328
 11
208.9633533592
 21
397.8810706002
  0
POLYLINE
  8
1
  6
CONTINUOUS
 66
     1
 70
     0
 40
0.0
 41
0.0
  0
VERTEX
  8
1
 10
208.9633533592
 20
395.8838115306
  0
VERTEX
  8
1
 10
208.9679346868
 20
396.2735084876
  0
VERTEX
  8
1
 10
208.9713384402
 20
396.6481240664
  0
VERTEX
  8
1
 10
208.9734342694
 20
396.9933120022
  0
VERTEX
  8
1
 10
208.9741419124
 20
397.295852991
  0
VERTEX
  8
1
 10
208.9734342694
 20
397.5441609336
  0
VERTEX
  8
1
 10
208.9713384402
 20
397.7287266386
  0
VERTEX
  8
1
 10
208.9679346868
 20
397.8424819842
  0
VERTEX
  8
1
 10
208.9633533592
 20
397.8810706002
  0
SEQEND
  8
1
  0
LINE
  8
1
  6
CONTINUOUS
 10
208.9633533592
 20
395.8838115306
 11
190.9371853812
 21
396.8285229634
  0
LINE
  8
1
  6
CONTINUOUS
 10
190.9371853812
 20
396.8285229634
 11
190.9371853812
 21
398.8257820328
  0
LINE
  8
1
  6
CONTINUOUS
 10
208.9633533592
 20
352.8175112642
 11
197.4371853812
 21
352.6163212538
  0
LINE
  8
1
  6
CONTINUOUS
 10
197.4371853812
 20
230.535242812
 11
197.4371853812
 21
352.6163212538
  0
LINE
  8
1
  6
CONTINUOUS
 10
197.4371853812
 20
230.535242812
 11
208.9633533592
 21
230.3340528016
  0
LINE
  8
1
  6
CONTINUOUS
 10
208.9633533592
 20
216.7677525352
 11
208.9633533592
 21
230.3340528016
  0
LINE
  8
1
  6
CONTINUOUS
 10
208.9633533592
 20
352.8175112642
 11
208.9633533592
 21
395.8838115306
  0
LINE
  8
1
  6
CONTINUOUS
 10
190.9371853812
 20
396.8285229634
 11
190.9371853812
 21
215.8230411024
  0
LINE
  8
1
  6
CONTINUOUS
 10
209.4371853812
 20
395.8838115306
 11
209.4371853812
 21
352.8257820328
  0
LINE
  8
1
  6
CONTINUOUS
 10
208.9633533592
 20
395.8838115306
 11
209.4371853812
 21
395.8838115306
  0
LINE
  8
1
  6
CONTINUOUS
 10
209.4371853812
 20
352.8257820328
 11
208.9633533592
 21
352.8175112642
  0
ARC
  8
1
  6
CONTINUOUS
 10
208.9371853812
 20
397.3817558328001
 40
0.5
 50
359.9999999999935
 51
87.00000000000108
  0
LINE
  8
1
  6
CONTINUOUS
 10
209.4371853812
 20
397.3817558328
 11
209.4371853812
 21
395.8838115306
  0
LINE
  8
1
  6
CONTINUOUS
 10
209.4371853812
 20
230.3257820328
 11
209.4371853812
 21
216.7677525352
  0
LINE
  8
1
  6
CONTINUOUS
 10
208.9633533592
 20
216.7677525352
 11
209.4371853812
 21
216.7677525352
  0
LINE
  8
1
  6
CONTINUOUS
 10
208.9633533592
 20
230.3340528016
 11
209.4371853812
 21
230.3257820328
  0
LINE
  8
1
  6
CONTINUOUS
 10
209.4371853812
 20
216.7677525352
 11
209.4371853812
 21
215.269808233
  0
ARC
  8
1
  6
CONTINUOUS
 10
208.9371853812
 20
215.269808233
 40
0.4999999999999965
 50
272.9999999999959
 51
0.0
  0
LINE
  8
1
  6
CONTINUOUS
 10
207.4371853812
 20
230.3606921628
 11
207.4371853812
 21
231.4657820328
  0
LINE
  8
1
  6
CONTINUOUS
 10
207.4371853812
 20
351.8857820328
 11
207.4371853812
 21
352.790871903
  0
LINE
  8
1
  6
CONTINUOUS
 10
209.4371853812
 20
230.3257820328
 11
209.4371853812
 21
231.4657820328
  0
LINE
  8
1
  6
CONTINUOUS
 10
209.4371853812
 20
351.8857820328
 11
209.4371853812
 21
352.8257820328
  0
LINE
  8
1
  6
CONTINUOUS
 10
209.4371853812
 20
224.0257820328
 11
209.4371853812
 21
224.5257820328
  0
LINE
  8
1
  6
CONTINUOUS
 10
203.4371853812
 20
230.4305124224
 11
203.4371853812
 21
231.4657820328
  0
LINE
  8
1
  6
CONTINUOUS
 10
204.4371853812
 20
352.7385067082
 11
204.4371853812
 21
351.8857820328
  0
LINE
  8
1
  6
CONTINUOUS
 10
201.4371853812
 20
231.4657820328
 11
201.4371853812
 21
230.4654225524
  0
LINE
  8
1
  6
CONTINUOUS
 10
68.73718538119999
 20
204.3257820328
 11
71.93718538120001
 21
204.3257820328
  0
LINE
  8
1
  6
CONTINUOUS
 10
68.73718538119999
 20
408.3257820328
 11
68.73718538119999
 21
204.3257820328
  0
LINE
  8
1
  6
CONTINUOUS
 10
68.73718538119999
 20
408.3257820328
 11
71.93718538120001
 21
408.3257820328
  0
LINE
  8
1
  6
CONTINUOUS
 10
71.93718538120001
 20
408.3257820328
 11
71.93718538120001
 21
204.3257820328
  0
LINE
  8
1
  6
CONTINUOUS
 10
68.73718538119999
 20
410.3257820328
 11
71.93718538120001
 21
410.3257820328
  0
LINE
  8
1
  6
CONTINUOUS
 10
71.93718538120001
 20
410.3257820328
 11
71.93718538120001
 21
408.3257820328
  0
LINE
  8
1
  6
CONTINUOUS
 10
68.73718538119999
 20
410.3257820328
 11
68.73718538119999
 21
408.3257820328
  0
LINE
  8
1
  6
CONTINUOUS
 10
68.73718538119999
 20
202.3257820328
 11
71.93718538120001
 21
202.3257820328
  0
LINE
  8
1
  6
CONTINUOUS
 10
71.93718538120001
 20
204.3257820328
 11
71.93718538120001
 21
202.3257820328
  0
LINE
  8
1
  6
CONTINUOUS
 10
68.73718538119999
 20
204.3257820328
 11
68.73718538119999
 21
202.3257820328
  0
LINE
  8
1
  6
CONTINUOUS
 10
199.1371853812
 20
351.8857820328
 11
199.1371853812
 21
352.6459948642
  0
LINE
  8
1
  6
CONTINUOUS
 10
197.5371853812
 20
351.8857820328
 11
197.5371853812
 21
352.6180667602
  0
LINE
  8
1
  6
CONTINUOUS
 10
198.4371853812
 20
351.8857820328
 11
197.4371853812
 21
351.8857820328
  0
LINE
  8
1
  6
CONTINUOUS
 10
198.4371853812
 20
351.8857820328
 11
198.4371853812
 21
345.6757820328
  0
LINE
  8
1
  6
CONTINUOUS
 10
198.4371853812
 20
345.6757820328
 11
206.4371853812
 21
345.6757820328
  0
LINE
  8
1
  6
CONTINUOUS
 10
206.4371853812
 20
344.3557820328
 11
206.4371853812
 21
345.6757820328
  0
LINE
  8
1
  6
CONTINUOUS
 10
206.4371853812
 20
344.3557820328
 11
198.4371853812
 21
344.3557820328
  0
LINE
  8
1
  6
CONTINUOUS
 10
198.4371853812
 20
344.3557820328
 11
198.4371853812
 21
338.0557820328
  0
LINE
  8
1
  6
CONTINUOUS
 10
198.4371853812
 20
338.0557820328
 11
206.4371853812
 21
338.0557820328
  0
LINE
  8
1
  6
CONTINUOUS
 10
206.4371853812
 20
336.7357820328
 11
206.4371853812
 21
338.0557820328
  0
LINE
  8
1
  6
CONTINUOUS
 10
206.4371853812
 20
336.7357820328
 11
198.4371853812
 21
336.7357820328
  0
LINE
  8
1
  6
CONTINUOUS
 10
198.4371853812
 20
336.7357820328
 11
198.4371853812
 21
330.4357820328
  0
LINE
  8
1
  6
CONTINUOUS
 10
198.4371853812
 20
330.4357820328
 11
206.4371853812
 21
330.4357820328
  0
LINE
  8
1
  6
CONTINUOUS
 10
206.4371853812
 20
329.1157820328
 11
206.4371853812
 21
330.4357820328
  0
LINE
  8
1
  6
CONTINUOUS
 10
206.4371853812
 20
329.1157820328
 11
198.4371853812
 21
329.1157820328
  0
LINE
  8
1
  6
CONTINUOUS
 10
198.4371853812
 20
329.1157820328
 11
198.4371853812
 21
322.8157820328
  0
LINE
  8
1
  6
CONTINUOUS
 10
198.4371853812
 20
322.8157820328
 11
206.4371853812
 21
322.8157820328
  0
LINE
  8
1
  6
CONTINUOUS
 10
206.4371853812
 20
321.4957820328
 11
206.4371853812
 21
322.8157820328
  0
LINE
  8
1
  6
CONTINUOUS
 10
206.4371853812
 20
321.4957820328
 11
198.4371853812
 21
321.4957820328
  0
LINE
  8
1
  6
CONTINUOUS
 10
198.4371853812
 20
321.4957820328
 11
198.4371853812
 21
315.1957820328
  0
LINE
  8
1
  6
CONTINUOUS
 10
198.4371853812
 20
315.1957820328
 11
206.4371853812
 21
315.1957820328
  0
LINE
  8
1
  6
CONTINUOUS
 10
206.4371853812
 20
313.8757820328
 11
206.4371853812
 21
315.1957820328
  0
LINE
  8
1
  6
CONTINUOUS
 10
206.4371853812
 20
313.8757820328
 11
198.4371853812
 21
313.8757820328
  0
LINE
  8
1
  6
CONTINUOUS
 10
198.4371853812
 20
313.8757820328
 11
198.4371853812
 21
307.5757820328
  0
LINE
  8
1
  6
CONTINUOUS
 10
198.4371853812
 20
307.5757820328
 11
206.4371853812
 21
307.5757820328
  0
LINE
  8
1
  6
CONTINUOUS
 10
206.4371853812
 20
306.2557820328
 11
206.4371853812
 21
307.5757820328
  0
LINE
  8
1
  6
CONTINUOUS
 10
206.4371853812
 20
306.2557820328
 11
198.4371853812
 21
306.2557820328
  0
LINE
  8
1
  6
CONTINUOUS
 10
198.4371853812
 20
306.2557820328
 11
198.4371853812
 21
299.9557820328
  0
LINE
  8
1
  6
CONTINUOUS
 10
198.4371853812
 20
299.9557820328
 11
206.4371853812
 21
299.9557820328
  0
LINE
  8
1
  6
CONTINUOUS
 10
206.4371853812
 20
298.6357820328
 11
206.4371853812
 21
299.9557820328
  0
LINE
  8
1
  6
CONTINUOUS
 10
206.4371853812
 20
298.6357820328
 11
198.4371853812
 21
298.6357820328
  0
LINE
  8
1
  6
CONTINUOUS
 10
198.4371853812
 20
298.6357820328
 11
198.4371853812
 21
292.3357820328
  0
LINE
  8
1
  6
CONTINUOUS
 10
198.4371853812
 20
292.3357820328
 11
206.4371853812
 21
292.3357820328
  0
LINE
  8
1
  6
CONTINUOUS
 10
206.4371853812
 20
291.0157820328
 11
206.4371853812
 21
292.3357820328
  0
LINE
  8
1
  6
CONTINUOUS
 10
206.4371853812
 20
291.0157820328
 11
198.4371853812
 21
291.0157820328
  0
LINE
  8
1
  6
CONTINUOUS
 10
198.4371853812
 20
291.0157820328
 11
198.4371853812
 21
284.7157820328
  0
LINE
  8
1
  6
CONTINUOUS
 10
198.4371853812
 20
284.7157820328
 11
206.4371853812
 21
284.7157820328
  0
LINE
  8
1
  6
CONTINUOUS
 10
206.4371853812
 20
283.3957820328
 11
206.4371853812
 21
284.7157820328
  0
LINE
  8
1
  6
CONTINUOUS
 10
206.4371853812
 20
283.3957820328
 11
198.4371853812
 21
283.3957820328
  0
LINE
  8
1
  6
CONTINUOUS
 10
198.4371853812
 20
283.3957820328
 11
198.4371853812
 21
277.0957820328
  0
LINE
  8
1
  6
CONTINUOUS
 10
198.4371853812
 20
277.0957820328
 11
206.4371853812
 21
277.0957820328
  0
LINE
  8
1
  6
CONTINUOUS
 10
206.4371853812
 20
275.7757820328
 11
206.4371853812
 21
277.0957820328
  0
LINE
  8
1
  6
CONTINUOUS
 10
206.4371853812
 20
275.7757820328
 11
198.4371853812
 21
275.7757820328
  0
LINE
  8
1
  6
CONTINUOUS
 10
198.4371853812
 20
275.7757820328
 11
198.4371853812
 21
269.4757820328
  0
LINE
  8
1
  6
CONTINUOUS
 10
198.4371853812
 20
269.4757820328
 11
206.4371853812
 21
269.4757820328
  0
LINE
  8
1
  6
CONTINUOUS
 10
206.4371853812
 20
268.1557820328
 11
206.4371853812
 21
269.4757820328
  0
LINE
  8
1
  6
CONTINUOUS
 10
206.4371853812
 20
268.1557820328
 11
198.4371853812
 21
268.1557820328
  0
LINE
  8
1
  6
CONTINUOUS
 10
198.4371853812
 20
268.1557820328
 11
198.4371853812
 21
261.8557820328
  0
LINE
  8
1
  6
CONTINUOUS
 10
198.4371853812
 20
261.8557820328
 11
206.4371853812
 21
261.8557820328
  0
LINE
  8
1
  6
CONTINUOUS
 10
206.4371853812
 20
260.5357820328
 11
206.4371853812
 21
261.8557820328
  0
LINE
  8
1
  6
CONTINUOUS
 10
206.4371853812
 20
260.5357820328
 11
198.4371853812
 21
260.5357820328
  0
LINE
  8
1
  6
CONTINUOUS
 10
198.4371853812
 20
260.5357820328
 11
198.4371853812
 21
254.2357820328
  0
LINE
  8
1
  6
CONTINUOUS
 10
198.4371853812
 20
254.2357820328
 11
206.4371853812
 21
254.2357820328
  0
LINE
  8
1
  6
CONTINUOUS
 10
206.4371853812
 20
252.9157820328
 11
206.4371853812
 21
254.2357820328
  0
LINE
  8
1
  6
CONTINUOUS
 10
206.4371853812
 20
252.9157820328
 11
198.4371853812
 21
252.9157820328
  0
LINE
  8
1
  6
CONTINUOUS
 10
198.4371853812
 20
252.9157820328
 11
198.4371853812
 21
246.6157820328
  0
LINE
  8
1
  6
CONTINUOUS
 10
198.4371853812
 20
246.6157820328
 11
206.4371853812
 21
246.6157820328
  0
LINE
  8
1
  6
CONTINUOUS
 10
206.4371853812
 20
245.2957820328
 11
206.4371853812
 21
246.6157820328
  0
LINE
  8
1
  6
CONTINUOUS
 10
206.4371853812
 20
245.2957820328
 11
198.4371853812
 21
245.2957820328
  0
LINE
  8
1
  6
CONTINUOUS
 10
198.4371853812
 20
245.2957820328
 11
198.4371853812
 21
238.9957820328
  0
LINE
  8
1
  6
CONTINUOUS
 10
198.4371853812
 20
238.9957820328
 11
206.4371853812
 21
238.9957820328
  0
LINE
  8
1
  6
CONTINUOUS
 10
206.4371853812
 20
237.6757820328
 11
206.4371853812
 21
238.9957820328
  0
LINE
  8
1
  6
CONTINUOUS
 10
206.4371853812
 20
237.6757820328
 11
198.4371853812
 21
237.6757820328
  0
LINE
  8
1
  6
CONTINUOUS
 10
198.4371853812
 20
237.6757820328
 11
198.4371853812
 21
231.4657820328
  0
LINE
  8
1
  6
CONTINUOUS
 10
198.4371853812
 20
231.4657820328
 11
197.4371853812
 21
231.4657820328
  0
LINE
  8
1
  6
CONTINUOUS
 10
214.4371853812
 20
351.8857820328
 11
212.9371853812
 21
351.8857820328
  0
LINE
  8
1
  6
CONTINUOUS
 10
214.4371853812
 20
351.8857820328
 11
214.4371853812
 21
231.4657820328
  0
LINE
  8
1
  6
CONTINUOUS
 10
214.4371853812
 20
231.4657820328
 11
212.9371853812
 21
231.4657820328
  0
LINE
  8
1
  6
CONTINUOUS
 10
212.9371853812
 20
351.8857820328
 11
212.9371853812
 21
231.4657820328
  0
LINE
  8
1
  6
CONTINUOUS
 10
198.8371853812
 20
344.0057820328
 11
198.8371853812
 21
338.4057820328
  0
LINE
  8
1
  6
CONTINUOUS
 10
199.461988208
 20
343.7057820328
 11
199.4371853812
 21
343.7057820328
  0
LINE
  8
1
  6
CONTINUOUS
 10
199.4371853812
 20
343.7057820328
 11
199.4371853812
 21
343.6711420472
  0
ARC
  8
1
  6
CONTINUOUS
 10
197.8771853811999
 20
341.2057820328
 40
2.917464652800082
 50
9.868162695700104
 51
57.67569600159815
  0
LINE
  8
1
  6
CONTINUOUS
 10
200.7514852958
 20
341.7057820328
 11
200.3795043056
 21
341.7057820328
  0
ARC
  8
1
  6
CONTINUOUS
 10
197.8771853811994
 20
341.2057820328
 40
2.551783689800544
 50
348.7002787714025
 51
11.29972122859747
  0
LINE
  8
1
  6
CONTINUOUS
 10
200.3795043056
 20
340.7057820328
 11
200.7514852958
 21
340.7057820328
  0
ARC
  8
1
  6
CONTINUOUS
 10
197.8771853811999
 20
341.2057820328
 40
2.91746465280005
 50
302.3243039984014
 51
350.1318373042998
  0
LINE
  8
1
  6
CONTINUOUS
 10
199.4371853812
 20
338.7404220186
 11
199.4371853812
 21
338.7057820328
  0
LINE
  8
1
  6
CONTINUOUS
 10
199.4371853812
 20
338.7057820328
 11
199.461988208
 21
338.7057820328
  0
LINE
  8
1
  6
CONTINUOUS
 10
198.8371853812
 20
336.3857820328
 11
198.8371853812
 21
330.7857820328
  0
LINE
  8
1
  6
CONTINUOUS
 10
198.8371853812
 20
313.5257820328
 11
198.8371853812
 21
307.9257820328
  0
LINE
  8
1
  6
CONTINUOUS
 10
198.8371853812
 20
328.7657820328
 11
198.8371853812
 21
323.1657820328
  0
LINE
  8
1
  6
CONTINUOUS
 10
198.8371853812
 20
321.1457820328
 11
198.8371853812
 21
315.5457820328
  0
LINE
  8
1
  6
CONTINUOUS
 10
199.461988208
 20
320.8457820328
 11
199.4371853812
 21
320.8457820328
  0
LINE
  8
1
  6
CONTINUOUS
 10
199.4371853812
 20
320.8457820328
 11
199.4371853812
 21
320.8111420472
  0
ARC
  8
1
  6
CONTINUOUS
 10
197.8771853811999
 20
318.3457820328
 40
2.917464652800082
 50
9.868162695700104
 51
57.67569600159815
  0
LINE
  8
1
  6
CONTINUOUS
 10
200.7514852958
 20
318.8457820328
 11
200.3795043056
 21
318.8457820328
  0
ARC
  8
1
  6
CONTINUOUS
 10
197.8771853811994
 20
318.3457820328
 40
2.551783689800544
 50
348.7002787714025
 51
11.29972122859747
  0
LINE
  8
1
  6
CONTINUOUS
 10
200.3795043056
 20
317.8457820328
 11
200.7514852958
 21
317.8457820328
  0
ARC
  8
1
  6
CONTINUOUS
 10
197.8771853811999
 20
318.3457820328
 40
2.91746465280005
 50
302.3243039984014
 51
350.1318373042998
  0
LINE
  8
1
  6
CONTINUOUS
 10
199.4371853812
 20
315.8804220186
 11
199.4371853812
 21
315.8457820328
  0
LINE
  8
1
  6
CONTINUOUS
 10
199.4371853812
 20
315.8457820328
 11
199.461988208
 21
315.8457820328
  0
LINE
  8
1
  6
CONTINUOUS
 10
199.461988208
 20
336.0857820328
 11
199.4371853812
 21
336.0857820328
  0
LINE
  8
1
  6
CONTINUOUS
 10
199.4371853812
 20
336.0857820328
 11
199.4371853812
 21
336.0511420472
  0
ARC
  8
1
  6
CONTINUOUS
 10
197.8771853811999
 20
333.5857820328
 40
2.917464652800082
 50
9.868162695700104
 51
57.67569600159815
  0
LINE
  8
1
  6
CONTINUOUS
 10
200.7514852958
 20
334.0857820328
 11
200.3795043056
 21
334.0857820328
  0
ARC
  8
1
  6
CONTINUOUS
 10
197.8771853811994
 20
333.5857820328
 40
2.551783689800544
 50
348.7002787714025
 51
11.29972122859747
  0
LINE
  8
1
  6
CONTINUOUS
 10
200.3795043056
 20
333.0857820328
 11
200.7514852958
 21
333.0857820328
  0
ARC
  8
1
  6
CONTINUOUS
 10
197.8771853811999
 20
333.5857820328
 40
2.91746465280005
 50
302.3243039984014
 51
350.1318373042998
  0
LINE
  8
1
  6
CONTINUOUS
 10
199.4371853812
 20
331.1204220186
 11
199.4371853812
 21
331.0857820328
  0
LINE
  8
1
  6
CONTINUOUS
 10
199.4371853812
 20
331.0857820328
 11
199.461988208
 21
331.0857820328
  0
LINE
  8
1
  6
CONTINUOUS
 10
199.461988208
 20
328.4657820328
 11
199.4371853812
 21
328.4657820328
  0
LINE
  8
1
  6
CONTINUOUS
 10
199.4371853812
 20
328.4657820328
 11
199.4371853812
 21
328.4311420472
  0
ARC
  8
1
  6
CONTINUOUS
 10
197.8771853811999
 20
325.9657820328
 40
2.917464652800082
 50
9.868162695700104
 51
57.67569600159815
  0
LINE
  8
1
  6
CONTINUOUS
 10
200.7514852958
 20
326.4657820328
 11
200.3795043056
 21
326.4657820328
  0
ARC
  8
1
  6
CONTINUOUS
 10
197.8771853811994
 20
325.9657820328
 40
2.551783689800544
 50
348.7002787714025
 51
11.29972122859747
  0
LINE
  8
1
  6
CONTINUOUS
 10
200.3795043056
 20
325.4657820328
 11
200.7514852958
 21
325.4657820328
  0
ARC
  8
1
  6
CONTINUOUS
 10
197.8771853811999
 20
325.9657820328
 40
2.91746465280005
 50
302.3243039984014
 51
350.1318373042998
  0
LINE
  8
1
  6
CONTINUOUS
 10
199.4371853812
 20
323.5004220186
 11
199.4371853812
 21
323.4657820328
  0
LINE
  8
1
  6
CONTINUOUS
 10
199.4371853812
 20
323.4657820328
 11
199.461988208
 21
323.4657820328
  0
LINE
  8
1
  6
CONTINUOUS
 10
198.8371853812
 20
290.6657820328
 11
198.8371853812
 21
285.0657820328
  0
LINE
  8
1
  6
CONTINUOUS
 10
199.461988208
 20
313.2257820328
 11
199.4371853812
 21
313.2257820328
  0
LINE
  8
1
  6
CONTINUOUS
 10
199.4371853812
 20
313.2257820328
 11
199.4371853812
 21
313.1911420472
  0
ARC
  8
1
  6
CONTINUOUS
 10
197.8771853811999
 20
310.7257820328
 40
2.917464652800082
 50
9.868162695700104
 51
57.67569600159815
  0
LINE
  8
1
  6
CONTINUOUS
 10
200.7514852958
 20
311.2257820328
 11
200.3795043056
 21
311.2257820328
  0
ARC
  8
1
  6
CONTINUOUS
 10
197.8771853811994
 20
310.7257820328
 40
2.551783689800544
 50
348.7002787714025
 51
11.29972122859747
  0
LINE
  8
1
  6
CONTINUOUS
 10
200.3795043056
 20
310.2257820328
 11
200.7514852958
 21
310.2257820328
  0
ARC
  8
1
  6
CONTINUOUS
 10
197.8771853811999
 20
310.7257820328
 40
2.91746465280005
 50
302.3243039984014
 51
350.1318373042998
  0
LINE
  8
1
  6
CONTINUOUS
 10
199.4371853812
 20
308.2604220186
 11
199.4371853812
 21
308.2257820328
  0
LINE
  8
1
  6
CONTINUOUS
 10
199.4371853812
 20
308.2257820328
 11
199.461988208
 21
308.2257820328
  0
LINE
  8
1
  6
CONTINUOUS
 10
198.8371853812
 20
305.9057820328
 11
198.8371853812
 21
300.3057820328
  0
LINE
  8
1
  6
CONTINUOUS
 10
198.8371853812
 20
298.2857820328
 11
198.8371853812
 21
292.6857820328
  0
LINE
  8
1
  6
CONTINUOUS
 10
199.461988208
 20
297.9857820328
 11
199.4371853812
 21
297.9857820328
  0
LINE
  8
1
  6
CONTINUOUS
 10
199.4371853812
 20
297.9857820328
 11
199.4371853812
 21
297.9511420472
  0
ARC
  8
1
  6
CONTINUOUS
 10
197.8771853811999
 20
295.4857820328
 40
2.917464652800082
 50
9.868162695700104
 51
57.67569600159815
  0
LINE
  8
1
  6
CONTINUOUS
 10
200.7514852958
 20
295.9857820328
 11
200.3795043056
 21
295.9857820328
  0
ARC
  8
1
  6
CONTINUOUS
 10
197.8771853811994
 20
295.4857820328
 40
2.551783689800544
 50
348.7002787714025
 51
11.29972122859747
  0
LINE
  8
1
  6
CONTINUOUS
 10
200.3795043056
 20
294.9857820328
 11
200.7514852958
 21
294.9857820328
  0
ARC
  8
1
  6
CONTINUOUS
 10
197.8771853811999
 20
295.4857820328
 40
2.91746465280005
 50
302.3243039984014
 51
350.1318373042998
  0
LINE
  8
1
  6
CONTINUOUS
 10
199.4371853812
 20
293.0204220186
 11
199.4371853812
 21
292.9857820328
  0
LINE
  8
1
  6
CONTINUOUS
 10
199.4371853812
 20
292.9857820328
 11
199.461988208
 21
292.9857820328
  0
LINE
  8
1
  6
CONTINUOUS
 10
199.461988208
 20
290.3657820328
 11
199.4371853812
 21
290.3657820328
  0
LINE
  8
1
  6
CONTINUOUS
 10
199.4371853812
 20
290.3657820328
 11
199.4371853812
 21
290.3311420472
  0
ARC
  8
1
  6
CONTINUOUS
 10
197.8771853811999
 20
287.8657820328
 40
2.917464652800082
 50
9.868162695700104
 51
57.67569600159815
  0
LINE
  8
1
  6
CONTINUOUS
 10
200.7514852958
 20
288.3657820328
 11
200.3795043056
 21
288.3657820328
  0
ARC
  8
1
  6
CONTINUOUS
 10
197.8771853811994
 20
287.8657820328
 40
2.551783689800544
 50
348.7002787714025
 51
11.29972122859747
  0
LINE
  8
1
  6
CONTINUOUS
 10
200.3795043056
 20
287.3657820328
 11
200.7514852958
 21
287.3657820328
  0
ARC
  8
1
  6
CONTINUOUS
 10
197.8771853811999
 20
287.8657820328
 40
2.91746465280005
 50
302.3243039984014
 51
350.1318373042998
  0
LINE
  8
1
  6
CONTINUOUS
 10
199.4371853812
 20
285.4004220186
 11
199.4371853812
 21
285.3657820328
  0
LINE
  8
1
  6
CONTINUOUS
 10
199.4371853812
 20
285.3657820328
 11
199.461988208
 21
285.3657820328
  0
LINE
  8
1
  6
CONTINUOUS
 10
199.461988208
 20
305.6057820328
 11
199.4371853812
 21
305.6057820328
  0
LINE
  8
1
  6
CONTINUOUS
 10
199.4371853812
 20
305.6057820328
 11
199.4371853812
 21
305.5711420472
  0
ARC
  8
1
  6
CONTINUOUS
 10
197.8771853811999
 20
303.1057820328
 40
2.917464652800082
 50
9.868162695700104
 51
57.67569600159815
  0
LINE
  8
1
  6
CONTINUOUS
 10
200.7514852958
 20
303.6057820328
 11
200.3795043056
 21
303.6057820328
  0
ARC
  8
1
  6
CONTINUOUS
 10
197.8771853811994
 20
303.1057820328
 40
2.551783689800544
 50
348.7002787714025
 51
11.29972122859747
  0
LINE
  8
1
  6
CONTINUOUS
 10
200.3795043056
 20
302.6057820328
 11
200.7514852958
 21
302.6057820328
  0
ARC
  8
1
  6
CONTINUOUS
 10
197.8771853811999
 20
303.1057820328
 40
2.91746465280005
 50
302.3243039984014
 51
350.1318373042998
  0
LINE
  8
1
  6
CONTINUOUS
 10
199.4371853812
 20
300.6404220186
 11
199.4371853812
 21
300.6057820328
  0
LINE
  8
1
  6
CONTINUOUS
 10
199.4371853812
 20
300.6057820328
 11
199.461988208
 21
300.6057820328
  0
LINE
  8
1
  6
CONTINUOUS
 10
198.8371853812
 20
283.0457820328
 11
198.8371853812
 21
277.4457820328
  0
LINE
  8
1
  6
CONTINUOUS
 10
198.8371853812
 20
275.4257820328
 11
198.8371853812
 21
269.8257820328
  0
LINE
  8
1
  6
CONTINUOUS
 10
199.461988208
 20
275.1257820328
 11
199.4371853812
 21
275.1257820328
  0
LINE
  8
1
  6
CONTINUOUS
 10
199.4371853812
 20
275.1257820328
 11
199.4371853812
 21
275.0911420472
  0
ARC
  8
1
  6
CONTINUOUS
 10
197.8771853811999
 20
272.6257820328
 40
2.917464652800137
 50
9.868162695800761
 51
57.67569600159827
  0
LINE
  8
1
  6
CONTINUOUS
 10
200.7514852958
 20
273.1257820328
 11
200.3795043056
 21
273.1257820328
  0
ARC
  8
1
  6
CONTINUOUS
 10
197.8771853811994
 20
272.6257820328
 40
2.551783689800544
 50
348.7002787714025
 51
11.29972122859747
  0
LINE
  8
1
  6
CONTINUOUS
 10
200.3795043056
 20
272.1257820328
 11
200.7514852958
 21
272.1257820328
  0
ARC
  8
1
  6
CONTINUOUS
 10
197.8771853811999
 20
272.6257820328001
 40
2.917464652800098
 50
302.3243039984008
 51
350.1318373042988
  0
LINE
  8
1
  6
CONTINUOUS
 10
199.4371853812
 20
270.1604220186
 11
199.4371853812
 21
270.1257820328
  0
LINE
  8
1
  6
CONTINUOUS
 10
199.4371853812
 20
270.1257820328
 11
199.461988208
 21
270.1257820328
  0
LINE
  8
1
  6
CONTINUOUS
 10
198.8371853812
 20
260.1857820328
 11
198.8371853812
 21
254.5857820328
  0
LINE
  8
1
  6
CONTINUOUS
 10
198.8371853812
 20
267.8057820328
 11
198.8371853812
 21
262.2057820328
  0
LINE
  8
1
  6
CONTINUOUS
 10
199.461988208
 20
267.5057820328
 11
199.4371853812
 21
267.5057820328
  0
LINE
  8
1
  6
CONTINUOUS
 10
199.4371853812
 20
267.5057820328
 11
199.4371853812
 21
267.4711420472
  0
ARC
  8
1
  6
CONTINUOUS
 10
197.8771853811999
 20
265.0057820328
 40
2.917464652800092
 50
9.868162695701203
 51
57.67569600159921
  0
LINE
  8
1
  6
CONTINUOUS
 10
200.7514852958
 20
265.5057820328
 11
200.3795043056
 21
265.5057820328
  0
ARC
  8
1
  6
CONTINUOUS
 10
197.8771853811994
 20
265.0057820328
 40
2.551783689800544
 50
348.7002787714025
 51
11.29972122859747
  0
LINE
  8
1
  6
CONTINUOUS
 10
200.3795043056
 20
264.5057820328
 11
200.7514852958
 21
264.5057820328
  0
ARC
  8
1
  6
CONTINUOUS
 10
197.8771853811999
 20
265.0057820328001
 40
2.917464652800098
 50
302.3243039984008
 51
350.1318373042988
  0
LINE
  8
1
  6
CONTINUOUS
 10
199.4371853812
 20
262.5404220186
 11
199.4371853812
 21
262.5057820328
  0
LINE
  8
1
  6
CONTINUOUS
 10
199.4371853812
 20
262.5057820328
 11
199.461988208
 21
262.5057820328
  0
LINE
  8
1
  6
CONTINUOUS
 10
199.461988208
 20
282.7457820328
 11
199.4371853812
 21
282.7457820328
  0
LINE
  8
1
  6
CONTINUOUS
 10
199.4371853812
 20
282.7457820328
 11
199.4371853812
 21
282.7111420472
  0
ARC
  8
1
  6
CONTINUOUS
 10
197.8771853811999
 20
280.2457820328
 40
2.917464652800092
 50
9.868162695701203
 51
57.67569600159921
  0
LINE
  8
1
  6
CONTINUOUS
 10
200.7514852958
 20
280.7457820328
 11
200.3795043056
 21
280.7457820328
  0
ARC
  8
1
  6
CONTINUOUS
 10
197.8771853811994
 20
280.2457820328
 40
2.551783689800544
 50
348.7002787714025
 51
11.29972122859747
  0
LINE
  8
1
  6
CONTINUOUS
 10
200.3795043056
 20
279.7457820328
 11
200.7514852958
 21
279.7457820328
  0
ARC
  8
1
  6
CONTINUOUS
 10
197.8771853811999
 20
280.2457820328001
 40
2.917464652800098
 50
302.3243039984008
 51
350.1318373042988
  0
LINE
  8
1
  6
CONTINUOUS
 10
199.4371853812
 20
277.7804220186
 11
199.4371853812
 21
277.7457820328
  0
LINE
  8
1
  6
CONTINUOUS
 10
199.4371853812
 20
277.7457820328
 11
199.461988208
 21
277.7457820328
  0
LINE
  8
1
  6
CONTINUOUS
 10
199.461988208
 20
259.8857820328
 11
199.4371853812
 21
259.8857820328
  0
LINE
  8
1
  6
CONTINUOUS
 10
199.4371853812
 20
259.8857820328
 11
199.4371853812
 21
259.8511420472
  0
ARC
  8
1
  6
CONTINUOUS
 10
197.8771853811999
 20
257.3857820328
 40
2.917464652800092
 50
9.868162695701203
 51
57.67569600159921
  0
LINE
  8
1
  6
CONTINUOUS
 10
200.7514852958
 20
257.8857820328
 11
200.3795043056
 21
257.8857820328
  0
ARC
  8
1
  6
CONTINUOUS
 10
197.8771853811994
 20
257.3857820328
 40
2.551783689800544
 50
348.7002787714025
 51
11.29972122859747
  0
LINE
  8
1
  6
CONTINUOUS
 10
200.3795043056
 20
256.8857820328
 11
200.7514852958
 21
256.8857820328
  0
ARC
  8
1
  6
CONTINUOUS
 10
197.8771853812001
 20
257.3857820328
 40
2.917464652799926
 50
302.3243039983996
 51
350.1318373043005
  0
LINE
  8
1
  6
CONTINUOUS
 10
199.4371853812
 20
254.9204220186
 11
199.4371853812
 21
254.8857820328
  0
LINE
  8
1
  6
CONTINUOUS
 10
199.4371853812
 20
254.8857820328
 11
199.461988208
 21
254.8857820328
  0
LINE
  8
1
  6
CONTINUOUS
 10
198.8371853812
 20
252.5657820328
 11
198.8371853812
 21
246.9657820328
  0
LINE
  8
1
  6
CONTINUOUS
 10
198.8371853812
 20
244.9457820328
 11
198.8371853812
 21
239.3457820328
  0
LINE
  8
1
  6
CONTINUOUS
 10
199.461988208
 20
244.6457820328
 11
199.4371853812
 21
244.6457820328
  0
LINE
  8
1
  6
CONTINUOUS
 10
199.4371853812
 20
244.6457820328
 11
199.4371853812
 21
244.6111420472
  0
ARC
  8
1
  6
CONTINUOUS
 10
197.8771853811999
 20
242.1457820328
 40
2.917464652800087
 50
9.868162695700653
 51
57.67569600159921
  0
LINE
  8
1
  6
CONTINUOUS
 10
200.7514852958
 20
242.6457820328
 11
200.3795043056
 21
242.6457820328
  0
ARC
  8
1
  6
CONTINUOUS
 10
197.8771853811994
 20
242.1457820328
 40
2.551783689800544
 50
348.7002787714025
 51
11.29972122859747
  0
LINE
  8
1
  6
CONTINUOUS
 10
200.3795043056
 20
241.6457820328
 11
200.7514852958
 21
241.6457820328
  0
ARC
  8
1
  6
CONTINUOUS
 10
197.8771853811999
 20
242.1457820328001
 40
2.917464652800098
 50
302.3243039984008
 51
350.1318373042993
  0
LINE
  8
1
  6
CONTINUOUS
 10
199.4371853812
 20
239.6804220186
 11
199.4371853812
 21
239.6457820328
  0
LINE
  8
1
  6
CONTINUOUS
 10
199.4371853812
 20
239.6457820328
 11
199.461988208
 21
239.6457820328
  0
LINE
  8
1
  6
CONTINUOUS
 10
199.461988208
 20
252.2657820328
 11
199.4371853812
 21
252.2657820328
  0
LINE
  8
1
  6
CONTINUOUS
 10
199.4371853812
 20
252.2657820328
 11
199.4371853812
 21
252.2311420472
  0
ARC
  8
1
  6
CONTINUOUS
 10
197.8771853811999
 20
249.7657820328
 40
2.917464652800087
 50
9.868162695700653
 51
57.67569600159921
  0
LINE
  8
1
  6
CONTINUOUS
 10
200.7514852958
 20
250.2657820328
 11
200.3795043056
 21
250.2657820328
  0
ARC
  8
1
  6
CONTINUOUS
 10
197.8771853811994
 20
249.7657820328
 40
2.551783689800544
 50
348.7002787714025
 51
11.29972122859747
  0
LINE
  8
1
  6
CONTINUOUS
 10
200.3795043056
 20
249.2657820328
 11
200.7514852958
 21
249.2657820328
  0
ARC
  8
1
  6
CONTINUOUS
 10
197.8771853811999
 20
249.7657820328001
 40
2.917464652800098
 50
302.3243039984008
 51
350.1318373042993
  0
LINE
  8
1
  6
CONTINUOUS
 10
199.4371853812
 20
247.3004220186
 11
199.4371853812
 21
247.2657820328
  0
LINE
  8
1
  6
CONTINUOUS
 10
199.4371853812
 20
247.2657820328
 11
199.461988208
 21
247.2657820328
  0
LINE
  8
1
  6
CONTINUOUS
 10
212.4371853812
 20
351.7257820328
 11
212.4371853812
 21
351.8857820328
  0
LINE
  8
1
  6
CONTINUOUS
 10
206.4371853812
 20
345.9257820328
 11
206.4371853812
 21
345.6757820328
  0
LINE
  8
1
  6
CONTINUOUS
 10
212.4371853812
 20
351.8857820328
 11
198.4371853812
 21
351.8857820328
  0
LINE
  8
1
  6
CONTINUOUS
 10
206.4371853812
 20
334.2457820328
 11
212.4371853812
 21
334.2457820328
  0
LINE
  8
1
  6
CONTINUOUS
 10
212.4371853812
 20
332.9257820328
 11
212.4371853812
 21
334.2457820328
  0
LINE
  8
1
  6
CONTINUOUS
 10
212.4371853812
 20
332.9257820328
 11
206.4371853812
 21
332.9257820328
  0
LINE
  8
1
  6
CONTINUOUS
 10
206.4371853812
 20
336.7357820328
 11
206.4371853812
 21
334.2457820328
  0
LINE
  8
1
  6
CONTINUOUS
 10
206.4371853812
 20
332.9257820328
 11
206.4371853812
 21
330.4357820328
  0
LINE
  8
1
  6
CONTINUOUS
 10
206.4371853812
 20
319.0057820328
 11
212.4371853812
 21
319.0057820328
  0
LINE
  8
1
  6
CONTINUOUS
 10
212.4371853812
 20
317.6857820328
 11
212.4371853812
 21
319.0057820328
  0
LINE
  8
1
  6
CONTINUOUS
 10
212.4371853812
 20
317.6857820328
 11
206.4371853812
 21
317.6857820328
  0
LINE
  8
1
  6
CONTINUOUS
 10
206.4371853812
 20
317.6857820328
 11
206.4371853812
 21
315.1957820328
  0
LINE
  8
1
  6
CONTINUOUS
 10
206.4371853812
 20
321.4957820328
 11
206.4371853812
 21
319.0057820328
  0
LINE
  8
1
  6
CONTINUOUS
 10
206.4371853812
 20
341.8657820328
 11
212.4371853812
 21
341.8657820328
  0
LINE
  8
1
  6
CONTINUOUS
 10
212.4371853812
 20
340.5457820328
 11
212.4371853812
 21
341.8657820328
  0
LINE
  8
1
  6
CONTINUOUS
 10
212.4371853812
 20
340.5457820328
 11
206.4371853812
 21
340.5457820328
  0
LINE
  8
1
  6
CONTINUOUS
 10
206.4371853812
 20
340.5457820328
 11
206.4371853812
 21
338.0557820328
  0
LINE
  8
1
  6
CONTINUOUS
 10
206.4371853812
 20
341.8657820328
 11
206.4371853812
 21
344.3557820328
  0
LINE
  8
1
  6
CONTINUOUS
 10
206.4371853812
 20
311.3857820328
 11
212.4371853812
 21
311.3857820328
  0
LINE
  8
1
  6
CONTINUOUS
 10
212.4371853812
 20
310.0657820328
 11
212.4371853812
 21
311.3857820328
  0
LINE
  8
1
  6
CONTINUOUS
 10
212.4371853812
 20
310.0657820328
 11
206.4371853812
 21
310.0657820328
  0
LINE
  8
1
  6
CONTINUOUS
 10
206.4371853812
 20
313.8757820328
 11
206.4371853812
 21
311.3857820328
  0
LINE
  8
1
  6
CONTINUOUS
 10
206.4371853812
 20
310.0657820328
 11
206.4371853812
 21
307.5757820328
  0
LINE
  8
1
  6
CONTINUOUS
 10
206.4371853812
 20
303.7657820328
 11
212.4371853812
 21
303.7657820328
  0
LINE
  8
1
  6
CONTINUOUS
 10
212.4371853812
 20
302.4457820328
 11
212.4371853812
 21
303.7657820328
  0
LINE
  8
1
  6
CONTINUOUS
 10
212.4371853812
 20
302.4457820328
 11
206.4371853812
 21
302.4457820328
  0
LINE
  8
1
  6
CONTINUOUS
 10
206.4371853812
 20
306.2557820328
 11
206.4371853812
 21
303.7657820328
  0
LINE
  8
1
  6
CONTINUOUS
 10
206.4371853812
 20
302.4457820328
 11
206.4371853812
 21
299.9557820328
  0
LINE
  8
1
  6
CONTINUOUS
 10
206.4371853812
 20
326.6257820328
 11
212.4371853812
 21
326.6257820328
  0
LINE
  8
1
  6
CONTINUOUS
 10
212.4371853812
 20
325.3057820328
 11
212.4371853812
 21
326.6257820328
  0
LINE
  8
1
  6
CONTINUOUS
 10
212.4371853812
 20
325.3057820328
 11
206.4371853812
 21
325.3057820328
  0
LINE
  8
1
  6
CONTINUOUS
 10
206.4371853812
 20
329.1157820328
 11
206.4371853812
 21
326.6257820328
  0
LINE
  8
1
  6
CONTINUOUS
 10
206.4371853812
 20
325.3057820328
 11
206.4371853812
 21
322.8157820328
  0
LINE
  8
1
  6
CONTINUOUS
 10
206.4371853812
 20
296.1457820328
 11
212.4371853812
 21
296.1457820328
  0
LINE
  8
1
  6
CONTINUOUS
 10
212.4371853812
 20
294.8257820328
 11
212.4371853812
 21
296.1457820328
  0
LINE
  8
1
  6
CONTINUOUS
 10
212.4371853812
 20
294.8257820328
 11
206.4371853812
 21
294.8257820328
  0
LINE
  8
1
  6
CONTINUOUS
 10
206.4371853812
 20
294.8257820328
 11
206.4371853812
 21
292.3357820328
  0
LINE
  8
1
  6
CONTINUOUS
 10
206.4371853812
 20
298.6357820328
 11
206.4371853812
 21
296.1457820328
  0
LINE
  8
1
  6
CONTINUOUS
 10
206.4371853812
 20
273.2857820328
 11
212.4371853812
 21
273.2857820328
  0
LINE
  8
1
  6
CONTINUOUS
 10
212.4371853812
 20
271.9657820328
 11
212.4371853812
 21
273.2857820328
  0
LINE
  8
1
  6
CONTINUOUS
 10
212.4371853812
 20
271.9657820328
 11
206.4371853812
 21
271.9657820328
  0
LINE
  8
1
  6
CONTINUOUS
 10
206.4371853812
 20
271.9657820328
 11
206.4371853812
 21
269.4757820328
  0
LINE
  8
1
  6
CONTINUOUS
 10
206.4371853812
 20
275.7757820328
 11
206.4371853812
 21
273.2857820328
  0
LINE
  8
1
  6
CONTINUOUS
 10
206.4371853812
 20
280.9057820328
 11
212.4371853812
 21
280.9057820328
  0
LINE
  8
1
  6
CONTINUOUS
 10
212.4371853812
 20
279.5857820328
 11
212.4371853812
 21
280.9057820328
  0
LINE
  8
1
  6
CONTINUOUS
 10
212.4371853812
 20
279.5857820328
 11
206.4371853812
 21
279.5857820328
  0
LINE
  8
1
  6
CONTINUOUS
 10
206.4371853812
 20
283.3957820328
 11
206.4371853812
 21
280.9057820328
  0
LINE
  8
1
  6
CONTINUOUS
 10
206.4371853812
 20
279.5857820328
 11
206.4371853812
 21
277.0957820328
  0
LINE
  8
1
  6
CONTINUOUS
 10
206.4371853812
 20
288.5257820328
 11
212.4371853812
 21
288.5257820328
  0
LINE
  8
1
  6
CONTINUOUS
 10
212.4371853812
 20
287.2057820328
 11
212.4371853812
 21
288.5257820328
  0
LINE
  8
1
  6
CONTINUOUS
 10
212.4371853812
 20
287.2057820328
 11
206.4371853812
 21
287.2057820328
  0
LINE
  8
1
  6
CONTINUOUS
 10
206.4371853812
 20
287.2057820328
 11
206.4371853812
 21
284.7157820328
  0
LINE
  8
1
  6
CONTINUOUS
 10
206.4371853812
 20
291.0157820328
 11
206.4371853812
 21
288.5257820328
  0
LINE
  8
1
  6
CONTINUOUS
 10
206.4371853812
 20
265.6657820328
 11
212.4371853812
 21
265.6657820328
  0
LINE
  8
1
  6
CONTINUOUS
 10
212.4371853812
 20
264.3457820328
 11
212.4371853812
 21
265.6657820328
  0
LINE
  8
1
  6
CONTINUOUS
 10
212.4371853812
 20
264.3457820328
 11
206.4371853812
 21
264.3457820328
  0
LINE
  8
1
  6
CONTINUOUS
 10
206.4371853812
 20
264.3457820328
 11
206.4371853812
 21
261.8557820328
  0
LINE
  8
1
  6
CONTINUOUS
 10
206.4371853812
 20
268.1557820328
 11
206.4371853812
 21
265.6657820328
  0
LINE
  8
1
  6
CONTINUOUS
 10
206.4371853812
 20
258.0457820328
 11
212.4371853812
 21
258.0457820328
  0
LINE
  8
1
  6
CONTINUOUS
 10
212.4371853812
 20
256.7257820328
 11
212.4371853812
 21
258.0457820328
  0
LINE
  8
1
  6
CONTINUOUS
 10
212.4371853812
 20
256.7257820328
 11
206.4371853812
 21
256.7257820328
  0
LINE
  8
1
  6
CONTINUOUS
 10
206.4371853812
 20
260.5357820328
 11
206.4371853812
 21
258.0457820328
  0
LINE
  8
1
  6
CONTINUOUS
 10
206.4371853812
 20
256.7257820328
 11
206.4371853812
 21
254.2357820328
  0
LINE
  8
1
  6
CONTINUOUS
 10
206.4371853812
 20
250.4257820328
 11
212.4371853812
 21
250.4257820328
  0
LINE
  8
1
  6
CONTINUOUS
 10
212.4371853812
 20
249.1057820328
 11
212.4371853812
 21
250.4257820328
  0
LINE
  8
1
  6
CONTINUOUS
 10
212.4371853812
 20
249.1057820328
 11
206.4371853812
 21
249.1057820328
  0
LINE
  8
1
  6
CONTINUOUS
 10
206.4371853812
 20
252.9157820328
 11
206.4371853812
 21
250.4257820328
  0
LINE
  8
1
  6
CONTINUOUS
 10
206.4371853812
 20
249.1057820328
 11
206.4371853812
 21
246.6157820328
  0
LINE
  8
1
  6
CONTINUOUS
 10
206.4371853812
 20
242.8057820328
 11
212.4371853812
 21
242.8057820328
  0
LINE
  8
1
  6
CONTINUOUS
 10
212.4371853812
 20
241.4857820328
 11
212.4371853812
 21
242.8057820328
  0
LINE
  8
1
  6
CONTINUOUS
 10
212.4371853812
 20
241.4857820328
 11
206.4371853812
 21
241.4857820328
  0
LINE
  8
1
  6
CONTINUOUS
 10
206.4371853812
 20
241.4857820328
 11
206.4371853812
 21
238.9957820328
  0
LINE
  8
1
  6
CONTINUOUS
 10
206.4371853812
 20
245.2957820328
 11
206.4371853812
 21
242.8057820328
  0
LINE
  8
1
  6
CONTINUOUS
 10
212.4371853812
 20
231.4657820328
 11
212.4371853812
 21
231.6257820328
  0
LINE
  8
1
  6
CONTINUOUS
 10
206.4371853812
 20
237.6757820328
 11
206.4371853812
 21
237.4257820328
  0
LINE
  8
1
  6
CONTINUOUS
 10
212.4371853812
 20
231.4657820328
 11
198.4371853812
 21
231.4657820328
  0
LINE
  8
1
  6
CONTINUOUS
 10
206.8371853812
 20
345.9257820328
 11
206.8371853812
 21
342.2157820328
  0
LINE
  8
1
  6
CONTINUOUS
 10
206.8371853812
 20
340.1957820328
 11
206.8371853812
 21
334.5957820328
  0
LINE
  8
1
  6
CONTINUOUS
 10
206.8371853812
 20
332.5757820328
 11
206.8371853812
 21
326.9757820328
  0
ARC
  8
1
  6
CONTINUOUS
 10
205.8771853811978
 20
345.0157820327996
 40
2.917464652802289
 50
9.868162695701631
 51
18.17465483839485
  0
LINE
  8
1
  6
CONTINUOUS
 10
208.7514852958
 20
345.5157820328
 11
208.3795043056
 21
345.5157820328
  0
ARC
  8
1
  6
CONTINUOUS
 10
205.8771853811994
 20
345.0157820328
 40
2.551783689800544
 50
348.7002787714025
 51
11.29972122859747
  0
LINE
  8
1
  6
CONTINUOUS
 10
208.3795043056
 20
344.5157820328
 11
208.7514852958
 21
344.5157820328
  0
ARC
  8
1
  6
CONTINUOUS
 10
205.8771853811999
 20
345.0157820328001
 40
2.917464652800098
 50
302.3243039984008
 51
350.1318373042988
  0
LINE
  8
1
  6
CONTINUOUS
 10
207.4371853812
 20
342.5504220186
 11
207.4371853812
 21
342.5157820328
  0
LINE
  8
1
  6
CONTINUOUS
 10
207.4371853812
 20
342.5157820328
 11
207.461988208
 21
342.5157820328
  0
LINE
  8
1
  6
CONTINUOUS
 10
206.8371853812
 20
324.9557820328
 11
206.8371853812
 21
319.3557820328
  0
LINE
  8
1
  6
CONTINUOUS
 10
207.461988208
 20
339.8957820328
 11
207.4371853812
 21
339.8957820328
  0
LINE
  8
1
  6
CONTINUOUS
 10
207.4371853812
 20
339.8957820328
 11
207.4371853812
 21
339.8611420472
  0
ARC
  8
1
  6
CONTINUOUS
 10
205.8771853811999
 20
337.3957820328
 40
2.917464652800092
 50
9.868162695701203
 51
57.67569600159921
  0
LINE
  8
1
  6
CONTINUOUS
 10
208.7514852958
 20
337.8957820328
 11
208.3795043056
 21
337.8957820328
  0
ARC
  8
1
  6
CONTINUOUS
 10
205.8771853811994
 20
337.3957820328
 40
2.551783689800544
 50
348.7002787714025
 51
11.29972122859747
  0
LINE
  8
1
  6
CONTINUOUS
 10
208.3795043056
 20
336.8957820328
 11
208.7514852958
 21
336.8957820328
  0
ARC
  8
1
  6
CONTINUOUS
 10
205.8771853811999
 20
337.3957820328001
 40
2.917464652800098
 50
302.3243039984008
 51
350.1318373042988
  0
LINE
  8
1
  6
CONTINUOUS
 10
207.4371853812
 20
334.9304220186
 11
207.4371853812
 21
334.8957820328
  0
LINE
  8
1
  6
CONTINUOUS
 10
207.4371853812
 20
334.8957820328
 11
207.461988208
 21
334.8957820328
  0
LINE
  8
1
  6
CONTINUOUS
 10
207.461988208
 20
332.2757820328
 11
207.4371853812
 21
332.2757820328
  0
LINE
  8
1
  6
CONTINUOUS
 10
207.4371853812
 20
332.2757820328
 11
207.4371853812
 21
332.2411420472
  0
ARC
  8
1
  6
CONTINUOUS
 10
205.8771853811999
 20
329.7757820328
 40
2.917464652800092
 50
9.868162695701203
 51
57.67569600159921
  0
LINE
  8
1
  6
CONTINUOUS
 10
208.7514852958
 20
330.2757820328
 11
208.3795043056
 21
330.2757820328
  0
ARC
  8
1
  6
CONTINUOUS
 10
205.8771853811994
 20
329.7757820328
 40
2.551783689800544
 50
348.7002787714025
 51
11.29972122859747
  0
LINE
  8
1
  6
CONTINUOUS
 10
208.3795043056
 20
329.2757820328
 11
208.7514852958
 21
329.2757820328
  0
ARC
  8
1
  6
CONTINUOUS
 10
205.8771853811999
 20
329.7757820328001
 40
2.917464652800098
 50
302.3243039984008
 51
350.1318373042988
  0
LINE
  8
1
  6
CONTINUOUS
 10
207.4371853812
 20
327.3104220186
 11
207.4371853812
 21
327.2757820328
  0
LINE
  8
1
  6
CONTINUOUS
 10
207.4371853812
 20
327.2757820328
 11
207.461988208
 21
327.2757820328
  0
LINE
  8
1
  6
CONTINUOUS
 10
206.8371853812
 20
309.7157820328
 11
206.8371853812
 21
304.1157820328
  0
LINE
  8
1
  6
CONTINUOUS
 10
206.8371853812
 20
317.3357820328
 11
206.8371853812
 21
311.7357820328
  0
LINE
  8
1
  6
CONTINUOUS
 10
207.461988208
 20
324.6557820328
 11
207.4371853812
 21
324.6557820328
  0
LINE
  8
1
  6
CONTINUOUS
 10
207.4371853812
 20
324.6557820328
 11
207.4371853812
 21
324.6211420472
  0
ARC
  8
1
  6
CONTINUOUS
 10
205.8771853811999
 20
322.1557820328
 40
2.917464652800137
 50
9.868162695800761
 51
57.67569600159827
  0
LINE
  8
1
  6
CONTINUOUS
 10
208.7514852958
 20
322.6557820328
 11
208.3795043056
 21
322.6557820328
  0
ARC
  8
1
  6
CONTINUOUS
 10
205.8771853811994
 20
322.1557820328
 40
2.551783689800544
 50
348.7002787714025
 51
11.29972122859747
  0
LINE
  8
1
  6
CONTINUOUS
 10
208.3795043056
 20
321.6557820328
 11
208.7514852958
 21
321.6557820328
  0
ARC
  8
1
  6
CONTINUOUS
 10
205.8771853811999
 20
322.1557820328001
 40
2.917464652800098
 50
302.3243039984008
 51
350.1318373042988
  0
LINE
  8
1
  6
CONTINUOUS
 10
207.4371853812
 20
319.6904220186
 11
207.4371853812
 21
319.6557820328
  0
LINE
  8
1
  6
CONTINUOUS
 10
207.4371853812
 20
319.6557820328
 11
207.461988208
 21
319.6557820328
  0
LINE
  8
1
  6
CONTINUOUS
 10
206.8371853812
 20
294.4757820328
 11
206.8371853812
 21
288.8757820328
  0
LINE
  8
1
  6
CONTINUOUS
 10
206.8371853812
 20
302.0957820328
 11
206.8371853812
 21
296.4957820328
  0
LINE
  8
1
  6
CONTINUOUS
 10
207.461988208
 20
309.4157820328
 11
207.4371853812
 21
309.4157820328
  0
LINE
  8
1
  6
CONTINUOUS
 10
207.4371853812
 20
309.4157820328
 11
207.4371853812
 21
309.3811420472
  0
ARC
  8
1
  6
CONTINUOUS
 10
205.8771853811999
 20
306.9157820327999
 40
2.917464652800092
 50
9.868162695701203
 51
57.67569600159921
  0
LINE
  8
1
  6
CONTINUOUS
 10
208.7514852958
 20
307.4157820328
 11
208.3795043056
 21
307.4157820328
  0
ARC
  8
1
  6
CONTINUOUS
 10
205.8771853811994
 20
306.9157820328
 40
2.551783689800544
 50
348.7002787714025
 51
11.29972122859747
  0
LINE
  8
1
  6
CONTINUOUS
 10
208.3795043056
 20
306.4157820328
 11
208.7514852958
 21
306.4157820328
  0
ARC
  8
1
  6
CONTINUOUS
 10
205.8771853811997
 20
306.9157820328002
 40
2.917464652800348
 50
302.3243039984023
 51
350.1318373041965
  0
LINE
  8
1
  6
CONTINUOUS
 10
207.4371853812
 20
304.4504220186
 11
207.4371853812
 21
304.4157820328
  0
LINE
  8
1
  6
CONTINUOUS
 10
207.4371853812
 20
304.4157820328
 11
207.461988208
 21
304.4157820328
  0
LINE
  8
1
  6
CONTINUOUS
 10
206.8371853812
 20
286.8557820328
 11
206.8371853812
 21
281.2557820328
  0
LINE
  8
1
  6
CONTINUOUS
 10
207.461988208
 20
317.0357820328
 11
207.4371853812
 21
317.0357820328
  0
LINE
  8
1
  6
CONTINUOUS
 10
207.4371853812
 20
317.0357820328
 11
207.4371853812
 21
317.0011420472
  0
ARC
  8
1
  6
CONTINUOUS
 10
205.8771853811999
 20
314.5357820327999
 40
2.917464652800092
 50
9.868162695701203
 51
57.67569600159921
  0
LINE
  8
1
  6
CONTINUOUS
 10
208.7514852958
 20
315.0357820328
 11
208.3795043056
 21
315.0357820328
  0
ARC
  8
1
  6
CONTINUOUS
 10
205.8771853811994
 20
314.5357820328
 40
2.551783689800544
 50
348.7002787714025
 51
11.29972122859747
  0
LINE
  8
1
  6
CONTINUOUS
 10
208.3795043056
 20
314.0357820328
 11
208.7514852958
 21
314.0357820328
  0
ARC
  8
1
  6
CONTINUOUS
 10
205.8771853811999
 20
314.5357820328001
 40
2.917464652800098
 50
302.3243039984008
 51
350.1318373042988
  0
LINE
  8
1
  6
CONTINUOUS
 10
207.4371853812
 20
312.0704220186
 11
207.4371853812
 21
312.0357820328
  0
LINE
  8
1
  6
CONTINUOUS
 10
207.4371853812
 20
312.0357820328
 11
207.461988208
 21
312.0357820328
  0
LINE
  8
1
  6
CONTINUOUS
 10
206.8371853812
 20
279.2357820328
 11
206.8371853812
 21
273.6357820328
  0
LINE
  8
1
  6
CONTINUOUS
 10
207.461988208
 20
294.1757820328
 11
207.4371853812
 21
294.1757820328
  0
LINE
  8
1
  6
CONTINUOUS
 10
207.4371853812
 20
294.1757820328
 11
207.4371853812
 21
294.1411420472
  0
ARC
  8
1
  6
CONTINUOUS
 10
205.8771853811999
 20
291.6757820327999
 40
2.917464652800092
 50
9.868162695701203
 51
57.67569600159921
  0
LINE
  8
1
  6
CONTINUOUS
 10
208.7514852958
 20
292.1757820328
 11
208.3795043056
 21
292.1757820328
  0
ARC
  8
1
  6
CONTINUOUS
 10
205.8771853811994
 20
291.6757820328
 40
2.551783689800544
 50
348.7002787714025
 51
11.29972122859747
  0
LINE
  8
1
  6
CONTINUOUS
 10
208.3795043056
 20
291.1757820328
 11
208.7514852958
 21
291.1757820328
  0
ARC
  8
1
  6
CONTINUOUS
 10
205.8771853811999
 20
291.6757820328
 40
2.917464652800098
 50
302.3243039984008
 51
350.1318373042988
  0
LINE
  8
1
  6
CONTINUOUS
 10
207.4371853812
 20
289.2104220186
 11
207.4371853812
 21
289.1757820328
  0
LINE
  8
1
  6
CONTINUOUS
 10
207.4371853812
 20
289.1757820328
 11
207.461988208
 21
289.1757820328
  0
LINE
  8
1
  6
CONTINUOUS
 10
207.461988208
 20
301.7957820328
 11
207.4371853812
 21
301.7957820328
  0
LINE
  8
1
  6
CONTINUOUS
 10
207.4371853812
 20
301.7957820328
 11
207.4371853812
 21
301.7611420472
  0
ARC
  8
1
  6
CONTINUOUS
 10
205.8771853811999
 20
299.2957820327999
 40
2.917464652800092
 50
9.868162695701203
 51
57.67569600159921
  0
LINE
  8
1
  6
CONTINUOUS
 10
208.7514852958
 20
299.7957820328
 11
208.3795043056
 21
299.7957820328
  0
ARC
  8
1
  6
CONTINUOUS
 10
205.8771853811994
 20
299.2957820328
 40
2.551783689800544
 50
348.7002787714025
 51
11.29972122859747
  0
LINE
  8
1
  6
CONTINUOUS
 10
208.3795043056
 20
298.7957820328
 11
208.7514852958
 21
298.7957820328
  0
ARC
  8
1
  6
CONTINUOUS
 10
205.8771853811999
 20
299.2957820328001
 40
2.917464652800098
 50
302.3243039984008
 51
350.1318373042988
  0
LINE
  8
1
  6
CONTINUOUS
 10
207.4371853812
 20
296.8304220186
 11
207.4371853812
 21
296.7957820328
  0
LINE
  8
1
  6
CONTINUOUS
 10
207.4371853812
 20
296.7957820328
 11
207.461988208
 21
296.7957820328
  0
LINE
  8
1
  6
CONTINUOUS
 10
206.8371853812
 20
271.6157820328
 11
206.8371853812
 21
266.0157820328
  0
LINE
  8
1
  6
CONTINUOUS
 10
207.461988208
 20
286.5557820328
 11
207.4371853812
 21
286.5557820328
  0
LINE
  8
1
  6
CONTINUOUS
 10
207.4371853812
 20
286.5557820328
 11
207.4371853812
 21
286.5211420472
  0
ARC
  8
1
  6
CONTINUOUS
 10
205.8771853811999
 20
284.0557820327999
 40
2.917464652800092
 50
9.868162695701203
 51
57.67569600159921
  0
LINE
  8
1
  6
CONTINUOUS
 10
208.7514852958
 20
284.5557820328
 11
208.3795043056
 21
284.5557820328
  0
ARC
  8
1
  6
CONTINUOUS
 10
205.8771853811994
 20
284.0557820328
 40
2.551783689800544
 50
348.7002787714025
 51
11.29972122859747
  0
LINE
  8
1
  6
CONTINUOUS
 10
208.3795043056
 20
283.5557820328
 11
208.7514852958
 21
283.5557820328
  0
ARC
  8
1
  6
CONTINUOUS
 10
205.8771853811997
 20
284.0557820328002
 40
2.917464652800348
 50
302.3243039984023
 51
350.1318373041965
  0
LINE
  8
1
  6
CONTINUOUS
 10
207.4371853812
 20
281.5904220186
 11
207.4371853812
 21
281.5557820328
  0
LINE
  8
1
  6
CONTINUOUS
 10
207.4371853812
 20
281.5557820328
 11
207.461988208
 21
281.5557820328
  0
LINE
  8
1
  6
CONTINUOUS
 10
207.461988208
 20
278.9357820328
 11
207.4371853812
 21
278.9357820328
  0
LINE
  8
1
  6
CONTINUOUS
 10
207.4371853812
 20
278.9357820328
 11
207.4371853812
 21
278.9011420472
  0
ARC
  8
1
  6
CONTINUOUS
 10
205.8771853811999
 20
276.4357820328
 40
2.917464652800082
 50
9.868162695700104
 51
57.67569600159815
  0
LINE
  8
1
  6
CONTINUOUS
 10
208.7514852958
 20
276.9357820328
 11
208.3795043056
 21
276.9357820328
  0
ARC
  8
1
  6
CONTINUOUS
 10
205.8771853811994
 20
276.4357820328
 40
2.551783689800544
 50
348.7002787714025
 51
11.29972122859747
  0
LINE
  8
1
  6
CONTINUOUS
 10
208.3795043056
 20
275.9357820328
 11
208.7514852958
 21
275.9357820328
  0
ARC
  8
1
  6
CONTINUOUS
 10
205.8771853811999
 20
276.4357820328
 40
2.91746465280005
 50
302.3243039984014
 51
350.1318373042998
  0
LINE
  8
1
  6
CONTINUOUS
 10
207.4371853812
 20
273.9704220186
 11
207.4371853812
 21
273.9357820328
  0
LINE
  8
1
  6
CONTINUOUS
 10
207.4371853812
 20
273.9357820328
 11
207.461988208
 21
273.9357820328
  0
LINE
  8
1
  6
CONTINUOUS
 10
206.8371853812
 20
256.3757820328
 11
206.8371853812
 21
250.7757820328
  0
LINE
  8
1
  6
CONTINUOUS
 10
206.8371853812
 20
263.9957820328
 11
206.8371853812
 21
258.3957820328
  0
LINE
  8
1
  6
CONTINUOUS
 10
207.461988208
 20
271.3157820328
 11
207.4371853812
 21
271.3157820328
  0
LINE
  8
1
  6
CONTINUOUS
 10
207.4371853812
 20
271.3157820328
 11
207.4371853812
 21
271.2811420472
  0
ARC
  8
1
  6
CONTINUOUS
 10
205.8771853811999
 20
268.8157820328
 40
2.917464652800082
 50
9.868162695700104
 51
57.67569600159815
  0
LINE
  8
1
  6
CONTINUOUS
 10
208.7514852958
 20
269.3157820328
 11
208.3795043056
 21
269.3157820328
  0
ARC
  8
1
  6
CONTINUOUS
 10
205.8771853811994
 20
268.8157820328
 40
2.551783689800544
 50
348.7002787714025
 51
11.29972122859747
  0
LINE
  8
1
  6
CONTINUOUS
 10
208.3795043056
 20
268.3157820328
 11
208.7514852958
 21
268.3157820328
  0
ARC
  8
1
  6
CONTINUOUS
 10
205.8771853811999
 20
268.8157820328
 40
2.91746465280005
 50
302.3243039984014
 51
350.1318373042998
  0
LINE
  8
1
  6
CONTINUOUS
 10
207.4371853812
 20
266.3504220186
 11
207.4371853812
 21
266.3157820328
  0
LINE
  8
1
  6
CONTINUOUS
 10
207.4371853812
 20
266.3157820328
 11
207.461988208
 21
266.3157820328
  0
LINE
  8
1
  6
CONTINUOUS
 10
206.8371853812
 20
241.1357820328
 11
206.8371853812
 21
237.4257820328
  0
LINE
  8
1
  6
CONTINUOUS
 10
206.8371853812
 20
248.7557820328
 11
206.8371853812
 21
243.1557820328
  0
LINE
  8
1
  6
CONTINUOUS
 10
207.461988208
 20
263.6957820328
 11
207.4371853812
 21
263.6957820328
  0
LINE
  8
1
  6
CONTINUOUS
 10
207.4371853812
 20
263.6957820328
 11
207.4371853812
 21
263.6611420472
  0
ARC
  8
1
  6
CONTINUOUS
 10
205.8771853811999
 20
261.1957820328
 40
2.917464652800137
 50
9.868162695800761
 51
57.67569600159827
  0
LINE
  8
1
  6
CONTINUOUS
 10
208.7514852958
 20
261.6957820328
 11
208.3795043056
 21
261.6957820328
  0
ARC
  8
1
  6
CONTINUOUS
 10
205.8771853811994
 20
261.1957820328
 40
2.551783689800544
 50
348.7002787714025
 51
11.29972122859747
  0
LINE
  8
1
  6
CONTINUOUS
 10
208.3795043056
 20
260.6957820328
 11
208.7514852958
 21
260.6957820328
  0
ARC
  8
1
  6
CONTINUOUS
 10
205.8771853811999
 20
261.1957820328
 40
2.91746465280005
 50
302.3243039984014
 51
350.1318373042998
  0
LINE
  8
1
  6
CONTINUOUS
 10
207.4371853812
 20
258.7304220186
 11
207.4371853812
 21
258.6957820328
  0
LINE
  8
1
  6
CONTINUOUS
 10
207.4371853812
 20
258.6957820328
 11
207.461988208
 21
258.6957820328
  0
LINE
  8
1
  6
CONTINUOUS
 10
207.461988208
 20
256.0757820328
 11
207.4371853812
 21
256.0757820328
  0
LINE
  8
1
  6
CONTINUOUS
 10
207.4371853812
 20
256.0757820328
 11
207.4371853812
 21
256.0411420472
  0
ARC
  8
1
  6
CONTINUOUS
 10
205.8771853811999
 20
253.5757820328
 40
2.917464652800087
 50
9.868162695700653
 51
57.67569600159921
  0
LINE
  8
1
  6
CONTINUOUS
 10
208.7514852958
 20
254.0757820328
 11
208.3795043056
 21
254.0757820328
  0
ARC
  8
1
  6
CONTINUOUS
 10
205.8771853811994
 20
253.5757820328
 40
2.551783689800544
 50
348.7002787714025
 51
11.29972122859747
  0
LINE
  8
1
  6
CONTINUOUS
 10
208.3795043056
 20
253.0757820328
 11
208.7514852958
 21
253.0757820328
  0
ARC
  8
1
  6
CONTINUOUS
 10
205.8771853811999
 20
253.5757820328001
 40
2.917464652800098
 50
302.3243039984008
 51
350.1318373042993
  0
LINE
  8
1
  6
CONTINUOUS
 10
207.4371853812
 20
251.1104220186
 11
207.4371853812
 21
251.0757820328
  0
LINE
  8
1
  6
CONTINUOUS
 10
207.4371853812
 20
251.0757820328
 11
207.461988208
 21
251.0757820328
  0
LINE
  8
1
  6
CONTINUOUS
 10
207.461988208
 20
240.8357820328
 11
207.4371853812
 21
240.8357820328
  0
LINE
  8
1
  6
CONTINUOUS
 10
207.4371853812
 20
240.8357820328
 11
207.4371853812
 21
240.8011420472
  0
ARC
  8
1
  6
CONTINUOUS
 10
205.8771853811999
 20
238.3357820328
 40
2.917464652800087
 50
9.868162695700653
 51
57.67569600159921
  0
LINE
  8
1
  6
CONTINUOUS
 10
208.7514852958
 20
238.8357820328
 11
208.3795043056
 21
238.8357820328
  0
ARC
  8
1
  6
CONTINUOUS
 10
205.8771853811994
 20
238.3357820328
 40
2.551783689800544
 50
348.7002787714025
 51
11.29972122859747
  0
LINE
  8
1
  6
CONTINUOUS
 10
208.3795043056
 20
237.8357820328
 11
208.7514852958
 21
237.8357820328
  0
ARC
  8
1
  6
CONTINUOUS
 10
205.877185381201
 20
238.3357820327998
 40
2.917464652798979
 50
341.8253451615973
 51
350.1318373043007
  0
LINE
  8
1
  6
CONTINUOUS
 10
207.461988208
 20
248.4557820328
 11
207.4371853812
 21
248.4557820328
  0
LINE
  8
1
  6
CONTINUOUS
 10
207.4371853812
 20
248.4557820328
 11
207.4371853812
 21
248.4211420472
  0
ARC
  8
1
  6
CONTINUOUS
 10
205.8771853811999
 20
245.9557820328
 40
2.917464652800087
 50
9.868162695700653
 51
57.67569600159921
  0
LINE
  8
1
  6
CONTINUOUS
 10
208.7514852958
 20
246.4557820328
 11
208.3795043056
 21
246.4557820328
  0
ARC
  8
1
  6
CONTINUOUS
 10
205.8771853811994
 20
245.9557820328
 40
2.551783689800544
 50
348.7002787714025
 51
11.29972122859747
  0
LINE
  8
1
  6
CONTINUOUS
 10
208.3795043056
 20
245.4557820328
 11
208.7514852958
 21
245.4557820328
  0
ARC
  8
1
  6
CONTINUOUS
 10
205.8771853811999
 20
245.9557820328001
 40
2.917464652800098
 50
302.3243039984008
 51
350.1318373042993
  0
LINE
  8
1
  6
CONTINUOUS
 10
207.4371853812
 20
243.4904220186
 11
207.4371853812
 21
243.4557820328
  0
LINE
  8
1
  6
CONTINUOUS
 10
207.4371853812
 20
243.4557820328
 11
207.461988208
 21
243.4557820328
  0
LINE
  8
1
  6
CONTINUOUS
 10
212.4371853812
 20
334.2457820328
 11
212.4371853812
 21
340.5457820328
  0
LINE
  8
1
  6
CONTINUOUS
 10
212.4371853812
 20
341.8657820328
 11
212.4371853812
 21
345.9257820328
  0
LINE
  8
1
  6
CONTINUOUS
 10
212.4371853812
 20
326.6257820328
 11
212.4371853812
 21
332.9257820328
  0
LINE
  8
1
  6
CONTINUOUS
 10
212.4371853812
 20
319.0057820328
 11
212.4371853812
 21
325.3057820328
  0
LINE
  8
1
  6
CONTINUOUS
 10
212.4371853812
 20
311.3857820328
 11
212.4371853812
 21
317.6857820328
  0
LINE
  8
1
  6
CONTINUOUS
 10
212.4371853812
 20
303.7657820328
 11
212.4371853812
 21
310.0657820328
  0
LINE
  8
1
  6
CONTINUOUS
 10
212.4371853812
 20
296.1457820328
 11
212.4371853812
 21
302.4457820328
  0
LINE
  8
1
  6
CONTINUOUS
 10
212.4371853812
 20
280.9057820328
 11
212.4371853812
 21
287.2057820328
  0
LINE
  8
1
  6
CONTINUOUS
 10
212.4371853812
 20
288.5257820328
 11
212.4371853812
 21
294.8257820328
  0
LINE
  8
1
  6
CONTINUOUS
 10
212.4371853812
 20
273.2857820328
 11
212.4371853812
 21
279.5857820328
  0
LINE
  8
1
  6
CONTINUOUS
 10
212.4371853812
 20
265.6657820328
 11
212.4371853812
 21
271.9657820328
  0
LINE
  8
1
  6
CONTINUOUS
 10
212.4371853812
 20
258.0457820328
 11
212.4371853812
 21
264.3457820328
  0
LINE
  8
1
  6
CONTINUOUS
 10
212.4371853812
 20
250.4257820328
 11
212.4371853812
 21
256.7257820328
  0
LINE
  8
1
  6
CONTINUOUS
 10
212.4371853812
 20
242.8057820328
 11
212.4371853812
 21
249.1057820328
  0
LINE
  8
1
  6
CONTINUOUS
 10
212.4371853812
 20
237.4257820328
 11
212.4371853812
 21
241.4857820328
  0
LINE
  8
1
  6
CONTINUOUS
 10
215.1371853812
 20
237.5257820328
 11
215.1371853812
 21
231.5257820328
  0
LINE
  8
1
  6
CONTINUOUS
 10
215.1371853812
 20
351.8257820328
 11
215.1371853812
 21
345.8257820328
  0
LINE
  8
1
  6
CONTINUOUS
 10
197.7371853812
 20
230.8257820328
 11
197.7371853812
 21
230.5300062926
  0
LINE
  8
1
  6
CONTINUOUS
 10
162.9371853812
 20
232.8257820328
 11
81.9371853812
 21
232.8257820328
  0
LINE
  8
1
  6
CONTINUOUS
 10
81.9371853812
 20
232.8257820328
 11
81.9371853812
 21
358.8257820328
  0
LINE
  8
1
  6
CONTINUOUS
 10
81.9371853812
 20
358.8257820328
 11
162.9371853812
 21
358.8257820328
  0
LINE
  8
1
  6
CONTINUOUS
 10
162.9371853812
 20
358.8257820328
 11
162.9371853812
 21
232.8257820328
  0
LINE
  8
1
  6
CONTINUOUS
 10
216.0263055228
 20
234.123266812
 11
216.0263055228
 21
237.2757820328
  0
LINE
  8
1
  6
CONTINUOUS
 10
216.0263055228
 20
231.7757820328
 11
216.0263055228
 21
234.123266812
  0
LINE
  8
1
  6
CONTINUOUS
 10
216.9828255464
 20
234.226944975
 11
216.9828255464
 21
232.4841153662
  0
LINE
  8
1
  6
CONTINUOUS
 10
216.9828255464
 20
236.5674486996
 11
216.9828255464
 21
234.226944975
  0
LINE
  8
1
  6
CONTINUOUS
 10
216.0263055228
 20
348.5127444942
 11
216.0263055228
 21
351.5757820328
  0
LINE
  8
1
  6
CONTINUOUS
 10
216.0263055228
 20
346.0757820328
 11
216.0263055228
 21
348.5127444942
  0
LINE
  8
1
  6
CONTINUOUS
 10
216.9828255464
 20
348.5933753754
 11
216.9828255464
 21
346.7841153662
  0
LINE
  8
1
  6
CONTINUOUS
 10
216.9828255464
 20
350.8674486996
 11
216.9828255464
 21
348.5933753754
  0
LINE
  8
1
  6
CONTINUOUS
 10
198.6263055228
 20
230.5144866428
 11
198.6263055228
 21
230.5757820328
  0
LINE
  8
14
  6
CENTER
 10
295.6773208642
 20
406.3257820328
 11
309.6773208642
 21
406.3257820328
  0
LINE
  8
14
  6
CENTER
 10
302.6773208642
 20
399.3257820328
 11
302.6773208642
 21
413.3257820328
  0
LINE
  8
14
  6
CENTER
 10
338.6773208642
 20
406.3257820328
 11
352.6773208642
 21
406.3257820328
  0
LINE
  8
14
  6
CENTER
 10
345.6773208642
 20
399.3257820328
 11
345.6773208642
 21
413.3257820328
  0
LINE
  8
14
  6
CENTER
 10
295.6773208642
 20
206.3257820328
 11
309.6773208642
 21
206.3257820328
  0
LINE
  8
14
  6
CENTER
 10
302.6773208642
 20
199.3257820328
 11
302.6773208642
 21
213.3257820328
  0
LINE
  8
14
  6
CENTER
 10
338.6773208642
 20
206.3257820328
 11
352.6773208642
 21
206.3257820328
  0
LINE
  8
14
  6
CENTER
 10
345.6773208642
 20
199.3257820328
 11
345.6773208642
 21
213.3257820328
  0
ENDSEC
  0
EOF
