  0
SECTION
  2
HEADER
  9
$ACADVER
  1
AC1006
  9
$INSBASE
 10
0.0
 20
0.0
 30
0.0
  9
$EXTMIN
 10
-1.818100876571304
 20
-105.3675688632699
  9
$EXTMAX
 10
304.4229237707306
 20
140.5810810810811
  9
$LIMMIN
 10
-1.818100876571304
 20
-105.3675688632699
  9
$LIMMAX
 10
304.4229237707306
 20
140.5810810810811
  9
$ORTHOMODE
 70
     0
  9
$REGENMODE
 70
     1
  9
$FILLMODE
 70
     1
  9
$QTEXTMODE
 70
     0
  9
$MIRRTEXT
 70
     1
  9
$DRAGMODE
 70
     2
  9
$LTSCALE
 40
1.0
  9
$OSMODE
 70
     0
  9
$ATTMODE
 70
     1
  9
$TEXTSIZE
 40
3.0
  9
$TRACEWID
 40
0.5
  9
$TEXTSTYLE
  7
STANDARD
  9
$CLAYER
  8
0
  9
$CELTYPE
  6
BYLAYER
  9
$CECOLOR
 62
   256
  9
$DIMSCALE
 40
1.0
  9
$DIMASZ
 40
3.0
  9
$DIMEXO
 40
1.0
  9
$DIMDLI
 40
5.0
  9
$DIMRND
 40
0.0
  9
$DIMDLE
 40
5.0
  9
$DIMEXE
 40
2.0
  9
$DIMTP
 40
0.0
  9
$DIMTM
 40
0.0
  9
$DIMTXT
 40
3.0
  9
$DIMCEN
 40
2.0
  9
$DIMTSZ
 40
0.0
  9
$DIMTOL
 70
     0
  9
$DIMLIM
 70
     0
  9
$DIMTIH
 70
     0
  9
$DIMTOH
 70
     0
  9
$DIMSE1
 70
     0
  9
$DIMSE2
 70
     0
  9
$DIMTAD
 70
     1
  9
$DIMZIN
 70
     8
  9
$DIMBLK
  1

  9
$DIMASO
 70
     1
  9
$DIMSHO
 70
     0
  9
$DIMPOST
  1

  9
$DIMAPOST
  1

  9
$DIMALT
 70
     0
  9
$DIMALTD
 70
     4
  9
$DIMALTF
 40
25.4
  9
$DIMLFAC
 40
1.0
  9
$DIMTOFL
 70
     1
  9
$DIMTVP
 40
1.0
  9
$DIMTIX
 70
     0
  9
$DIMSOXD
 70
     0
  9
$DIMSAH
 70
     0
  9
$DIMBLK1
  1

  9
$DIMBLK2
  1

  9
$LUNITS
 70
     2
  9
$LUPREC
 70
     4
  9
$AXISMODE
 70
     0
  9
$AXISUNIT
 10
0.0
 20
0.0
  9
$SKETCHINC
 40
1.0
  9
$FILLETRAD
 40
0.0
  9
$AUNITS
 70
     0
  9
$AUPREC
 70
     0
  9
$MENU
  1
acad
  9
$ELEVATION
 40
0.0
  9
$THICKNESS
 40
0.0
  9
$LIMCHECK
 70
     0
  9
$BLIPMODE
 70
     1
  9
$CHAMFERA
 40
0.0
  9
$CHAMFERB
 40
0.0
  9
$SKPOLY
 70
     0
  9
$TDCREATE
 40
2454078.697233796
  9
$TDUPDATE
 40
2454078.697233796
  9
$TDINDWG
 40
0.0
  9
$TDUSRTIMER
 40
0.0
  9
$USRTIMER
 70
     1
  9
$ANGBASE
 50
0.0
  9
$ANGDIR
 70
     0
  9
$PDMODE
 70
     0
  9
$PDSIZE
 40
0.0
  9
$PLINEWID
 40
0.0
  9
$COORDS
 70
     0
  9
$SPLFRAME
 70
     0
  9
$SPLINETYPE
 70
     6
  9
$SPLINESEGS
 70
     8
  9
$ATTDIA
 70
     0
  9
$ATTREQ
 70
     1
  9
$HANDLING
 70
     0
  9
$HANDSEED
  5
0
  9
$SURFTAB1
 70
     6
  9
$SURFTAB2
 70
     6
  9
$SURFTYPE
 70
     6
  9
$SURFU
 70
     6
  9
$SURFV
 70
     6
  9
$FLATLAND
 70
     0
  9
$UCSNAME
  2

  9
$UCSORG
 10
0.0
 20
0.0
 30
0.0
  9
$UCSXDIR
 10
1.0
 20
0.0
 30
0.0
  9
$UCSYDIR
 10
0.0
 20
1.0
 30
0.0
  9
$USERI1
 70
     0
  9
$USERI2
 70
     0
  9
$USERI3
 70
     0
  9
$USERI4
 70
     0
  9
$USERI5
 70
     0
  9
$USERR1
 40
0.0
  9
$USERR2
 40
0.0
  9
$USERR3
 40
0.0
  9
$USERR4
 40
0.0
  9
$USERR5
 40
0.0
  9
$WORLDVIEW
 70
     1
  0
ENDSEC
  0
SECTION
  2
TABLES
  0
TABLE
  2
VPORT
 70
     1
  0
VPORT
  2
*ACTIVE
 70
     0
 10
0.0
 20
0.0
 11
1.0
 21
1.0
 12
151.3024114470796
 22
17.60675610890559
 13
0.0
 23
0.0
 14
0.0
 24
0.0
 15
0.0
 25
0.0
 16
0.0
 26
0.0
 36
1.0
 17
0.0
 27
0.0
 37
0.0
 40
245.948649944351
 41
1.5
 42
50.0
 43
0.0
 44
0.0
 50
0.0
 51
0.0
 71
     0
 72
   100
 73
     1
 74
     1
 75
     0
 76
     0
 77
     0
 78
     0
  0
ENDTAB
  0
TABLE
  2
LTYPE
 70
    20
  0
LTYPE
  2
CONTINUOUS
 70
    64
  3
solid line
 72
    65
 73
     0
 40
0.0
  0
ENDTAB
  0
TABLE
  2
LAYER
 70
    20
  0
LAYER
  2
0
 70
    64
 62
     7
  6
CONTINUOUS
  0
LAYER
  2
3
 70
    64
 62
     7
  6
CONTINUOUS
  0
LAYER
  2
4
 70
    64
 62
     7
  6
CONTINUOUS
  0
LAYER
  2
10
 70
    64
 62
     7
  6
CONTINUOUS
  0
LAYER
  2
20
 70
    64
 62
     7
  6
CONTINUOUS
  0
LAYER
  2
1
 70
    64
 62
     7
  6
CONTINUOUS
  0
LAYER
  2
100
 70
    64
 62
     7
  6
CONTINUOUS
  0
LAYER
  2
6
 70
    64
 62
     7
  6
CONTINUOUS
  0
LAYER
  2
2
 70
    64
 62
     7
  6
CONTINUOUS
  0
LAYER
  2
12
 70
    64
 62
     7
  6
CONTINUOUS
  0
ENDTAB
  0
TABLE
  2
STYLE
 70
     4
  0
ENDTAB
  0
TABLE
  2
VIEW
 70
     0
  0
ENDTAB
  0
TABLE
  2
UCS
 70
     0
  0
ENDTAB
  0
TABLE
  2
DWGMGR
 70
     0
  0
ENDTAB
  0
ENDSEC
  0
SECTION
  2
BLOCKS
  0
BLOCK
  8
4
  2
COMP1
 70
    64
 10
0.0
 20
0.0
  0
POLYLINE
  8
4
  6
CONTINUOUS
 66
     1
 70
     0
 40
0.0
 41
0.0
  0
VERTEX
  8
4
 10
148.9967651367188
 20
130.4758911132813
  0
VERTEX
  8
4
 10
148.9967651367188
 20
133.4758911132813
  0
VERTEX
  8
4
 10
149.7467651367188
 20
131.5071411132813
  0
VERTEX
  8
4
 10
150.4967651367188
 20
133.4758911132813
  0
VERTEX
  8
4
 10
150.4967651367188
 20
130.4758911132813
  0
SEQEND
  8
4
  0
POLYLINE
  8
4
  6
CONTINUOUS
 66
     1
 70
     0
 40
0.0
 41
0.0
  0
VERTEX
  8
4
 10
151.5280151367188
 20
133.4758911132813
  0
VERTEX
  8
4
 10
152.0905151367188
 20
133.4758911132813
  0
SEQEND
  8
4
  0
POLYLINE
  8
4
  6
CONTINUOUS
 66
     1
 70
     0
 40
0.0
 41
0.0
  0
VERTEX
  8
4
 10
151.5280151367188
 20
130.4758911132813
  0
VERTEX
  8
4
 10
152.0905151367188
 20
130.4758911132813
  0
SEQEND
  8
4
  0
POLYLINE
  8
4
  6
CONTINUOUS
 66
     1
 70
     0
 40
0.0
 41
0.0
  0
VERTEX
  8
4
 10
151.8092651367188
 20
130.4758911132813
  0
VERTEX
  8
4
 10
151.8092651367188
 20
133.4758911132813
  0
SEQEND
  8
4
  0
POLYLINE
  8
4
  6
CONTINUOUS
 66
     1
 70
     0
 40
0.0
 41
0.0
  0
VERTEX
  8
4
 10
153.1217651367188
 20
130.4758911132813
  0
VERTEX
  8
4
 10
153.1217651367188
 20
133.4758911132813
  0
VERTEX
  8
4
 10
154.6217651367188
 20
130.4758911132813
  0
VERTEX
  8
4
 10
154.6217651367188
 20
133.4758911132813
  0
SEQEND
  8
4
  0
POLYLINE
  8
4
  6
CONTINUOUS
 66
     1
 70
     0
 40
0.0
 41
0.0
  0
VERTEX
  8
4
 10
156.6842651367188
 20
133.4758911132813
  0
VERTEX
  8
4
 10
155.1842651367188
 20
133.4758911132813
  0
VERTEX
  8
4
 10
155.1842651367188
 20
130.4758911132813
  0
VERTEX
  8
4
 10
156.6842651367188
 20
130.4758911132813
  0
SEQEND
  8
4
  0
POLYLINE
  8
4
  6
CONTINUOUS
 66
     1
 70
     0
 40
0.0
 41
0.0
  0
VERTEX
  8
4
 10
155.1842651367188
 20
131.9758911132813
  0
VERTEX
  8
4
 10
156.6842651367188
 20
131.9758911132813
  0
SEQEND
  8
4
  0
POLYLINE
  8
4
  6
CONTINUOUS
 66
     1
 70
     0
 40
0.0
 41
0.0
  0
VERTEX
  8
4
 10
157.2467651367188
 20
130.4758911132813
  0
VERTEX
  8
4
 10
158.0905151367188
 20
130.4758911132813
 42
0.8749999999999999
  0
VERTEX
  8
4
 10
158.0905151367188
 20
131.9758911132813
 42
0.8749999999999999
  0
VERTEX
  8
4
 10
158.0905151367188
 20
133.4758911132813
  0
VERTEX
  8
4
 10
157.2467651367188
 20
133.4758911132813
  0
VERTEX
  8
4
 10
157.2467651367188
 20
130.4758911132813
  0
SEQEND
  8
4
  0
POLYLINE
  8
4
  6
CONTINUOUS
 66
     1
 70
     0
 40
0.0
 41
0.0
  0
VERTEX
  8
4
 10
157.2467651367188
 20
131.9758911132813
  0
VERTEX
  8
4
 10
158.0905151367188
 20
131.9758911132813
  0
SEQEND
  8
4
  0
POLYLINE
  8
4
  6
CONTINUOUS
 66
     1
 70
     0
 40
0.0
 41
0.0
  0
VERTEX
  8
4
 10
160.8092651367188
 20
133.4758911132813
  0
VERTEX
  8
4
 10
159.3092651367188
 20
133.4758911132813
  0
VERTEX
  8
4
 10
159.3092651367188
 20
130.4758911132813
  0
VERTEX
  8
4
 10
160.8092651367188
 20
130.4758911132813
  0
SEQEND
  8
4
  0
POLYLINE
  8
4
  6
CONTINUOUS
 66
     1
 70
     0
 40
0.0
 41
0.0
  0
VERTEX
  8
4
 10
159.3092651367188
 20
131.9758911132813
  0
VERTEX
  8
4
 10
160.8092651367188
 20
131.9758911132813
  0
SEQEND
  8
4
  0
POLYLINE
  8
4
  6
CONTINUOUS
 66
     1
 70
     0
 40
0.0
 41
0.0
  0
VERTEX
  8
4
 10
161.3717651367188
 20
130.4758911132813
  0
VERTEX
  8
4
 10
162.1217651367188
 20
133.4758911132813
  0
VERTEX
  8
4
 10
162.8717651367188
 20
130.4758911132813
  0
SEQEND
  8
4
  0
POLYLINE
  8
4
  6
CONTINUOUS
 66
     1
 70
     0
 40
0.0
 41
0.0
  0
VERTEX
  8
4
 10
162.6373901367188
 20
131.4133911132813
  0
VERTEX
  8
4
 10
161.6061401367188
 20
131.4133911132813
  0
SEQEND
  8
4
  0
POLYLINE
  8
4
  6
CONTINUOUS
 66
     1
 70
     0
 40
0.0
 41
0.0
  0
VERTEX
  8
4
 10
166.9967651367188
 20
132.8196411132813
 42
0.8749999999999999
  0
VERTEX
  8
4
 10
165.4967651367188
 20
132.8196411132813
  0
VERTEX
  8
4
 10
165.4967651367188
 20
131.0383911132813
 42
0.75
  0
VERTEX
  8
4
 10
166.9967651367188
 20
131.0383911132813
  0
SEQEND
  8
4
  0
POLYLINE
  8
4
  6
CONTINUOUS
 66
     1
 70
     0
 40
0.0
 41
0.0
  0
VERTEX
  8
4
 10
167.5592651367188
 20
132.8196411132813
  0
VERTEX
  8
4
 10
167.5592651367188
 20
131.0383911132813
 42
0.75
  0
VERTEX
  8
4
 10
169.0592651367188
 20
131.0383911132813
  0
VERTEX
  8
4
 10
169.0592651367188
 20
132.8196411132813
 42
0.8749999999999999
  0
VERTEX
  8
4
 10
167.5592651367188
 20
132.8196411132813
  0
SEQEND
  8
4
  0
POLYLINE
  8
4
  6
CONTINUOUS
 66
     1
 70
     0
 40
0.0
 41
0.0
  0
VERTEX
  8
4
 10
170.1842651367188
 20
130.5696411132813
  0
VERTEX
  8
4
 10
170.1842651367188
 20
130.8508911132813
  0
VERTEX
  8
4
 10
170.5123901367188
 20
130.8508911132813
  0
VERTEX
  8
4
 10
170.5123901367188
 20
130.5696411132813
  0
VERTEX
  8
4
 10
170.1842651367188
 20
130.5696411132813
  0
SEQEND
  8
4
  0
POLYLINE
  8
4
  6
CONTINUOUS
 66
     1
 70
     0
 40
0.0
 41
0.0
  0
VERTEX
  8
4
 10
172.6217651367188
 20
130.4758911132813
  0
VERTEX
  8
4
 10
172.2467651367188
 20
130.4758911132813
  0
VERTEX
  8
4
 10
172.2467651367188
 20
130.8508911132813
  0
VERTEX
  8
4
 10
172.6217651367188
 20
130.8508911132813
  0
VERTEX
  8
4
 10
172.6217651367188
 20
130.1008911132813
  0
VERTEX
  8
4
 10
172.3405151367188
 20
129.8196411132813
  0
SEQEND
  8
4
  0
POLYLINE
  8
4
  6
CONTINUOUS
 66
     1
 70
     0
 40
0.0
 41
0.0
  0
VERTEX
  8
4
 10
173.7467651367188
 20
133.4758911132813
  0
VERTEX
  8
4
 10
173.7467651367188
 20
130.4758911132813
  0
VERTEX
  8
4
 10
175.2467651367188
 20
130.4758911132813
  0
SEQEND
  8
4
  0
POLYLINE
  8
4
  6
CONTINUOUS
 66
     1
 70
     0
 40
0.0
 41
0.0
  0
VERTEX
  8
4
 10
175.8092651367188
 20
133.4758911132813
  0
VERTEX
  8
4
 10
177.3092651367188
 20
133.4758911132813
  0
SEQEND
  8
4
  0
POLYLINE
  8
4
  6
CONTINUOUS
 66
     1
 70
     0
 40
0.0
 41
0.0
  0
VERTEX
  8
4
 10
176.5592651367188
 20
133.4758911132813
  0
VERTEX
  8
4
 10
176.5592651367188
 20
130.4758911132813
  0
SEQEND
  8
4
  0
POLYLINE
  8
4
  6
CONTINUOUS
 66
     1
 70
     0
 40
0.0
 41
0.0
  0
VERTEX
  8
4
 10
177.8717651367188
 20
130.4758911132813
  0
VERTEX
  8
4
 10
178.6686401367188
 20
130.4758911132813
 42
0.4666666666666667
  0
VERTEX
  8
4
 10
179.3717651367188
 20
131.1790161132813
  0
VERTEX
  8
4
 10
179.3717651367188
 20
132.7727661132813
 42
0.4666666666666667
  0
VERTEX
  8
4
 10
178.6686401367188
 20
133.4758911132813
  0
VERTEX
  8
4
 10
177.8717651367188
 20
133.4758911132813
  0
VERTEX
  8
4
 10
177.8717651367188
 20
130.4758911132813
  0
SEQEND
  8
4
  0
POLYLINE
  8
4
  6
CONTINUOUS
 66
     1
 70
     0
 40
0.0
 41
0.0
  0
VERTEX
  8
4
 10
180.4967651367188
 20
130.5696411132813
  0
VERTEX
  8
4
 10
180.4967651367188
 20
130.8508911132813
  0
VERTEX
  8
4
 10
180.8248901367188
 20
130.8508911132813
  0
VERTEX
  8
4
 10
180.8248901367188
 20
130.5696411132813
  0
VERTEX
  8
4
 10
180.4967651367188
 20
130.5696411132813
  0
SEQEND
  8
4
  0
ENDBLK
  8
4
  0
BLOCK
  8
4
  2
COMP2
 70
    64
 10
0.0
 20
0.0
  0
POLYLINE
  8
4
  6
CONTINUOUS
 66
     1
 70
     0
 40
0.0
 41
0.0
  0
VERTEX
  8
4
 10
153.2734985351563
 20
125.1517715454102
  0
VERTEX
  8
4
 10
153.2734985351563
 20
128.1517639160156
  0
VERTEX
  8
4
 10
154.0234985351563
 20
126.1830215454102
  0
VERTEX
  8
4
 10
154.7734985351563
 20
128.1517639160156
  0
VERTEX
  8
4
 10
154.7734985351563
 20
125.1517715454102
  0
SEQEND
  8
4
  0
POLYLINE
  8
4
  6
CONTINUOUS
 66
     1
 70
     0
 40
0.0
 41
0.0
  0
VERTEX
  8
4
 10
155.3359985351563
 20
125.1517715454102
  0
VERTEX
  8
4
 10
156.0859985351563
 20
128.1517639160156
  0
VERTEX
  8
4
 10
156.8359985351563
 20
125.1517715454102
  0
SEQEND
  8
4
  0
POLYLINE
  8
4
  6
CONTINUOUS
 66
     1
 70
     0
 40
0.0
 41
0.0
  0
VERTEX
  8
4
 10
156.6016235351563
 20
126.0892715454102
  0
VERTEX
  8
4
 10
155.5703735351563
 20
126.0892715454102
  0
SEQEND
  8
4
  0
POLYLINE
  8
4
  6
CONTINUOUS
 66
     1
 70
     0
 40
0.0
 41
0.0
  0
VERTEX
  8
4
 10
157.3984985351563
 20
125.1517715454102
  0
VERTEX
  8
4
 10
158.1953735351563
 20
125.1517715454102
 42
0.4666666666666667
  0
VERTEX
  8
4
 10
158.8984985351563
 20
125.8548965454102
  0
VERTEX
  8
4
 10
158.8984985351563
 20
127.4486465454102
 42
0.4666759742242143
  0
VERTEX
  8
4
 10
158.1953735351563
 20
128.1517639160156
  0
VERTEX
  8
4
 10
157.3984985351563
 20
128.1517639160156
  0
VERTEX
  8
4
 10
157.3984985351563
 20
125.1517715454102
  0
SEQEND
  8
4
  0
POLYLINE
  8
4
  6
CONTINUOUS
 66
     1
 70
     0
 40
0.0
 41
0.0
  0
VERTEX
  8
4
 10
160.9609985351563
 20
128.1517639160156
  0
VERTEX
  8
4
 10
159.4609985351563
 20
128.1517639160156
  0
VERTEX
  8
4
 10
159.4609985351563
 20
125.1517715454102
  0
VERTEX
  8
4
 10
160.9609985351563
 20
125.1517715454102
  0
SEQEND
  8
4
  0
POLYLINE
  8
4
  6
CONTINUOUS
 66
     1
 70
     0
 40
0.0
 41
0.0
  0
VERTEX
  8
4
 10
159.4609985351563
 20
126.6517715454102
  0
VERTEX
  8
4
 10
160.9609985351563
 20
126.6517715454102
  0
SEQEND
  8
4
  0
POLYLINE
  8
4
  6
CONTINUOUS
 66
     1
 70
     0
 40
0.0
 41
0.0
  0
VERTEX
  8
4
 10
164.0547485351563
 20
128.1517639160156
  0
VERTEX
  8
4
 10
164.6172485351563
 20
128.1517639160156
  0
SEQEND
  8
4
  0
POLYLINE
  8
4
  6
CONTINUOUS
 66
     1
 70
     0
 40
0.0
 41
0.0
  0
VERTEX
  8
4
 10
164.0547485351563
 20
125.1517715454102
  0
VERTEX
  8
4
 10
164.6172485351563
 20
125.1517715454102
  0
SEQEND
  8
4
  0
POLYLINE
  8
4
  6
CONTINUOUS
 66
     1
 70
     0
 40
0.0
 41
0.0
  0
VERTEX
  8
4
 10
164.3359985351563
 20
125.1517715454102
  0
VERTEX
  8
4
 10
164.3359985351563
 20
128.1517639160156
  0
SEQEND
  8
4
  0
POLYLINE
  8
4
  6
CONTINUOUS
 66
     1
 70
     0
 40
0.0
 41
0.0
  0
VERTEX
  8
4
 10
165.6484985351563
 20
125.1517715454102
  0
VERTEX
  8
4
 10
165.6484985351563
 20
128.1517639160156
  0
VERTEX
  8
4
 10
167.1484985351563
 20
125.1517715454102
  0
VERTEX
  8
4
 10
167.1484985351563
 20
128.1517639160156
  0
SEQEND
  8
4
  0
POLYLINE
  8
4
  6
CONTINUOUS
 66
     1
 70
     0
 40
0.0
 41
0.0
  0
VERTEX
  8
4
 10
169.7734985351563
 20
125.7142715454102
 42
0.75
  0
VERTEX
  8
4
 10
171.2734985351563
 20
125.7142715454102
  0
VERTEX
  8
4
 10
171.2734985351563
 20
128.1517639160156
  0
VERTEX
  8
4
 10
170.7109985351563
 20
128.1517639160156
  0
SEQEND
  8
4
  0
POLYLINE
  8
4
  6
CONTINUOUS
 66
     1
 70
     0
 40
0.0
 41
0.0
  0
VERTEX
  8
4
 10
171.8359985351563
 20
125.1517715454102
  0
VERTEX
  8
4
 10
172.5859985351563
 20
128.1517639160156
  0
VERTEX
  8
4
 10
173.3359985351563
 20
125.1517715454102
  0
SEQEND
  8
4
  0
POLYLINE
  8
4
  6
CONTINUOUS
 66
     1
 70
     0
 40
0.0
 41
0.0
  0
VERTEX
  8
4
 10
173.1016235351563
 20
126.0892715454102
  0
VERTEX
  8
4
 10
172.0703735351563
 20
126.0892715454102
  0
SEQEND
  8
4
  0
POLYLINE
  8
4
  6
CONTINUOUS
 66
     1
 70
     0
 40
0.0
 41
0.0
  0
VERTEX
  8
4
 10
173.8984985351563
 20
126.6517715454102
  0
VERTEX
  8
4
 10
174.6484985351563
 20
126.6517715454102
 42
0.4142135623731142
  0
VERTEX
  8
4
 10
175.3984909057617
 20
127.4017639160156
 42
0.4142195213437613
  0
VERTEX
  8
4
 10
174.6484985351563
 20
128.1517639160156
  0
VERTEX
  8
4
 10
173.8984985351563
 20
128.1517639160156
  0
VERTEX
  8
4
 10
173.8984985351563
 20
125.1517715454102
  0
SEQEND
  8
4
  0
POLYLINE
  8
4
  6
CONTINUOUS
 66
     1
 70
     0
 40
0.0
 41
0.0
  0
VERTEX
  8
4
 10
175.9609985351563
 20
125.1517715454102
  0
VERTEX
  8
4
 10
176.7109985351563
 20
128.1517639160156
  0
VERTEX
  8
4
 10
177.4609985351563
 20
125.1517715454102
  0
SEQEND
  8
4
  0
POLYLINE
  8
4
  6
CONTINUOUS
 66
     1
 70
     0
 40
0.0
 41
0.0
  0
VERTEX
  8
4
 10
177.2266235351563
 20
126.0892715454102
  0
VERTEX
  8
4
 10
176.1953735351563
 20
126.0892715454102
  0
SEQEND
  8
4
  0
POLYLINE
  8
4
  6
CONTINUOUS
 66
     1
 70
     0
 40
0.0
 41
0.0
  0
VERTEX
  8
4
 10
178.0234985351563
 20
125.1517715454102
  0
VERTEX
  8
4
 10
178.0234985351563
 20
128.1517639160156
  0
VERTEX
  8
4
 10
179.5234985351563
 20
125.1517715454102
  0
VERTEX
  8
4
 10
179.5234985351563
 20
128.1517639160156
  0
SEQEND
  8
4
  0
ENDBLK
  8
4
  0
BLOCK
  8
3
  2
COMP3
 70
    64
 10
0.0
 20
0.0
  0
POLYLINE
  8
3
  6
CONTINUOUS
 66
     1
 70
     0
 40
0.0
 41
0.0
  0
VERTEX
  8
3
 10
153.6151733398438
 20
104.8877639770508
  0
VERTEX
  8
3
 10
151.6151733398438
 20
104.8877639770508
  0
VERTEX
  8
3
 10
151.6151733398438
 20
100.8877639770508
  0
VERTEX
  8
3
 10
153.6151733398438
 20
100.8877639770508
  0
SEQEND
  8
3
  0
POLYLINE
  8
3
  6
CONTINUOUS
 66
     1
 70
     0
 40
0.0
 41
0.0
  0
VERTEX
  8
3
 10
151.6151733398438
 20
102.8877639770508
  0
VERTEX
  8
3
 10
153.6151733398438
 20
102.8877639770508
  0
SEQEND
  8
3
  0
ENDBLK
  8
3
  0
BLOCK
  8
3
  2
COMP4
 70
    64
 10
0.0
 20
0.0
  0
POLYLINE
  8
3
  6
CONTINUOUS
 66
     1
 70
     0
 40
0.0
 41
0.0
  0
VERTEX
  8
3
 10
131.4533386230469
 20
100.7131958007813
  0
VERTEX
  8
3
 10
132.5158386230469
 20
100.7131958007813
 42
0.4666666666666667
  0
VERTEX
  8
3
 10
133.4533386230469
 20
101.6506958007813
  0
VERTEX
  8
3
 10
133.4533386230469
 20
103.7756958007813
 42
0.4666666666666667
  0
VERTEX
  8
3
 10
132.5158386230469
 20
104.7131958007813
  0
VERTEX
  8
3
 10
131.4533386230469
 20
104.7131958007813
  0
VERTEX
  8
3
 10
131.4533386230469
 20
100.7131958007813
  0
SEQEND
  8
3
  0
ENDBLK
  8
3
  0
BLOCK
  8
3
  2
COMP5
 70
    64
 10
0.0
 20
0.0
  0
POLYLINE
  8
3
  6
CONTINUOUS
 66
     1
 70
     0
 40
0.0
 41
0.0
  0
VERTEX
  8
3
 10
113.4660873413086
 20
103.8381958007813
 42
0.875
  0
VERTEX
  8
3
 10
111.4660873413086
 20
103.8381958007813
  0
VERTEX
  8
3
 10
111.4660873413086
 20
101.4631958007813
 42
0.7500000000000001
  0
VERTEX
  8
3
 10
113.4660873413086
 20
101.4631958007813
  0
SEQEND
  8
3
  0
ENDBLK
  8
3
  0
BLOCK
  8
3
  2
COMP6
 70
    64
 10
0.0
 20
0.0
  0
POLYLINE
  8
3
  6
CONTINUOUS
 66
     1
 70
     0
 40
0.0
 41
0.0
  0
VERTEX
  8
3
 10
91.74065399169922
 20
100.8877639770508
  0
VERTEX
  8
3
 10
92.86565399169922
 20
100.8877639770508
 42
0.875
  0
VERTEX
  8
3
 10
92.86565399169922
 20
102.8877639770508
 42
0.875
  0
VERTEX
  8
3
 10
92.86565399169922
 20
104.8877639770508
  0
VERTEX
  8
3
 10
91.74065399169922
 20
104.8877639770508
  0
VERTEX
  8
3
 10
91.74065399169922
 20
100.8877639770508
  0
SEQEND
  8
3
  0
POLYLINE
  8
3
  6
CONTINUOUS
 66
     1
 70
     0
 40
0.0
 41
0.0
  0
VERTEX
  8
3
 10
91.74065399169922
 20
102.8877639770508
  0
VERTEX
  8
3
 10
92.86565399169922
 20
102.8877639770508
  0
SEQEND
  8
3
  0
ENDBLK
  8
3
  0
BLOCK
  8
3
  2
COMP7
 70
    64
 10
0.0
 20
0.0
  0
POLYLINE
  8
3
  6
CONTINUOUS
 66
     1
 70
     0
 40
0.0
 41
0.0
  0
VERTEX
  8
3
 10
71.40425872802734
 20
100.7131958007813
  0
VERTEX
  8
3
 10
72.40425872802734
 20
104.7131958007813
  0
VERTEX
  8
3
 10
73.40425872802734
 20
100.7131958007813
  0
SEQEND
  8
3
  0
POLYLINE
  8
3
  6
CONTINUOUS
 66
     1
 70
     0
 40
0.0
 41
0.0
  0
VERTEX
  8
3
 10
73.09175872802734
 20
101.9631958007813
  0
VERTEX
  8
3
 10
71.71675872802734
 20
101.9631958007813
  0
SEQEND
  8
3
  0
ENDBLK
  8
3
  0
BLOCK
  8
3
  2
COMP8
 70
    64
 10
0.0
 20
0.0
  0
POLYLINE
  8
3
  6
CONTINUOUS
 66
     1
 70
     0
 40
0.0
 41
0.0
  0
VERTEX
  8
3
 10
34.76043319702148
 20
109.6881942749023
  0
VERTEX
  8
3
 10
35.51043319702148
 20
109.6881942749023
  0
SEQEND
  8
3
  0
POLYLINE
  8
3
  6
CONTINUOUS
 66
     1
 70
     0
 40
0.0
 41
0.0
  0
VERTEX
  8
3
 10
34.76043319702148
 20
105.6881942749023
  0
VERTEX
  8
3
 10
35.51043319702148
 20
105.6881942749023
  0
SEQEND
  8
3
  0
POLYLINE
  8
3
  6
CONTINUOUS
 66
     1
 70
     0
 40
0.0
 41
0.0
  0
VERTEX
  8
3
 10
35.13543319702148
 20
105.6881942749023
  0
VERTEX
  8
3
 10
35.13543319702148
 20
109.6881942749023
  0
SEQEND
  8
3
  0
POLYLINE
  8
3
  6
CONTINUOUS
 66
     1
 70
     0
 40
0.0
 41
0.0
  0
VERTEX
  8
3
 10
36.88543319702148
 20
105.6881942749023
  0
VERTEX
  8
3
 10
36.88543319702148
 20
109.6881942749023
  0
VERTEX
  8
3
 10
38.88543319702148
 20
105.6881942749023
  0
VERTEX
  8
3
 10
38.88543319702148
 20
109.6881942749023
  0
SEQEND
  8
3
  0
POLYLINE
  8
3
  6
CONTINUOUS
 66
     1
 70
     0
 40
0.0
 41
0.0
  0
VERTEX
  8
3
 10
39.63543319702148
 20
107.6881942749023
  0
VERTEX
  8
3
 10
40.63543319702148
 20
107.6881942749023
 42
0.4142135623730965
  0
VERTEX
  8
3
 10
41.63543319702148
 20
108.6881942749023
 42
0.4142135623731023
  0
VERTEX
  8
3
 10
40.63543319702148
 20
109.6881942749023
  0
VERTEX
  8
3
 10
39.63543319702148
 20
109.6881942749023
  0
VERTEX
  8
3
 10
39.63543319702148
 20
105.6881942749023
  0
SEQEND
  8
3
  0
POLYLINE
  8
3
  6
CONTINUOUS
 66
     1
 70
     0
 40
0.0
 41
0.0
  0
VERTEX
  8
3
 10
42.38543319702148
 20
109.6881942749023
  0
VERTEX
  8
3
 10
42.38543319702148
 20
106.4381942749023
 42
0.7500000000000001
  0
VERTEX
  8
3
 10
44.38543319702148
 20
106.4381942749023
  0
VERTEX
  8
3
 10
44.38543319702148
 20
109.6881942749023
  0
SEQEND
  8
3
  0
POLYLINE
  8
3
  6
CONTINUOUS
 66
     1
 70
     0
 40
0.0
 41
0.0
  0
VERTEX
  8
3
 10
45.13543319702148
 20
109.6881942749023
  0
VERTEX
  8
3
 10
47.13543319702148
 20
109.6881942749023
  0
SEQEND
  8
3
  0
POLYLINE
  8
3
  6
CONTINUOUS
 66
     1
 70
     0
 40
0.0
 41
0.0
  0
VERTEX
  8
3
 10
46.13543319702148
 20
109.6881942749023
  0
VERTEX
  8
3
 10
46.13543319702148
 20
105.6881942749023
  0
SEQEND
  8
3
  0
ENDBLK
  8
3
  0
BLOCK
  8
3
  2
COMP9
 70
    64
 10
0.0
 20
0.0
  0
POLYLINE
  8
3
  6
CONTINUOUS
 66
     1
 70
     0
 40
0.0
 41
0.0
  0
VERTEX
  8
3
 10
14.31243515014648
 20
131.4868316650391
 42
0.3601112293825256
  0
VERTEX
  8
3
 10
13.81243515014648
 20
131.8618316650391
 42
0.3984820267298111
  0
VERTEX
  8
3
 10
13.31243515014648
 20
131.4243316650391
 42
0.4141953415307217
  0
VERTEX
  8
3
 10
13.81243515014648
 20
130.8618316650391
 42
-0.3750000000000001
  0
VERTEX
  8
3
 10
14.31243515014648
 20
130.3618316650391
 42
-0.4832088998274537
  0
VERTEX
  8
3
 10
13.84368515014648
 20
129.8618316650391
 42
-0.3193902028869962
  0
VERTEX
  8
3
 10
13.31243515014648
 20
130.2368316650391
  0
SEQEND
  8
3
  0
POLYLINE
  8
3
  6
CONTINUOUS
 66
     1
 70
     0
 40
0.0
 41
0.0
  0
VERTEX
  8
3
 10
14.68743515014648
 20
129.8618316650391
  0
VERTEX
  8
3
 10
15.68743515014648
 20
131.8618316650391
  0
SEQEND
  8
3
  0
POLYLINE
  8
3
  6
CONTINUOUS
 66
     1
 70
     0
 40
0.0
 41
0.0
  0
VERTEX
  8
3
 10
16.06243515014648
 20
129.8618316650391
  0
VERTEX
  8
3
 10
16.06243515014648
 20
131.8618316650391
  0
VERTEX
  8
3
 10
17.06243515014648
 20
129.8618316650391
  0
VERTEX
  8
3
 10
17.06243515014648
 20
131.8618316650391
  0
SEQEND
  8
3
  0
ENDBLK
  8
3
  0
BLOCK
  8
3
  2
COMP10
 70
    64
 10
0.0
 20
0.0
  0
POLYLINE
  8
3
  6
CONTINUOUS
 66
     1
 70
     0
 40
0.0
 41
0.0
  0
VERTEX
  8
3
 10
8.402217864990234
 20
126.6125946044922
  0
VERTEX
  8
3
 10
8.777217864990234
 20
126.6125946044922
 42
0.4142135623730997
  0
VERTEX
  8
3
 10
9.152217864990234
 20
126.9875946044922
 42
0.4142135623731037
  0
VERTEX
  8
3
 10
8.777217864990234
 20
127.3625946044922
  0
VERTEX
  8
3
 10
8.402217864990234
 20
127.3625946044922
  0
VERTEX
  8
3
 10
8.402217864990234
 20
125.8625946044922
  0
SEQEND
  8
3
  0
POLYLINE
  8
3
  6
CONTINUOUS
 66
     1
 70
     0
 40
0.0
 41
0.0
  0
VERTEX
  8
3
 10
10.18346786499023
 20
127.0813446044922
 42
0.3601112293825255
  0
VERTEX
  8
3
 10
9.808467864990234
 20
127.3625946044922
 42
0.3984745215865783
  0
VERTEX
  8
3
 10
9.433467864990234
 20
127.0344696044922
 42
0.414220473377829
  0
VERTEX
  8
3
 10
9.808467864990234
 20
126.6125946044922
 42
-0.3750000000000001
  0
VERTEX
  8
3
 10
10.18346786499023
 20
126.2375946044922
 42
-0.4832096401816806
  0
VERTEX
  8
3
 10
9.831905364990234
 20
125.8625946044922
 42
-0.3193918407912325
  0
VERTEX
  8
3
 10
9.433467864990234
 20
126.1438446044922
  0
SEQEND
  8
3
  0
POLYLINE
  8
3
  6
CONTINUOUS
 66
     1
 70
     0
 40
0.0
 41
0.0
  0
VERTEX
  8
3
 10
11.21471786499023
 20
127.0344696044922
 42
0.8749999999999999
  0
VERTEX
  8
3
 10
10.46471786499023
 20
127.0344696044922
  0
VERTEX
  8
3
 10
10.46471786499023
 20
126.1438446044922
 42
0.75
  0
VERTEX
  8
3
 10
11.21471786499023
 20
126.1438446044922
  0
SEQEND
  8
3
  0
POLYLINE
  8
3
  6
CONTINUOUS
 66
     1
 70
     0
 40
0.0
 41
0.0
  0
VERTEX
  8
3
 10
12.19909286499023
 20
126.6125946044922
  0
VERTEX
  8
3
 10
11.54284286499023
 20
126.6125946044922
  0
SEQEND
  8
3
  0
POLYLINE
  8
3
  6
CONTINUOUS
 66
     1
 70
     0
 40
0.0
 41
0.0
  0
VERTEX
  8
3
 10
12.90221786499023
 20
125.8625946044922
  0
VERTEX
  8
3
 10
12.90221786499023
 20
127.3625946044922
  0
VERTEX
  8
3
 10
12.64440536499023
 20
126.9172821044922
  0
SEQEND
  8
3
  0
POLYLINE
  8
3
  6
CONTINUOUS
 66
     1
 70
     0
 40
0.0
 41
0.0
  0
VERTEX
  8
3
 10
13.55846786499023
 20
127.0813446044922
  0
VERTEX
  8
3
 10
13.79284286499023
 20
127.3625946044922
  0
VERTEX
  8
3
 10
14.07409286499023
 20
127.3625946044922
  0
VERTEX
  8
3
 10
14.30846786499023
 20
127.0813446044922
  0
VERTEX
  8
3
 10
14.30846786499023
 20
126.7063446044922
  0
VERTEX
  8
3
 10
13.55846786499023
 20
126.0500946044922
  0
VERTEX
  8
3
 10
13.55846786499023
 20
125.8625946044922
  0
VERTEX
  8
3
 10
14.30846786499023
 20
125.8625946044922
  0
SEQEND
  8
3
  0
POLYLINE
  8
3
  6
CONTINUOUS
 66
     1
 70
     0
 40
0.0
 41
0.0
  0
VERTEX
  8
3
 10
14.63659286499023
 20
127.0813446044922
  0
VERTEX
  8
3
 10
14.63659286499023
 20
126.1438446044922
 42
0.9230769230769231
  0
VERTEX
  8
3
 10
15.24596786499023
 20
126.1438446044922
  0
VERTEX
  8
3
 10
15.24596786499023
 20
127.0813446044922
 42
0.9230769230769231
  0
VERTEX
  8
3
 10
14.63659286499023
 20
127.0813446044922
  0
SEQEND
  8
3
  0
POLYLINE
  8
3
  6
CONTINUOUS
 66
     1
 70
     0
 40
0.0
 41
0.0
  0
VERTEX
  8
3
 10
15.62096786499023
 20
125.8625946044922
  0
VERTEX
  8
3
 10
16.37096786499023
 20
127.3625946044922
  0
SEQEND
  8
3
  0
POLYLINE
  8
3
  6
CONTINUOUS
 66
     1
 70
     0
 40
0.0
 41
0.0
  0
VERTEX
  8
3
 10
16.65221786499023
 20
127.0813446044922
  0
VERTEX
  8
3
 10
16.88659286499023
 20
127.3625946044922
  0
VERTEX
  8
3
 10
17.16784286499023
 20
127.3625946044922
  0
VERTEX
  8
3
 10
17.40221786499023
 20
127.0813446044922
  0
VERTEX
  8
3
 10
17.40221786499023
 20
126.8469696044922
  0
VERTEX
  8
3
 10
17.12096786499023
 20
126.6125946044922
  0
VERTEX
  8
3
 10
16.83971786499023
 20
126.6125946044922
  0
SEQEND
  8
3
  0
POLYLINE
  8
3
  6
CONTINUOUS
 66
     1
 70
     0
 40
0.0
 41
0.0
  0
VERTEX
  8
3
 10
17.12096786499023
 20
126.6125946044922
  0
VERTEX
  8
3
 10
17.40221786499023
 20
126.3313446044922
  0
VERTEX
  8
3
 10
17.40221786499023
 20
126.0969696044922
  0
VERTEX
  8
3
 10
17.16784286499023
 20
125.8625946044922
  0
VERTEX
  8
3
 10
16.88659286499023
 20
125.8625946044922
  0
VERTEX
  8
3
 10
16.65221786499023
 20
126.0969696044922
  0
SEQEND
  8
3
  0
POLYLINE
  8
3
  6
CONTINUOUS
 66
     1
 70
     0
 40
0.0
 41
0.0
  0
VERTEX
  8
3
 10
18.38659286499023
 20
127.3157196044922
  0
VERTEX
  8
3
 10
17.77721786499023
 20
127.3157196044922
  0
VERTEX
  8
3
 10
17.68346786499023
 20
126.6594696044922
  0
VERTEX
  8
3
 10
17.91784286499023
 20
126.7532196044922
  0
VERTEX
  8
3
 10
18.19909286499023
 20
126.7532196044922
  0
VERTEX
  8
3
 10
18.43346786499023
 20
126.5657196044922
  0
VERTEX
  8
3
 10
18.43346786499023
 20
126.0969696044922
  0
VERTEX
  8
3
 10
18.19909286499023
 20
125.8625946044922
  0
VERTEX
  8
3
 10
17.91784286499023
 20
125.8625946044922
  0
VERTEX
  8
3
 10
17.68346786499023
 20
126.0969696044922
  0
SEQEND
  8
3
  0
POLYLINE
  8
3
  6
CONTINUOUS
 66
     1
 70
     0
 40
0.0
 41
0.0
  0
VERTEX
  8
3
 10
18.76159286499023
 20
127.0813446044922
  0
VERTEX
  8
3
 10
18.76159286499023
 20
126.1438446044922
 42
0.9230769230769231
  0
VERTEX
  8
3
 10
19.37096786499023
 20
126.1438446044922
  0
VERTEX
  8
3
 10
19.37096786499023
 20
127.0813446044922
 42
0.9230769230769231
  0
VERTEX
  8
3
 10
18.76159286499023
 20
127.0813446044922
  0
SEQEND
  8
3
  0
POLYLINE
  8
3
  6
CONTINUOUS
 66
     1
 70
     0
 40
0.0
 41
0.0
  0
VERTEX
  8
3
 10
19.74596786499023
 20
125.8625946044922
  0
VERTEX
  8
3
 10
20.49596786499023
 20
127.3625946044922
  0
SEQEND
  8
3
  0
POLYLINE
  8
3
  6
CONTINUOUS
 66
     1
 70
     0
 40
0.0
 41
0.0
  0
VERTEX
  8
3
 10
20.77721786499023
 20
126.5188446044922
  0
VERTEX
  8
3
 10
21.01159286499023
 20
126.7532196044922
  0
VERTEX
  8
3
 10
21.29284286499023
 20
126.7532196044922
  0
VERTEX
  8
3
 10
21.52721786499023
 20
126.5188446044922
  0
VERTEX
  8
3
 10
21.52721786499023
 20
126.0969696044922
  0
VERTEX
  8
3
 10
21.29284286499023
 20
125.8625946044922
  0
VERTEX
  8
3
 10
21.01159286499023
 20
125.8625946044922
  0
VERTEX
  8
3
 10
20.77721786499023
 20
126.0969696044922
  0
VERTEX
  8
3
 10
20.77721786499023
 20
127.1282196044922
  0
VERTEX
  8
3
 10
21.01159286499023
 20
127.3625946044922
  0
VERTEX
  8
3
 10
21.29284286499023
 20
127.3625946044922
  0
VERTEX
  8
3
 10
21.52721786499023
 20
127.1282196044922
  0
SEQEND
  8
3
  0
POLYLINE
  8
3
  6
CONTINUOUS
 66
     1
 70
     0
 40
0.0
 41
0.0
  0
VERTEX
  8
3
 10
21.85534286499023
 20
127.0813446044922
  0
VERTEX
  8
3
 10
21.85534286499023
 20
126.1438446044922
 42
0.9230769230769231
  0
VERTEX
  8
3
 10
22.46471786499023
 20
126.1438446044922
  0
VERTEX
  8
3
 10
22.46471786499023
 20
127.0813446044922
 42
0.9230769230769231
  0
VERTEX
  8
3
 10
21.85534286499023
 20
127.0813446044922
  0
SEQEND
  8
3
  0
POLYLINE
  8
3
  6
CONTINUOUS
 66
     1
 70
     0
 40
0.0
 41
0.0
  0
VERTEX
  8
3
 10
22.88659286499023
 20
127.0813446044922
  0
VERTEX
  8
3
 10
22.88659286499023
 20
126.1438446044922
 42
0.9230769230769231
  0
VERTEX
  8
3
 10
23.49596786499023
 20
126.1438446044922
  0
VERTEX
  8
3
 10
23.49596786499023
 20
127.0813446044922
 42
0.9230769230769231
  0
VERTEX
  8
3
 10
22.88659286499023
 20
127.0813446044922
  0
SEQEND
  8
3
  0
ENDBLK
  8
3
  0
BLOCK
  8
4
  2
COMP11
 70
    64
 10
0.0
 20
0.0
  0
POLYLINE
  8
4
  6
CONTINUOUS
 66
     1
 70
     0
 40
0.0
 41
0.0
  0
VERTEX
  8
4
 10
30.81341171264648
 20
71.36376953125
  0
VERTEX
  8
4
 10
29.81341171264648
 20
70.05126953125
  0
SEQEND
  8
4
  0
POLYLINE
  8
4
  6
CONTINUOUS
 66
     1
 70
     0
 40
0.0
 41
0.0
  0
VERTEX
  8
4
 10
29.81341171264648
 20
71.36376953125
  0
VERTEX
  8
4
 10
30.81341171264648
 20
70.05126953125
  0
SEQEND
  8
4
  0
POLYLINE
  8
4
  6
CONTINUOUS
 66
     1
 70
     0
 40
0.0
 41
0.0
  0
VERTEX
  8
4
 10
31.68841171264648
 20
70.05126953125
  0
VERTEX
  8
4
 10
31.68841171264648
 20
72.05126953125
  0
VERTEX
  8
4
 10
31.34466171264648
 20
71.45751953125
  0
SEQEND
  8
4
  0
POLYLINE
  8
4
  6
CONTINUOUS
 66
     1
 70
     0
 40
0.0
 41
0.0
  0
VERTEX
  8
4
 10
32.56341171264648
 20
70.05126953125
  0
VERTEX
  8
4
 10
33.56341171264648
 20
72.05126953125
  0
SEQEND
  8
4
  0
POLYLINE
  8
4
  6
CONTINUOUS
 66
     1
 70
     0
 40
0.0
 41
0.0
  0
VERTEX
  8
4
 10
34.43841171264648
 20
70.05126953125
  0
VERTEX
  8
4
 10
34.43841171264648
 20
72.05126953125
  0
VERTEX
  8
4
 10
34.09466171264648
 20
71.45751953125
  0
SEQEND
  8
4
  0
POLYLINE
  8
4
  6
CONTINUOUS
 66
     1
 70
     0
 40
0.0
 41
0.0
  0
VERTEX
  8
4
 10
35.37591171264648
 20
71.67626953125
  0
VERTEX
  8
4
 10
35.37591171264648
 20
70.42626953125
 42
0.9230769230769231
  0
VERTEX
  8
4
 10
36.18841171264648
 20
70.42626953125
  0
VERTEX
  8
4
 10
36.18841171264648
 20
71.67626953125
 42
0.9230769230769231
  0
VERTEX
  8
4
 10
35.37591171264648
 20
71.67626953125
  0
SEQEND
  8
4
  0
ENDBLK
  8
4
  0
BLOCK
  8
4
  2
COMP12
 70
    64
 10
0.0
 20
0.0
  0
POLYLINE
  8
4
  6
CONTINUOUS
 66
     1
 70
     0
 40
0.0
 41
0.0
  0
VERTEX
  8
4
 10
43.99999618530273
 20
68.88108062744141
  0
VERTEX
  8
4
 10
43.99999618530273
 20
71.88108062744141
  0
VERTEX
  8
4
 10
43.48437118530273
 20
70.99045562744141
  0
SEQEND
  8
4
  0
ENDBLK
  8
4
  0
BLOCK
  8
4
  2
COMP13
 70
    64
 10
0.0
 20
0.0
  0
POLYLINE
  8
4
  6
CONTINUOUS
 66
     1
 70
     0
 40
0.0
 41
0.0
  0
VERTEX
  8
4
 10
56.24999618530273
 20
71.31858062744141
  0
VERTEX
  8
4
 10
56.71874618530273
 20
71.88108062744141
  0
VERTEX
  8
4
 10
57.28124618530273
 20
71.88108062744141
  0
VERTEX
  8
4
 10
57.74999618530273
 20
71.31858062744141
  0
VERTEX
  8
4
 10
57.74999618530273
 20
70.56858062744141
  0
VERTEX
  8
4
 10
56.24999618530273
 20
69.25608062744141
  0
VERTEX
  8
4
 10
56.24999618530273
 20
68.88108062744141
  0
VERTEX
  8
4
 10
57.74999618530273
 20
68.88108062744141
  0
SEQEND
  8
4
  0
ENDBLK
  8
4
  0
BLOCK
  8
4
  2
COMP14
 70
    64
 10
0.0
 20
0.0
  0
POLYLINE
  8
4
  6
CONTINUOUS
 66
     1
 70
     0
 40
0.0
 41
0.0
  0
VERTEX
  8
4
 10
69.24999237060547
 20
71.31858062744141
  0
VERTEX
  8
4
 10
69.71874237060547
 20
71.88108062744141
  0
VERTEX
  8
4
 10
70.28124237060547
 20
71.88108062744141
  0
VERTEX
  8
4
 10
70.74999237060547
 20
71.31858062744141
  0
VERTEX
  8
4
 10
70.74999237060547
 20
70.84983062744141
  0
VERTEX
  8
4
 10
70.18749237060547
 20
70.38108062744141
  0
VERTEX
  8
4
 10
69.62499237060547
 20
70.38108062744141
  0
SEQEND
  8
4
  0
POLYLINE
  8
4
  6
CONTINUOUS
 66
     1
 70
     0
 40
0.0
 41
0.0
  0
VERTEX
  8
4
 10
70.18749237060547
 20
70.38108062744141
  0
VERTEX
  8
4
 10
70.74999237060547
 20
69.81858062744141
  0
VERTEX
  8
4
 10
70.74999237060547
 20
69.34983062744141
  0
VERTEX
  8
4
 10
70.28124237060547
 20
68.88108062744141
  0
VERTEX
  8
4
 10
69.71874237060547
 20
68.88108062744141
  0
VERTEX
  8
4
 10
69.24999237060547
 20
69.34983062744141
  0
SEQEND
  8
4
  0
ENDBLK
  8
4
  0
BLOCK
  8
4
  2
COMP15
 70
    64
 10
0.0
 20
0.0
  0
POLYLINE
  8
4
  6
CONTINUOUS
 66
     1
 70
     0
 40
0.0
 41
0.0
  0
VERTEX
  8
4
 10
82.99999237060547
 20
71.88108062744141
  0
VERTEX
  8
4
 10
82.24999237060547
 20
69.81858062744141
  0
VERTEX
  8
4
 10
83.74999237060547
 20
69.81858062744141
  0
SEQEND
  8
4
  0
POLYLINE
  8
4
  6
CONTINUOUS
 66
     1
 70
     0
 40
0.0
 41
0.0
  0
VERTEX
  8
4
 10
83.28124237060547
 20
68.88108062744141
  0
VERTEX
  8
4
 10
83.28124237060547
 20
70.84983062744141
  0
SEQEND
  8
4
  0
ENDBLK
  8
4
  0
BLOCK
  8
4
  2
COMP16
 70
    64
 10
0.0
 20
0.0
  0
POLYLINE
  8
4
  6
CONTINUOUS
 66
     1
 70
     0
 40
0.0
 41
0.0
  0
VERTEX
  8
4
 10
96.65624237060547
 20
71.78733062744141
  0
VERTEX
  8
4
 10
95.43749237060547
 20
71.78733062744141
  0
VERTEX
  8
4
 10
95.24999237060547
 20
70.47483062744141
  0
VERTEX
  8
4
 10
95.71874237060547
 20
70.66233062744141
  0
VERTEX
  8
4
 10
96.28124237060547
 20
70.66233062744141
  0
VERTEX
  8
4
 10
96.74999237060547
 20
70.28733062744141
  0
VERTEX
  8
4
 10
96.74999237060547
 20
69.34983062744141
  0
VERTEX
  8
4
 10
96.28124237060547
 20
68.88108062744141
  0
VERTEX
  8
4
 10
95.71874237060547
 20
68.88108062744141
  0
VERTEX
  8
4
 10
95.24999237060547
 20
69.34983062744141
  0
SEQEND
  8
4
  0
ENDBLK
  8
4
  0
BLOCK
  8
4
  2
COMP17
 70
    64
 10
0.0
 20
0.0
  0
POLYLINE
  8
4
  6
CONTINUOUS
 66
     1
 70
     0
 40
0.0
 41
0.0
  0
VERTEX
  8
4
 10
108.2499923706055
 20
70.19358062744141
  0
VERTEX
  8
4
 10
108.7187423706055
 20
70.66233062744141
  0
VERTEX
  8
4
 10
109.2812423706055
 20
70.66233062744141
  0
VERTEX
  8
4
 10
109.7499923706055
 20
70.19358062744141
  0
VERTEX
  8
4
 10
109.7499923706055
 20
69.34983062744141
  0
VERTEX
  8
4
 10
109.2812423706055
 20
68.88108062744141
  0
VERTEX
  8
4
 10
108.7187423706055
 20
68.88108062744141
  0
VERTEX
  8
4
 10
108.2499923706055
 20
69.34983062744141
  0
VERTEX
  8
4
 10
108.2499923706055
 20
71.41233062744141
  0
VERTEX
  8
4
 10
108.7187423706055
 20
71.88108062744141
  0
VERTEX
  8
4
 10
109.2812423706055
 20
71.88108062744141
  0
VERTEX
  8
4
 10
109.7499923706055
 20
71.41233062744141
  0
SEQEND
  8
4
  0
ENDBLK
  8
4
  0
BLOCK
  8
4
  2
COMP18
 70
    64
 10
0.0
 20
0.0
  0
POLYLINE
  8
4
  6
CONTINUOUS
 66
     1
 70
     0
 40
0.0
 41
0.0
  0
VERTEX
  8
4
 10
121.2499923706055
 20
71.03733062744141
  0
VERTEX
  8
4
 10
121.2499923706055
 20
71.78733062744141
  0
VERTEX
  8
4
 10
122.7499923706055
 20
71.78733062744141
  0
VERTEX
  8
4
 10
121.8124923706055
 20
68.88108062744141
  0
SEQEND
  8
4
  0
ENDBLK
  8
4
  0
BLOCK
  8
4
  2
COMP19
 70
    64
 10
0.0
 20
0.0
  0
POLYLINE
  8
4
  6
CONTINUOUS
 66
     1
 70
     0
 40
0.0
 41
0.0
  0
VERTEX
  8
4
 10
135.28125
 20
71.88108062744141
  0
VERTEX
  8
4
 10
135.65625
 20
71.50608062744141
  0
VERTEX
  8
4
 10
135.65625
 20
70.75608062744141
  0
VERTEX
  8
4
 10
135.28125
 20
70.47483062744141
  0
VERTEX
  8
4
 10
134.71875
 20
70.47483062744141
  0
VERTEX
  8
4
 10
134.34375
 20
70.75608062744141
  0
VERTEX
  8
4
 10
134.34375
 20
71.50608062744141
  0
VERTEX
  8
4
 10
134.71875
 20
71.88108062744141
  0
VERTEX
  8
4
 10
135.28125
 20
71.88108062744141
  0
SEQEND
  8
4
  0
POLYLINE
  8
4
  6
CONTINUOUS
 66
     1
 70
     0
 40
0.0
 41
0.0
  0
VERTEX
  8
4
 10
134.71875
 20
70.47483062744141
  0
VERTEX
  8
4
 10
134.25
 20
70.09983062744141
  0
VERTEX
  8
4
 10
134.25
 20
69.34983062744141
  0
VERTEX
  8
4
 10
134.71875
 20
68.88108062744141
  0
VERTEX
  8
4
 10
135.28125
 20
68.88108062744141
  0
VERTEX
  8
4
 10
135.75
 20
69.34983062744141
  0
VERTEX
  8
4
 10
135.75
 20
70.09983062744141
  0
VERTEX
  8
4
 10
135.28125
 20
70.47483062744141
  0
SEQEND
  8
4
  0
ENDBLK
  8
4
  0
BLOCK
  8
4
  2
COMP20
 70
    64
 10
0.0
 20
0.0
  0
POLYLINE
  8
4
  6
CONTINUOUS
 66
     1
 70
     0
 40
0.0
 41
0.0
  0
VERTEX
  8
4
 10
148.28125
 20
71.88108062744141
  0
VERTEX
  8
4
 10
147.71875
 20
71.88108062744141
  0
VERTEX
  8
4
 10
147.25
 20
71.41233062744141
  0
VERTEX
  8
4
 10
147.25
 20
70.56858062744141
  0
VERTEX
  8
4
 10
147.71875
 20
70.09983062744141
  0
VERTEX
  8
4
 10
148.28125
 20
70.09983062744141
  0
VERTEX
  8
4
 10
148.5625
 20
70.19358062744141
  0
VERTEX
  8
4
 10
148.75
 20
70.56858062744141
  0
VERTEX
  8
4
 10
148.75
 20
71.41233062744141
  0
VERTEX
  8
4
 10
148.28125
 20
71.88108062744141
  0
SEQEND
  8
4
  0
POLYLINE
  8
4
  6
CONTINUOUS
 66
     1
 70
     0
 40
0.0
 41
0.0
  0
VERTEX
  8
4
 10
148.5625
 20
70.19358062744141
  0
VERTEX
  8
4
 10
148.1875
 20
69.34983062744141
  0
VERTEX
  8
4
 10
147.625
 20
68.88108062744141
  0
SEQEND
  8
4
  0
ENDBLK
  8
4
  0
BLOCK
  8
4
  2
COMP21
 70
    64
 10
0.0
 20
0.0
  0
POLYLINE
  8
4
  6
CONTINUOUS
 66
     1
 70
     0
 40
0.0
 41
0.0
  0
VERTEX
  8
4
 10
159.96875
 20
68.88108062744141
  0
VERTEX
  8
4
 10
159.96875
 20
71.88108062744141
  0
VERTEX
  8
4
 10
159.453125
 20
70.99045562744141
  0
SEQEND
  8
4
  0
POLYLINE
  8
4
  6
CONTINUOUS
 66
     1
 70
     0
 40
0.0
 41
0.0
  0
VERTEX
  8
4
 10
161.375
 20
71.31858062744141
  0
VERTEX
  8
4
 10
161.375
 20
69.44358062744141
 42
0.9230769230769231
  0
VERTEX
  8
4
 10
162.59375
 20
69.44358062744141
  0
VERTEX
  8
4
 10
162.59375
 20
71.31858062744141
 42
0.9230769230769231
  0
VERTEX
  8
4
 10
161.375
 20
71.31858062744141
  0
SEQEND
  8
4
  0
ENDBLK
  8
4
  0
BLOCK
  8
4
  2
COMP22
 70
    64
 10
0.0
 20
0.0
  0
POLYLINE
  8
4
  6
CONTINUOUS
 66
     1
 70
     0
 40
0.0
 41
0.0
  0
VERTEX
  8
4
 10
158.28125
 20
64.11858367919922
  0
VERTEX
  8
4
 10
158.28125
 20
62.24358367919922
 42
0.9230769230769231
  0
VERTEX
  8
4
 10
159.5
 20
62.24358367919922
  0
VERTEX
  8
4
 10
159.5
 20
64.11858367919922
 42
0.9230769230769231
  0
VERTEX
  8
4
 10
158.28125
 20
64.11858367919922
  0
SEQEND
  8
4
  0
POLYLINE
  8
4
  6
CONTINUOUS
 66
     1
 70
     0
 40
0.0
 41
0.0
  0
VERTEX
  8
4
 10
160.8125
 20
61.77483367919922
  0
VERTEX
  8
4
 10
160.8125
 20
62.05608367919922
  0
VERTEX
  8
4
 10
161.140625
 20
62.05608367919922
  0
VERTEX
  8
4
 10
161.140625
 20
61.77483367919922
  0
VERTEX
  8
4
 10
160.8125
 20
61.77483367919922
  0
SEQEND
  8
4
  0
POLYLINE
  8
4
  6
CONTINUOUS
 66
     1
 70
     0
 40
0.0
 41
0.0
  0
VERTEX
  8
4
 10
163.71875
 20
64.58733367919922
  0
VERTEX
  8
4
 10
162.5
 20
64.58733367919922
  0
VERTEX
  8
4
 10
162.3125
 20
63.27483367919922
  0
VERTEX
  8
4
 10
162.78125
 20
63.46233367919922
  0
VERTEX
  8
4
 10
163.34375
 20
63.46233367919922
  0
VERTEX
  8
4
 10
163.8125
 20
63.08733367919922
  0
VERTEX
  8
4
 10
163.8125
 20
62.14983367919922
  0
VERTEX
  8
4
 10
163.34375
 20
61.68108367919922
  0
VERTEX
  8
4
 10
162.78125
 20
61.68108367919922
  0
VERTEX
  8
4
 10
162.3125
 20
62.14983367919922
  0
SEQEND
  8
4
  0
ENDBLK
  8
4
  0
BLOCK
  8
4
  2
COMP23
 70
    64
 10
0.0
 20
0.0
  0
POLYLINE
  8
4
  6
CONTINUOUS
 66
     1
 70
     0
 40
0.0
 41
0.0
  0
VERTEX
  8
4
 10
144.25
 20
64.11858367919922
  0
VERTEX
  8
4
 10
144.25
 20
62.24358367919922
 42
0.9230769230769231
  0
VERTEX
  8
4
 10
145.46875
 20
62.24358367919922
  0
VERTEX
  8
4
 10
145.46875
 20
64.11858367919922
 42
0.9230769230769231
  0
VERTEX
  8
4
 10
144.25
 20
64.11858367919922
  0
SEQEND
  8
4
  0
POLYLINE
  8
4
  6
CONTINUOUS
 66
     1
 70
     0
 40
0.0
 41
0.0
  0
VERTEX
  8
4
 10
146.78125
 20
61.77483367919922
  0
VERTEX
  8
4
 10
146.78125
 20
62.05608367919922
  0
VERTEX
  8
4
 10
147.109375
 20
62.05608367919922
  0
VERTEX
  8
4
 10
147.109375
 20
61.77483367919922
  0
VERTEX
  8
4
 10
146.78125
 20
61.77483367919922
  0
SEQEND
  8
4
  0
POLYLINE
  8
4
  6
CONTINUOUS
 66
     1
 70
     0
 40
0.0
 41
0.0
  0
VERTEX
  8
4
 10
149.03125
 20
64.68108367919922
  0
VERTEX
  8
4
 10
148.28125
 20
62.61858367919922
  0
VERTEX
  8
4
 10
149.78125
 20
62.61858367919922
  0
SEQEND
  8
4
  0
POLYLINE
  8
4
  6
CONTINUOUS
 66
     1
 70
     0
 40
0.0
 41
0.0
  0
VERTEX
  8
4
 10
149.3125
 20
61.68108367919922
  0
VERTEX
  8
4
 10
149.3125
 20
63.64983367919922
  0
SEQEND
  8
4
  0
POLYLINE
  8
4
  6
CONTINUOUS
 66
     1
 70
     0
 40
0.0
 41
0.0
  0
VERTEX
  8
4
 10
151.75
 20
64.58733367919922
  0
VERTEX
  8
4
 10
150.53125
 20
64.58733367919922
  0
VERTEX
  8
4
 10
150.34375
 20
63.27483367919922
  0
VERTEX
  8
4
 10
150.8125
 20
63.46233367919922
  0
VERTEX
  8
4
 10
151.375
 20
63.46233367919922
  0
VERTEX
  8
4
 10
151.84375
 20
63.08733367919922
  0
VERTEX
  8
4
 10
151.84375
 20
62.14983367919922
  0
VERTEX
  8
4
 10
151.375
 20
61.68108367919922
  0
VERTEX
  8
4
 10
150.8125
 20
61.68108367919922
  0
VERTEX
  8
4
 10
150.34375
 20
62.14983367919922
  0
SEQEND
  8
4
  0
ENDBLK
  8
4
  0
BLOCK
  8
4
  2
COMP24
 70
    64
 10
0.0
 20
0.0
  0
POLYLINE
  8
4
  6
CONTINUOUS
 66
     1
 70
     0
 40
0.0
 41
0.0
  0
VERTEX
  8
4
 10
132.28125
 20
64.11858367919922
  0
VERTEX
  8
4
 10
132.28125
 20
62.24358367919922
 42
0.9230769230769231
  0
VERTEX
  8
4
 10
133.5
 20
62.24358367919922
  0
VERTEX
  8
4
 10
133.5
 20
64.11858367919922
 42
0.9230769230769231
  0
VERTEX
  8
4
 10
132.28125
 20
64.11858367919922
  0
SEQEND
  8
4
  0
POLYLINE
  8
4
  6
CONTINUOUS
 66
     1
 70
     0
 40
0.0
 41
0.0
  0
VERTEX
  8
4
 10
134.8125
 20
61.77483367919922
  0
VERTEX
  8
4
 10
134.8125
 20
62.05608367919922
  0
VERTEX
  8
4
 10
135.140625
 20
62.05608367919922
  0
VERTEX
  8
4
 10
135.140625
 20
61.77483367919922
  0
VERTEX
  8
4
 10
134.8125
 20
61.77483367919922
  0
SEQEND
  8
4
  0
POLYLINE
  8
4
  6
CONTINUOUS
 66
     1
 70
     0
 40
0.0
 41
0.0
  0
VERTEX
  8
4
 10
137.0625
 20
64.68108367919922
  0
VERTEX
  8
4
 10
136.3125
 20
62.61858367919922
  0
VERTEX
  8
4
 10
137.8125
 20
62.61858367919922
  0
SEQEND
  8
4
  0
POLYLINE
  8
4
  6
CONTINUOUS
 66
     1
 70
     0
 40
0.0
 41
0.0
  0
VERTEX
  8
4
 10
137.34375
 20
61.68108367919922
  0
VERTEX
  8
4
 10
137.34375
 20
63.64983367919922
  0
SEQEND
  8
4
  0
ENDBLK
  8
4
  0
BLOCK
  8
4
  2
COMP25
 70
    64
 10
0.0
 20
0.0
  0
POLYLINE
  8
4
  6
CONTINUOUS
 66
     1
 70
     0
 40
0.0
 41
0.0
  0
VERTEX
  8
4
 10
118.2499923706055
 20
64.11858367919922
  0
VERTEX
  8
4
 10
118.2499923706055
 20
62.24358367919922
 42
0.9230769230769231
  0
VERTEX
  8
4
 10
119.4687423706055
 20
62.24358367919922
  0
VERTEX
  8
4
 10
119.4687423706055
 20
64.11858367919922
 42
0.9230769230769231
  0
VERTEX
  8
4
 10
118.2499923706055
 20
64.11858367919922
  0
SEQEND
  8
4
  0
POLYLINE
  8
4
  6
CONTINUOUS
 66
     1
 70
     0
 40
0.0
 41
0.0
  0
VERTEX
  8
4
 10
120.7812423706055
 20
61.77483367919922
  0
VERTEX
  8
4
 10
120.7812423706055
 20
62.05608367919922
  0
VERTEX
  8
4
 10
121.1093673706055
 20
62.05608367919922
  0
VERTEX
  8
4
 10
121.1093673706055
 20
61.77483367919922
  0
VERTEX
  8
4
 10
120.7812423706055
 20
61.77483367919922
  0
SEQEND
  8
4
  0
POLYLINE
  8
4
  6
CONTINUOUS
 66
     1
 70
     0
 40
0.0
 41
0.0
  0
VERTEX
  8
4
 10
122.2812423706055
 20
64.11858367919922
  0
VERTEX
  8
4
 10
122.7499923706055
 20
64.68108367919922
  0
VERTEX
  8
4
 10
123.3124923706055
 20
64.68108367919922
  0
VERTEX
  8
4
 10
123.7812423706055
 20
64.11858367919922
  0
VERTEX
  8
4
 10
123.7812423706055
 20
63.64983367919922
  0
VERTEX
  8
4
 10
123.2187423706055
 20
63.18108367919922
  0
VERTEX
  8
4
 10
122.6562423706055
 20
63.18108367919922
  0
SEQEND
  8
4
  0
POLYLINE
  8
4
  6
CONTINUOUS
 66
     1
 70
     0
 40
0.0
 41
0.0
  0
VERTEX
  8
4
 10
123.2187423706055
 20
63.18108367919922
  0
VERTEX
  8
4
 10
123.7812423706055
 20
62.61858367919922
  0
VERTEX
  8
4
 10
123.7812423706055
 20
62.14983367919922
  0
VERTEX
  8
4
 10
123.3124923706055
 20
61.68108367919922
  0
VERTEX
  8
4
 10
122.7499923706055
 20
61.68108367919922
  0
VERTEX
  8
4
 10
122.2812423706055
 20
62.14983367919922
  0
SEQEND
  8
4
  0
POLYLINE
  8
4
  6
CONTINUOUS
 66
     1
 70
     0
 40
0.0
 41
0.0
  0
VERTEX
  8
4
 10
125.7499923706055
 20
64.58733367919922
  0
VERTEX
  8
4
 10
124.5312423706055
 20
64.58733367919922
  0
VERTEX
  8
4
 10
124.3437423706055
 20
63.27483367919922
  0
VERTEX
  8
4
 10
124.8124923706055
 20
63.46233367919922
  0
VERTEX
  8
4
 10
125.3749923706055
 20
63.46233367919922
  0
VERTEX
  8
4
 10
125.8437423706055
 20
63.08733367919922
  0
VERTEX
  8
4
 10
125.8437423706055
 20
62.14983367919922
  0
VERTEX
  8
4
 10
125.3749923706055
 20
61.68108367919922
  0
VERTEX
  8
4
 10
124.8124923706055
 20
61.68108367919922
  0
VERTEX
  8
4
 10
124.3437423706055
 20
62.14983367919922
  0
SEQEND
  8
4
  0
ENDBLK
  8
4
  0
BLOCK
  8
4
  2
COMP26
 70
    64
 10
0.0
 20
0.0
  0
POLYLINE
  8
4
  6
CONTINUOUS
 66
     1
 70
     0
 40
0.0
 41
0.0
  0
VERTEX
  8
4
 10
106.2812423706055
 20
64.11858367919922
  0
VERTEX
  8
4
 10
106.2812423706055
 20
62.24358367919922
 42
0.9230769230769231
  0
VERTEX
  8
4
 10
107.4999923706055
 20
62.24358367919922
  0
VERTEX
  8
4
 10
107.4999923706055
 20
64.11858367919922
 42
0.9230769230769231
  0
VERTEX
  8
4
 10
106.2812423706055
 20
64.11858367919922
  0
SEQEND
  8
4
  0
POLYLINE
  8
4
  6
CONTINUOUS
 66
     1
 70
     0
 40
0.0
 41
0.0
  0
VERTEX
  8
4
 10
108.8124923706055
 20
61.77483367919922
  0
VERTEX
  8
4
 10
108.8124923706055
 20
62.05608367919922
  0
VERTEX
  8
4
 10
109.1406173706055
 20
62.05608367919922
  0
VERTEX
  8
4
 10
109.1406173706055
 20
61.77483367919922
  0
VERTEX
  8
4
 10
108.8124923706055
 20
61.77483367919922
  0
SEQEND
  8
4
  0
POLYLINE
  8
4
  6
CONTINUOUS
 66
     1
 70
     0
 40
0.0
 41
0.0
  0
VERTEX
  8
4
 10
110.3124923706055
 20
64.11858367919922
  0
VERTEX
  8
4
 10
110.7812423706055
 20
64.68108367919922
  0
VERTEX
  8
4
 10
111.3437423706055
 20
64.68108367919922
  0
VERTEX
  8
4
 10
111.8124923706055
 20
64.11858367919922
  0
VERTEX
  8
4
 10
111.8124923706055
 20
63.64983367919922
  0
VERTEX
  8
4
 10
111.2499923706055
 20
63.18108367919922
  0
VERTEX
  8
4
 10
110.6874923706055
 20
63.18108367919922
  0
SEQEND
  8
4
  0
POLYLINE
  8
4
  6
CONTINUOUS
 66
     1
 70
     0
 40
0.0
 41
0.0
  0
VERTEX
  8
4
 10
111.2499923706055
 20
63.18108367919922
  0
VERTEX
  8
4
 10
111.8124923706055
 20
62.61858367919922
  0
VERTEX
  8
4
 10
111.8124923706055
 20
62.14983367919922
  0
VERTEX
  8
4
 10
111.3437423706055
 20
61.68108367919922
  0
VERTEX
  8
4
 10
110.7812423706055
 20
61.68108367919922
  0
VERTEX
  8
4
 10
110.3124923706055
 20
62.14983367919922
  0
SEQEND
  8
4
  0
ENDBLK
  8
4
  0
BLOCK
  8
4
  2
COMP27
 70
    64
 10
0.0
 20
0.0
  0
POLYLINE
  8
4
  6
CONTINUOUS
 66
     1
 70
     0
 40
0.0
 41
0.0
  0
VERTEX
  8
4
 10
92.24999237060547
 20
64.11858367919922
  0
VERTEX
  8
4
 10
92.24999237060547
 20
62.24358367919922
 42
0.9230769230769231
  0
VERTEX
  8
4
 10
93.46874237060547
 20
62.24358367919922
  0
VERTEX
  8
4
 10
93.46874237060547
 20
64.11858367919922
 42
0.9230769230769231
  0
VERTEX
  8
4
 10
92.24999237060547
 20
64.11858367919922
  0
SEQEND
  8
4
  0
POLYLINE
  8
4
  6
CONTINUOUS
 66
     1
 70
     0
 40
0.0
 41
0.0
  0
VERTEX
  8
4
 10
94.78124237060547
 20
61.77483367919922
  0
VERTEX
  8
4
 10
94.78124237060547
 20
62.05608367919922
  0
VERTEX
  8
4
 10
95.10936737060547
 20
62.05608367919922
  0
VERTEX
  8
4
 10
95.10936737060547
 20
61.77483367919922
  0
VERTEX
  8
4
 10
94.78124237060547
 20
61.77483367919922
  0
SEQEND
  8
4
  0
POLYLINE
  8
4
  6
CONTINUOUS
 66
     1
 70
     0
 40
0.0
 41
0.0
  0
VERTEX
  8
4
 10
96.28124237060547
 20
64.11858367919922
  0
VERTEX
  8
4
 10
96.74999237060547
 20
64.68108367919922
  0
VERTEX
  8
4
 10
97.31249237060547
 20
64.68108367919922
  0
VERTEX
  8
4
 10
97.78124237060547
 20
64.11858367919922
  0
VERTEX
  8
4
 10
97.78124237060547
 20
63.36858367919922
  0
VERTEX
  8
4
 10
96.28124237060547
 20
62.05608367919922
  0
VERTEX
  8
4
 10
96.28124237060547
 20
61.68108367919922
  0
VERTEX
  8
4
 10
97.78124237060547
 20
61.68108367919922
  0
SEQEND
  8
4
  0
POLYLINE
  8
4
  6
CONTINUOUS
 66
     1
 70
     0
 40
0.0
 41
0.0
  0
VERTEX
  8
4
 10
99.74999237060547
 20
64.58733367919922
  0
VERTEX
  8
4
 10
98.53124237060547
 20
64.58733367919922
  0
VERTEX
  8
4
 10
98.34374237060547
 20
63.27483367919922
  0
VERTEX
  8
4
 10
98.81249237060547
 20
63.46233367919922
  0
VERTEX
  8
4
 10
99.37499237060547
 20
63.46233367919922
  0
VERTEX
  8
4
 10
99.84374237060547
 20
63.08733367919922
  0
VERTEX
  8
4
 10
99.84374237060547
 20
62.14983367919922
  0
VERTEX
  8
4
 10
99.37499237060547
 20
61.68108367919922
  0
VERTEX
  8
4
 10
98.81249237060547
 20
61.68108367919922
  0
VERTEX
  8
4
 10
98.34374237060547
 20
62.14983367919922
  0
SEQEND
  8
4
  0
ENDBLK
  8
4
  0
BLOCK
  8
4
  2
COMP28
 70
    64
 10
0.0
 20
0.0
  0
POLYLINE
  8
4
  6
CONTINUOUS
 66
     1
 70
     0
 40
0.0
 41
0.0
  0
VERTEX
  8
4
 10
80.28124237060547
 20
64.11858367919922
  0
VERTEX
  8
4
 10
80.28124237060547
 20
62.24358367919922
 42
0.9230769230769231
  0
VERTEX
  8
4
 10
81.49999237060547
 20
62.24358367919922
  0
VERTEX
  8
4
 10
81.49999237060547
 20
64.11858367919922
 42
0.9230769230769231
  0
VERTEX
  8
4
 10
80.28124237060547
 20
64.11858367919922
  0
SEQEND
  8
4
  0
POLYLINE
  8
4
  6
CONTINUOUS
 66
     1
 70
     0
 40
0.0
 41
0.0
  0
VERTEX
  8
4
 10
82.81249237060547
 20
61.77483367919922
  0
VERTEX
  8
4
 10
82.81249237060547
 20
62.05608367919922
  0
VERTEX
  8
4
 10
83.14061737060547
 20
62.05608367919922
  0
VERTEX
  8
4
 10
83.14061737060547
 20
61.77483367919922
  0
VERTEX
  8
4
 10
82.81249237060547
 20
61.77483367919922
  0
SEQEND
  8
4
  0
POLYLINE
  8
4
  6
CONTINUOUS
 66
     1
 70
     0
 40
0.0
 41
0.0
  0
VERTEX
  8
4
 10
84.31249237060547
 20
64.11858367919922
  0
VERTEX
  8
4
 10
84.78124237060547
 20
64.68108367919922
  0
VERTEX
  8
4
 10
85.34374237060547
 20
64.68108367919922
  0
VERTEX
  8
4
 10
85.81249237060547
 20
64.11858367919922
  0
VERTEX
  8
4
 10
85.81249237060547
 20
63.36858367919922
  0
VERTEX
  8
4
 10
84.31249237060547
 20
62.05608367919922
  0
VERTEX
  8
4
 10
84.31249237060547
 20
61.68108367919922
  0
VERTEX
  8
4
 10
85.81249237060547
 20
61.68108367919922
  0
SEQEND
  8
4
  0
ENDBLK
  8
4
  0
BLOCK
  8
4
  2
COMP29
 70
    64
 10
0.0
 20
0.0
  0
POLYLINE
  8
4
  6
CONTINUOUS
 66
     1
 70
     0
 40
0.0
 41
0.0
  0
VERTEX
  8
4
 10
66.24999237060547
 20
64.11858367919922
  0
VERTEX
  8
4
 10
66.24999237060547
 20
62.24358367919922
 42
0.9230769230769231
  0
VERTEX
  8
4
 10
67.46874237060547
 20
62.24358367919922
  0
VERTEX
  8
4
 10
67.46874237060547
 20
64.11858367919922
 42
0.9230769230769231
  0
VERTEX
  8
4
 10
66.24999237060547
 20
64.11858367919922
  0
SEQEND
  8
4
  0
POLYLINE
  8
4
  6
CONTINUOUS
 66
     1
 70
     0
 40
0.0
 41
0.0
  0
VERTEX
  8
4
 10
68.78124237060547
 20
61.77483367919922
  0
VERTEX
  8
4
 10
68.78124237060547
 20
62.05608367919922
  0
VERTEX
  8
4
 10
69.10936737060547
 20
62.05608367919922
  0
VERTEX
  8
4
 10
69.10936737060547
 20
61.77483367919922
  0
VERTEX
  8
4
 10
68.78124237060547
 20
61.77483367919922
  0
SEQEND
  8
4
  0
POLYLINE
  8
4
  6
CONTINUOUS
 66
     1
 70
     0
 40
0.0
 41
0.0
  0
VERTEX
  8
4
 10
71.03124237060547
 20
61.68108367919922
  0
VERTEX
  8
4
 10
71.03124237060547
 20
64.68108367919922
  0
VERTEX
  8
4
 10
70.51561737060547
 20
63.79045867919922
  0
SEQEND
  8
4
  0
POLYLINE
  8
4
  6
CONTINUOUS
 66
     1
 70
     0
 40
0.0
 41
0.0
  0
VERTEX
  8
4
 10
73.74999237060547
 20
64.58733367919922
  0
VERTEX
  8
4
 10
72.53124237060547
 20
64.58733367919922
  0
VERTEX
  8
4
 10
72.34374237060547
 20
63.27483367919922
  0
VERTEX
  8
4
 10
72.81249237060547
 20
63.46233367919922
  0
VERTEX
  8
4
 10
73.37499237060547
 20
63.46233367919922
  0
VERTEX
  8
4
 10
73.84374237060547
 20
63.08733367919922
  0
VERTEX
  8
4
 10
73.84374237060547
 20
62.14983367919922
  0
VERTEX
  8
4
 10
73.37499237060547
 20
61.68108367919922
  0
VERTEX
  8
4
 10
72.81249237060547
 20
61.68108367919922
  0
VERTEX
  8
4
 10
72.34374237060547
 20
62.14983367919922
  0
SEQEND
  8
4
  0
ENDBLK
  8
4
  0
BLOCK
  8
4
  2
COMP30
 70
    64
 10
0.0
 20
0.0
  0
POLYLINE
  8
4
  6
CONTINUOUS
 66
     1
 70
     0
 40
0.0
 41
0.0
  0
VERTEX
  8
4
 10
54.28124618530273
 20
64.11858367919922
  0
VERTEX
  8
4
 10
54.28124618530273
 20
62.24358367919922
 42
0.9230769230769231
  0
VERTEX
  8
4
 10
55.49999618530273
 20
62.24358367919922
  0
VERTEX
  8
4
 10
55.49999618530273
 20
64.11858367919922
 42
0.9230769230769231
  0
VERTEX
  8
4
 10
54.28124618530273
 20
64.11858367919922
  0
SEQEND
  8
4
  0
POLYLINE
  8
4
  6
CONTINUOUS
 66
     1
 70
     0
 40
0.0
 41
0.0
  0
VERTEX
  8
4
 10
56.81249618530273
 20
61.77483367919922
  0
VERTEX
  8
4
 10
56.81249618530273
 20
62.05608367919922
  0
VERTEX
  8
4
 10
57.14062118530273
 20
62.05608367919922
  0
VERTEX
  8
4
 10
57.14062118530273
 20
61.77483367919922
  0
VERTEX
  8
4
 10
56.81249618530273
 20
61.77483367919922
  0
SEQEND
  8
4
  0
POLYLINE
  8
4
  6
CONTINUOUS
 66
     1
 70
     0
 40
0.0
 41
0.0
  0
VERTEX
  8
4
 10
59.06249618530273
 20
61.68108367919922
  0
VERTEX
  8
4
 10
59.06249618530273
 20
64.68108367919922
  0
VERTEX
  8
4
 10
58.54687118530273
 20
63.79045867919922
  0
SEQEND
  8
4
  0
ENDBLK
  8
4
  0
BLOCK
  8
4
  2
COMP31
 70
    64
 10
0.0
 20
0.0
  0
POLYLINE
  8
4
  6
CONTINUOUS
 66
     1
 70
     0
 40
0.0
 41
0.0
  0
VERTEX
  8
4
 10
40.24999618530273
 20
64.11858367919922
  0
VERTEX
  8
4
 10
40.24999618530273
 20
62.24358367919922
 42
0.9230769230769231
  0
VERTEX
  8
4
 10
41.46874618530273
 20
62.24358367919922
  0
VERTEX
  8
4
 10
41.46874618530273
 20
64.11858367919922
 42
0.9230769230769231
  0
VERTEX
  8
4
 10
40.24999618530273
 20
64.11858367919922
  0
SEQEND
  8
4
  0
POLYLINE
  8
4
  6
CONTINUOUS
 66
     1
 70
     0
 40
0.0
 41
0.0
  0
VERTEX
  8
4
 10
42.78124618530273
 20
61.77483367919922
  0
VERTEX
  8
4
 10
42.78124618530273
 20
62.05608367919922
  0
VERTEX
  8
4
 10
43.10937118530273
 20
62.05608367919922
  0
VERTEX
  8
4
 10
43.10937118530273
 20
61.77483367919922
  0
VERTEX
  8
4
 10
42.78124618530273
 20
61.77483367919922
  0
SEQEND
  8
4
  0
POLYLINE
  8
4
  6
CONTINUOUS
 66
     1
 70
     0
 40
0.0
 41
0.0
  0
VERTEX
  8
4
 10
44.37499618530273
 20
64.11858367919922
  0
VERTEX
  8
4
 10
44.37499618530273
 20
62.24358367919922
 42
0.9230769230769231
  0
VERTEX
  8
4
 10
45.59374618530273
 20
62.24358367919922
  0
VERTEX
  8
4
 10
45.59374618530273
 20
64.11858367919922
 42
0.9230769230769231
  0
VERTEX
  8
4
 10
44.37499618530273
 20
64.11858367919922
  0
SEQEND
  8
4
  0
POLYLINE
  8
4
  6
CONTINUOUS
 66
     1
 70
     0
 40
0.0
 41
0.0
  0
VERTEX
  8
4
 10
47.74999618530273
 20
64.58733367919922
  0
VERTEX
  8
4
 10
46.53124618530273
 20
64.58733367919922
  0
VERTEX
  8
4
 10
46.34374618530273
 20
63.27483367919922
  0
VERTEX
  8
4
 10
46.81249618530273
 20
63.46233367919922
  0
VERTEX
  8
4
 10
47.37499618530273
 20
63.46233367919922
  0
VERTEX
  8
4
 10
47.84374618530273
 20
63.08733367919922
  0
VERTEX
  8
4
 10
47.84374618530273
 20
62.14983367919922
  0
VERTEX
  8
4
 10
47.37499618530273
 20
61.68108367919922
  0
VERTEX
  8
4
 10
46.81249618530273
 20
61.68108367919922
  0
VERTEX
  8
4
 10
46.34374618530273
 20
62.14983367919922
  0
SEQEND
  8
4
  0
ENDBLK
  8
4
  0
BLOCK
  8
4
  2
COMP32
 70
    64
 10
0.0
 20
0.0
  0
POLYLINE
  8
4
  6
CONTINUOUS
 66
     1
 70
     0
 40
0.0
 41
0.0
  0
VERTEX
  8
4
 10
19.62499618530273
 20
64.11858367919922
  0
VERTEX
  8
4
 10
19.62499618530273
 20
62.24358367919922
 42
0.9230769230769231
  0
VERTEX
  8
4
 10
20.84374618530273
 20
62.24358367919922
  0
VERTEX
  8
4
 10
20.84374618530273
 20
64.11858367919922
 42
0.9230769230769231
  0
VERTEX
  8
4
 10
19.62499618530273
 20
64.11858367919922
  0
SEQEND
  8
4
  0
POLYLINE
  8
4
  6
CONTINUOUS
 66
     1
 70
     0
 40
0.0
 41
0.0
  0
VERTEX
  8
4
 10
22.15624618530273
 20
61.77483367919922
  0
VERTEX
  8
4
 10
22.15624618530273
 20
62.05608367919922
  0
VERTEX
  8
4
 10
22.48437118530273
 20
62.05608367919922
  0
VERTEX
  8
4
 10
22.48437118530273
 20
61.77483367919922
  0
VERTEX
  8
4
 10
22.15624618530273
 20
61.77483367919922
  0
SEQEND
  8
4
  0
POLYLINE
  8
4
  6
CONTINUOUS
 66
     1
 70
     0
 40
0.0
 41
0.0
  0
VERTEX
  8
4
 10
25.06249618530273
 20
64.58733367919922
  0
VERTEX
  8
4
 10
23.84374618530273
 20
64.58733367919922
  0
VERTEX
  8
4
 10
23.65624618530273
 20
63.27483367919922
  0
VERTEX
  8
4
 10
24.12499618530273
 20
63.46233367919922
  0
VERTEX
  8
4
 10
24.68749618530273
 20
63.46233367919922
  0
VERTEX
  8
4
 10
25.15624618530273
 20
63.08733367919922
  0
VERTEX
  8
4
 10
25.15624618530273
 20
62.14983367919922
  0
VERTEX
  8
4
 10
24.68749618530273
 20
61.68108367919922
  0
VERTEX
  8
4
 10
24.12499618530273
 20
61.68108367919922
  0
VERTEX
  8
4
 10
23.65624618530273
 20
62.14983367919922
  0
SEQEND
  8
4
  0
POLYLINE
  8
4
  6
CONTINUOUS
 66
     1
 70
     0
 40
0.0
 41
0.0
  0
VERTEX
  8
4
 10
27.78124618530273
 20
63.64983367919922
  0
VERTEX
  8
4
 10
27.78124618530273
 20
61.68108367919922
  0
SEQEND
  8
4
  0
POLYLINE
  8
4
  6
CONTINUOUS
 66
     1
 70
     0
 40
0.0
 41
0.0
  0
VERTEX
  8
4
 10
29.28124618530273
 20
61.68108367919922
  0
VERTEX
  8
4
 10
29.28124618530273
 20
62.99358367919922
  0
VERTEX
  8
4
 10
28.90624618530273
 20
63.64983367919922
  0
VERTEX
  8
4
 10
28.53124618530273
 20
62.99358367919922
  0
VERTEX
  8
4
 10
28.15624618530273
 20
63.64983367919922
  0
VERTEX
  8
4
 10
27.78124618530273
 20
62.99358367919922
  0
SEQEND
  8
4
  0
POLYLINE
  8
4
  6
CONTINUOUS
 66
     1
 70
     0
 40
0.0
 41
0.0
  0
VERTEX
  8
4
 10
28.53124618530273
 20
62.99358367919922
  0
VERTEX
  8
4
 10
28.53124618530273
 20
61.68108367919922
  0
SEQEND
  8
4
  0
POLYLINE
  8
4
  6
CONTINUOUS
 66
     1
 70
     0
 40
0.0
 41
0.0
  0
VERTEX
  8
4
 10
31.34374618530273
 20
64.68108367919922
  0
VERTEX
  8
4
 10
30.59374618530273
 20
61.68108367919922
  0
VERTEX
  8
4
 10
29.84374618530273
 20
64.68108367919922
  0
SEQEND
  8
4
  0
POLYLINE
  8
4
  6
CONTINUOUS
 66
     1
 70
     0
 40
0.0
 41
0.0
  0
VERTEX
  8
4
 10
31.90624618530273
 20
61.68108367919922
  0
VERTEX
  8
4
 10
33.40624618530273
 20
64.68108367919922
  0
SEQEND
  8
4
  0
POLYLINE
  8
4
  6
CONTINUOUS
 66
     1
 70
     0
 40
0.0
 41
0.0
  0
VERTEX
  8
4
 10
35.46874618530273
 20
64.68108367919922
  0
VERTEX
  8
4
 10
34.71874618530273
 20
61.68108367919922
  0
VERTEX
  8
4
 10
33.96874618530273
 20
64.68108367919922
  0
SEQEND
  8
4
  0
ENDBLK
  8
4
  0
BLOCK
  8
4
  2
COMP33
 70
    64
 10
0.0
 20
0.0
  0
POLYLINE
  8
4
  6
CONTINUOUS
 66
     1
 70
     0
 40
0.0
 41
0.0
  0
VERTEX
  8
4
 10
21.59374618530273
 20
56.9185791015625
  0
VERTEX
  8
4
 10
22.06249618530273
 20
57.4810791015625
  0
VERTEX
  8
4
 10
22.62499618530273
 20
57.4810791015625
  0
VERTEX
  8
4
 10
23.09374618530273
 20
56.9185791015625
  0
VERTEX
  8
4
 10
23.09374618530273
 20
56.1685791015625
  0
VERTEX
  8
4
 10
21.59374618530273
 20
54.8560791015625
  0
VERTEX
  8
4
 10
21.59374618530273
 20
54.4810791015625
  0
VERTEX
  8
4
 10
23.09374618530273
 20
54.4810791015625
  0
SEQEND
  8
4
  0
POLYLINE
  8
4
  6
CONTINUOUS
 66
     1
 70
     0
 40
0.0
 41
0.0
  0
VERTEX
  8
4
 10
25.71874618530273
 20
56.4498291015625
  0
VERTEX
  8
4
 10
25.71874618530273
 20
54.4810791015625
  0
SEQEND
  8
4
  0
POLYLINE
  8
4
  6
CONTINUOUS
 66
     1
 70
     0
 40
0.0
 41
0.0
  0
VERTEX
  8
4
 10
27.21874618530273
 20
54.4810791015625
  0
VERTEX
  8
4
 10
27.21874618530273
 20
55.7935791015625
  0
VERTEX
  8
4
 10
26.84374618530273
 20
56.4498291015625
  0
VERTEX
  8
4
 10
26.46874618530273
 20
55.7935791015625
  0
VERTEX
  8
4
 10
26.09374618530273
 20
56.4498291015625
  0
VERTEX
  8
4
 10
25.71874618530273
 20
55.7935791015625
  0
SEQEND
  8
4
  0
POLYLINE
  8
4
  6
CONTINUOUS
 66
     1
 70
     0
 40
0.0
 41
0.0
  0
VERTEX
  8
4
 10
26.46874618530273
 20
55.7935791015625
  0
VERTEX
  8
4
 10
26.46874618530273
 20
54.4810791015625
  0
SEQEND
  8
4
  0
POLYLINE
  8
4
  6
CONTINUOUS
 66
     1
 70
     0
 40
0.0
 41
0.0
  0
VERTEX
  8
4
 10
29.28124618530273
 20
57.4810791015625
  0
VERTEX
  8
4
 10
28.53124618530273
 20
54.4810791015625
  0
VERTEX
  8
4
 10
27.78124618530273
 20
57.4810791015625
  0
SEQEND
  8
4
  0
POLYLINE
  8
4
  6
CONTINUOUS
 66
     1
 70
     0
 40
0.0
 41
0.0
  0
VERTEX
  8
4
 10
29.84374618530273
 20
54.4810791015625
  0
VERTEX
  8
4
 10
31.34374618530273
 20
57.4810791015625
  0
SEQEND
  8
4
  0
POLYLINE
  8
4
  6
CONTINUOUS
 66
     1
 70
     0
 40
0.0
 41
0.0
  0
VERTEX
  8
4
 10
33.40624618530273
 20
57.4810791015625
  0
VERTEX
  8
4
 10
32.65624618530273
 20
54.4810791015625
  0
VERTEX
  8
4
 10
31.90624618530273
 20
57.4810791015625
  0
SEQEND
  8
4
  0
ENDBLK
  8
4
  0
BLOCK
  8
4
  2
COMP34
 70
    64
 10
0.0
 20
0.0
  0
POLYLINE
  8
4
  6
CONTINUOUS
 66
     1
 70
     0
 40
0.0
 41
0.0
  0
VERTEX
  8
4
 10
41.28124618530273
 20
56.9185791015625
  0
VERTEX
  8
4
 10
41.28124618530273
 20
55.0435791015625
 42
0.9230769230769231
  0
VERTEX
  8
4
 10
42.49999618530273
 20
55.0435791015625
  0
VERTEX
  8
4
 10
42.49999618530273
 20
56.9185791015625
 42
0.9230769230769231
  0
VERTEX
  8
4
 10
41.28124618530273
 20
56.9185791015625
  0
SEQEND
  8
4
  0
POLYLINE
  8
4
  6
CONTINUOUS
 66
     1
 70
     0
 40
0.0
 41
0.0
  0
VERTEX
  8
4
 10
43.81249618530273
 20
54.5748291015625
  0
VERTEX
  8
4
 10
43.81249618530273
 20
54.8560791015625
  0
VERTEX
  8
4
 10
44.14062118530273
 20
54.8560791015625
  0
VERTEX
  8
4
 10
44.14062118530273
 20
54.5748291015625
  0
VERTEX
  8
4
 10
43.81249618530273
 20
54.5748291015625
  0
SEQEND
  8
4
  0
POLYLINE
  8
4
  6
CONTINUOUS
 66
     1
 70
     0
 40
0.0
 41
0.0
  0
VERTEX
  8
4
 10
45.31249618530273
 20
56.9185791015625
  0
VERTEX
  8
4
 10
45.78124618530273
 20
57.4810791015625
  0
VERTEX
  8
4
 10
46.34374618530273
 20
57.4810791015625
  0
VERTEX
  8
4
 10
46.81249618530273
 20
56.9185791015625
  0
VERTEX
  8
4
 10
46.81249618530273
 20
56.1685791015625
  0
VERTEX
  8
4
 10
45.31249618530273
 20
54.8560791015625
  0
VERTEX
  8
4
 10
45.31249618530273
 20
54.4810791015625
  0
VERTEX
  8
4
 10
46.81249618530273
 20
54.4810791015625
  0
SEQEND
  8
4
  0
ENDBLK
  8
4
  0
BLOCK
  8
4
  2
COMP35
 70
    64
 10
0.0
 20
0.0
  0
POLYLINE
  8
4
  6
CONTINUOUS
 66
     1
 70
     0
 40
0.0
 41
0.0
  0
VERTEX
  8
4
 10
54.28124618530273
 20
56.9185791015625
  0
VERTEX
  8
4
 10
54.28124618530273
 20
55.0435791015625
 42
0.9230769230769231
  0
VERTEX
  8
4
 10
55.49999618530273
 20
55.0435791015625
  0
VERTEX
  8
4
 10
55.49999618530273
 20
56.9185791015625
 42
0.9230769230769231
  0
VERTEX
  8
4
 10
54.28124618530273
 20
56.9185791015625
  0
SEQEND
  8
4
  0
POLYLINE
  8
4
  6
CONTINUOUS
 66
     1
 70
     0
 40
0.0
 41
0.0
  0
VERTEX
  8
4
 10
56.81249618530273
 20
54.5748291015625
  0
VERTEX
  8
4
 10
56.81249618530273
 20
54.8560791015625
  0
VERTEX
  8
4
 10
57.14062118530273
 20
54.8560791015625
  0
VERTEX
  8
4
 10
57.14062118530273
 20
54.5748291015625
  0
VERTEX
  8
4
 10
56.81249618530273
 20
54.5748291015625
  0
SEQEND
  8
4
  0
POLYLINE
  8
4
  6
CONTINUOUS
 66
     1
 70
     0
 40
0.0
 41
0.0
  0
VERTEX
  8
4
 10
59.06249618530273
 20
57.4810791015625
  0
VERTEX
  8
4
 10
58.31249618530273
 20
55.4185791015625
  0
VERTEX
  8
4
 10
59.81249618530273
 20
55.4185791015625
  0
SEQEND
  8
4
  0
POLYLINE
  8
4
  6
CONTINUOUS
 66
     1
 70
     0
 40
0.0
 41
0.0
  0
VERTEX
  8
4
 10
59.34374618530273
 20
54.4810791015625
  0
VERTEX
  8
4
 10
59.34374618530273
 20
56.4498291015625
  0
SEQEND
  8
4
  0
ENDBLK
  8
4
  0
BLOCK
  8
4
  2
COMP36
 70
    64
 10
0.0
 20
0.0
  0
POLYLINE
  8
4
  6
CONTINUOUS
 66
     1
 70
     0
 40
0.0
 41
0.0
  0
VERTEX
  8
4
 10
67.28124237060547
 20
56.9185791015625
  0
VERTEX
  8
4
 10
67.28124237060547
 20
55.0435791015625
 42
0.9230769230769231
  0
VERTEX
  8
4
 10
68.49999237060547
 20
55.0435791015625
  0
VERTEX
  8
4
 10
68.49999237060547
 20
56.9185791015625
 42
0.9230769230769231
  0
VERTEX
  8
4
 10
67.28124237060547
 20
56.9185791015625
  0
SEQEND
  8
4
  0
POLYLINE
  8
4
  6
CONTINUOUS
 66
     1
 70
     0
 40
0.0
 41
0.0
  0
VERTEX
  8
4
 10
69.81249237060547
 20
54.5748291015625
  0
VERTEX
  8
4
 10
69.81249237060547
 20
54.8560791015625
  0
VERTEX
  8
4
 10
70.14061737060547
 20
54.8560791015625
  0
VERTEX
  8
4
 10
70.14061737060547
 20
54.5748291015625
  0
VERTEX
  8
4
 10
69.81249237060547
 20
54.5748291015625
  0
SEQEND
  8
4
  0
POLYLINE
  8
4
  6
CONTINUOUS
 66
     1
 70
     0
 40
0.0
 41
0.0
  0
VERTEX
  8
4
 10
71.31249237060547
 20
55.7935791015625
  0
VERTEX
  8
4
 10
71.78124237060547
 20
56.2623291015625
  0
VERTEX
  8
4
 10
72.34374237060547
 20
56.2623291015625
  0
VERTEX
  8
4
 10
72.81249237060547
 20
55.7935791015625
  0
VERTEX
  8
4
 10
72.81249237060547
 20
54.9498291015625
  0
VERTEX
  8
4
 10
72.34374237060547
 20
54.4810791015625
  0
VERTEX
  8
4
 10
71.78124237060547
 20
54.4810791015625
  0
VERTEX
  8
4
 10
71.31249237060547
 20
54.9498291015625
  0
VERTEX
  8
4
 10
71.31249237060547
 20
57.0123291015625
  0
VERTEX
  8
4
 10
71.78124237060547
 20
57.4810791015625
  0
VERTEX
  8
4
 10
72.34374237060547
 20
57.4810791015625
  0
VERTEX
  8
4
 10
72.81249237060547
 20
57.0123291015625
  0
SEQEND
  8
4
  0
ENDBLK
  8
4
  0
BLOCK
  8
4
  2
COMP37
 70
    64
 10
0.0
 20
0.0
  0
POLYLINE
  8
4
  6
CONTINUOUS
 66
     1
 70
     0
 40
0.0
 41
0.0
  0
VERTEX
  8
4
 10
80.28124237060547
 20
56.9185791015625
  0
VERTEX
  8
4
 10
80.28124237060547
 20
55.0435791015625
 42
0.9230769230769231
  0
VERTEX
  8
4
 10
81.49999237060547
 20
55.0435791015625
  0
VERTEX
  8
4
 10
81.49999237060547
 20
56.9185791015625
 42
0.9230769230769231
  0
VERTEX
  8
4
 10
80.28124237060547
 20
56.9185791015625
  0
SEQEND
  8
4
  0
POLYLINE
  8
4
  6
CONTINUOUS
 66
     1
 70
     0
 40
0.0
 41
0.0
  0
VERTEX
  8
4
 10
82.81249237060547
 20
54.5748291015625
  0
VERTEX
  8
4
 10
82.81249237060547
 20
54.8560791015625
  0
VERTEX
  8
4
 10
83.14061737060547
 20
54.8560791015625
  0
VERTEX
  8
4
 10
83.14061737060547
 20
54.5748291015625
  0
VERTEX
  8
4
 10
82.81249237060547
 20
54.5748291015625
  0
SEQEND
  8
4
  0
POLYLINE
  8
4
  6
CONTINUOUS
 66
     1
 70
     0
 40
0.0
 41
0.0
  0
VERTEX
  8
4
 10
85.34374237060547
 20
57.4810791015625
  0
VERTEX
  8
4
 10
85.71874237060547
 20
57.1060791015625
  0
VERTEX
  8
4
 10
85.71874237060547
 20
56.3560791015625
  0
VERTEX
  8
4
 10
85.34374237060547
 20
56.0748291015625
  0
VERTEX
  8
4
 10
84.78124237060547
 20
56.0748291015625
  0
VERTEX
  8
4
 10
84.40624237060547
 20
56.3560791015625
  0
VERTEX
  8
4
 10
84.40624237060547
 20
57.1060791015625
  0
VERTEX
  8
4
 10
84.78124237060547
 20
57.4810791015625
  0
VERTEX
  8
4
 10
85.34374237060547
 20
57.4810791015625
  0
SEQEND
  8
4
  0
POLYLINE
  8
4
  6
CONTINUOUS
 66
     1
 70
     0
 40
0.0
 41
0.0
  0
VERTEX
  8
4
 10
84.78124237060547
 20
56.0748291015625
  0
VERTEX
  8
4
 10
84.31249237060547
 20
55.6998291015625
  0
VERTEX
  8
4
 10
84.31249237060547
 20
54.9498291015625
  0
VERTEX
  8
4
 10
84.78124237060547
 20
54.4810791015625
  0
VERTEX
  8
4
 10
85.34374237060547
 20
54.4810791015625
  0
VERTEX
  8
4
 10
85.81249237060547
 20
54.9498291015625
  0
VERTEX
  8
4
 10
85.81249237060547
 20
55.6998291015625
  0
VERTEX
  8
4
 10
85.34374237060547
 20
56.0748291015625
  0
SEQEND
  8
4
  0
ENDBLK
  8
4
  0
BLOCK
  8
4
  2
COMP38
 70
    64
 10
0.0
 20
0.0
  0
POLYLINE
  8
4
  6
CONTINUOUS
 66
     1
 70
     0
 40
0.0
 41
0.0
  0
VERTEX
  8
4
 10
93.93749237060547
 20
54.4810791015625
  0
VERTEX
  8
4
 10
93.93749237060547
 20
57.4810791015625
  0
VERTEX
  8
4
 10
93.42186737060547
 20
56.5904541015625
  0
SEQEND
  8
4
  0
POLYLINE
  8
4
  6
CONTINUOUS
 66
     1
 70
     0
 40
0.0
 41
0.0
  0
VERTEX
  8
4
 10
95.81249237060547
 20
54.5748291015625
  0
VERTEX
  8
4
 10
95.81249237060547
 20
54.8560791015625
  0
VERTEX
  8
4
 10
96.14061737060547
 20
54.8560791015625
  0
VERTEX
  8
4
 10
96.14061737060547
 20
54.5748291015625
  0
VERTEX
  8
4
 10
95.81249237060547
 20
54.5748291015625
  0
SEQEND
  8
4
  0
POLYLINE
  8
4
  6
CONTINUOUS
 66
     1
 70
     0
 40
0.0
 41
0.0
  0
VERTEX
  8
4
 10
97.40624237060547
 20
56.9185791015625
  0
VERTEX
  8
4
 10
97.40624237060547
 20
55.0435791015625
 42
0.9230769230769231
  0
VERTEX
  8
4
 10
98.62499237060547
 20
55.0435791015625
  0
VERTEX
  8
4
 10
98.62499237060547
 20
56.9185791015625
 42
0.9230769230769231
  0
VERTEX
  8
4
 10
97.40624237060547
 20
56.9185791015625
  0
SEQEND
  8
4
  0
ENDBLK
  8
4
  0
BLOCK
  8
4
  2
COMP39
 70
    64
 10
0.0
 20
0.0
  0
POLYLINE
  8
4
  6
CONTINUOUS
 66
     1
 70
     0
 40
0.0
 41
0.0
  0
VERTEX
  8
4
 10
106.9374923706055
 20
54.4810791015625
  0
VERTEX
  8
4
 10
106.9374923706055
 20
57.4810791015625
  0
VERTEX
  8
4
 10
106.4218673706055
 20
56.5904541015625
  0
SEQEND
  8
4
  0
POLYLINE
  8
4
  6
CONTINUOUS
 66
     1
 70
     0
 40
0.0
 41
0.0
  0
VERTEX
  8
4
 10
108.8124923706055
 20
54.5748291015625
  0
VERTEX
  8
4
 10
108.8124923706055
 20
54.8560791015625
  0
VERTEX
  8
4
 10
109.1406173706055
 20
54.8560791015625
  0
VERTEX
  8
4
 10
109.1406173706055
 20
54.5748291015625
  0
VERTEX
  8
4
 10
108.8124923706055
 20
54.5748291015625
  0
SEQEND
  8
4
  0
POLYLINE
  8
4
  6
CONTINUOUS
 66
     1
 70
     0
 40
0.0
 41
0.0
  0
VERTEX
  8
4
 10
110.3124923706055
 20
56.9185791015625
  0
VERTEX
  8
4
 10
110.7812423706055
 20
57.4810791015625
  0
VERTEX
  8
4
 10
111.3437423706055
 20
57.4810791015625
  0
VERTEX
  8
4
 10
111.8124923706055
 20
56.9185791015625
  0
VERTEX
  8
4
 10
111.8124923706055
 20
56.1685791015625
  0
VERTEX
  8
4
 10
110.3124923706055
 20
54.8560791015625
  0
VERTEX
  8
4
 10
110.3124923706055
 20
54.4810791015625
  0
VERTEX
  8
4
 10
111.8124923706055
 20
54.4810791015625
  0
SEQEND
  8
4
  0
ENDBLK
  8
4
  0
BLOCK
  8
4
  2
COMP40
 70
    64
 10
0.0
 20
0.0
  0
POLYLINE
  8
4
  6
CONTINUOUS
 66
     1
 70
     0
 40
0.0
 41
0.0
  0
VERTEX
  8
4
 10
119.9374923706055
 20
54.4810791015625
  0
VERTEX
  8
4
 10
119.9374923706055
 20
57.4810791015625
  0
VERTEX
  8
4
 10
119.4218673706055
 20
56.5904541015625
  0
SEQEND
  8
4
  0
POLYLINE
  8
4
  6
CONTINUOUS
 66
     1
 70
     0
 40
0.0
 41
0.0
  0
VERTEX
  8
4
 10
121.8124923706055
 20
54.5748291015625
  0
VERTEX
  8
4
 10
121.8124923706055
 20
54.8560791015625
  0
VERTEX
  8
4
 10
122.1406173706055
 20
54.8560791015625
  0
VERTEX
  8
4
 10
122.1406173706055
 20
54.5748291015625
  0
VERTEX
  8
4
 10
121.8124923706055
 20
54.5748291015625
  0
SEQEND
  8
4
  0
POLYLINE
  8
4
  6
CONTINUOUS
 66
     1
 70
     0
 40
0.0
 41
0.0
  0
VERTEX
  8
4
 10
124.0624923706055
 20
57.4810791015625
  0
VERTEX
  8
4
 10
123.3124923706055
 20
55.4185791015625
  0
VERTEX
  8
4
 10
124.8124923706055
 20
55.4185791015625
  0
SEQEND
  8
4
  0
POLYLINE
  8
4
  6
CONTINUOUS
 66
     1
 70
     0
 40
0.0
 41
0.0
  0
VERTEX
  8
4
 10
124.3437423706055
 20
54.4810791015625
  0
VERTEX
  8
4
 10
124.3437423706055
 20
56.4498291015625
  0
SEQEND
  8
4
  0
ENDBLK
  8
4
  0
BLOCK
  8
4
  2
COMP41
 70
    64
 10
0.0
 20
0.0
  0
POLYLINE
  8
4
  6
CONTINUOUS
 66
     1
 70
     0
 40
0.0
 41
0.0
  0
VERTEX
  8
4
 10
132.9375
 20
54.4810791015625
  0
VERTEX
  8
4
 10
132.9375
 20
57.4810791015625
  0
VERTEX
  8
4
 10
132.421875
 20
56.5904541015625
  0
SEQEND
  8
4
  0
POLYLINE
  8
4
  6
CONTINUOUS
 66
     1
 70
     0
 40
0.0
 41
0.0
  0
VERTEX
  8
4
 10
134.8125
 20
54.5748291015625
  0
VERTEX
  8
4
 10
134.8125
 20
54.8560791015625
  0
VERTEX
  8
4
 10
135.140625
 20
54.8560791015625
  0
VERTEX
  8
4
 10
135.140625
 20
54.5748291015625
  0
VERTEX
  8
4
 10
134.8125
 20
54.5748291015625
  0
SEQEND
  8
4
  0
POLYLINE
  8
4
  6
CONTINUOUS
 66
     1
 70
     0
 40
0.0
 41
0.0
  0
VERTEX
  8
4
 10
136.3125
 20
55.7935791015625
  0
VERTEX
  8
4
 10
136.78125
 20
56.2623291015625
  0
VERTEX
  8
4
 10
137.34375
 20
56.2623291015625
  0
VERTEX
  8
4
 10
137.8125
 20
55.7935791015625
  0
VERTEX
  8
4
 10
137.8125
 20
54.9498291015625
  0
VERTEX
  8
4
 10
137.34375
 20
54.4810791015625
  0
VERTEX
  8
4
 10
136.78125
 20
54.4810791015625
  0
VERTEX
  8
4
 10
136.3125
 20
54.9498291015625
  0
VERTEX
  8
4
 10
136.3125
 20
57.0123291015625
  0
VERTEX
  8
4
 10
136.78125
 20
57.4810791015625
  0
VERTEX
  8
4
 10
137.34375
 20
57.4810791015625
  0
VERTEX
  8
4
 10
137.8125
 20
57.0123291015625
  0
SEQEND
  8
4
  0
ENDBLK
  8
4
  0
BLOCK
  8
4
  2
COMP42
 70
    64
 10
0.0
 20
0.0
  0
POLYLINE
  8
4
  6
CONTINUOUS
 66
     1
 70
     0
 40
0.0
 41
0.0
  0
VERTEX
  8
4
 10
145.9375
 20
54.4810791015625
  0
VERTEX
  8
4
 10
145.9375
 20
57.4810791015625
  0
VERTEX
  8
4
 10
145.421875
 20
56.5904541015625
  0
SEQEND
  8
4
  0
POLYLINE
  8
4
  6
CONTINUOUS
 66
     1
 70
     0
 40
0.0
 41
0.0
  0
VERTEX
  8
4
 10
147.8125
 20
54.5748291015625
  0
VERTEX
  8
4
 10
147.8125
 20
54.8560791015625
  0
VERTEX
  8
4
 10
148.140625
 20
54.8560791015625
  0
VERTEX
  8
4
 10
148.140625
 20
54.5748291015625
  0
VERTEX
  8
4
 10
147.8125
 20
54.5748291015625
  0
SEQEND
  8
4
  0
POLYLINE
  8
4
  6
CONTINUOUS
 66
     1
 70
     0
 40
0.0
 41
0.0
  0
VERTEX
  8
4
 10
150.34375
 20
57.4810791015625
  0
VERTEX
  8
4
 10
150.71875
 20
57.1060791015625
  0
VERTEX
  8
4
 10
150.71875
 20
56.3560791015625
  0
VERTEX
  8
4
 10
150.34375
 20
56.0748291015625
  0
VERTEX
  8
4
 10
149.78125
 20
56.0748291015625
  0
VERTEX
  8
4
 10
149.40625
 20
56.3560791015625
  0
VERTEX
  8
4
 10
149.40625
 20
57.1060791015625
  0
VERTEX
  8
4
 10
149.78125
 20
57.4810791015625
  0
VERTEX
  8
4
 10
150.34375
 20
57.4810791015625
  0
SEQEND
  8
4
  0
POLYLINE
  8
4
  6
CONTINUOUS
 66
     1
 70
     0
 40
0.0
 41
0.0
  0
VERTEX
  8
4
 10
149.78125
 20
56.0748291015625
  0
VERTEX
  8
4
 10
149.3125
 20
55.6998291015625
  0
VERTEX
  8
4
 10
149.3125
 20
54.9498291015625
  0
VERTEX
  8
4
 10
149.78125
 20
54.4810791015625
  0
VERTEX
  8
4
 10
150.34375
 20
54.4810791015625
  0
VERTEX
  8
4
 10
150.8125
 20
54.9498291015625
  0
VERTEX
  8
4
 10
150.8125
 20
55.6998291015625
  0
VERTEX
  8
4
 10
150.34375
 20
56.0748291015625
  0
SEQEND
  8
4
  0
ENDBLK
  8
4
  0
BLOCK
  8
4
  2
COMP43
 70
    64
 10
0.0
 20
0.0
  0
POLYLINE
  8
4
  6
CONTINUOUS
 66
     1
 70
     0
 40
0.0
 41
0.0
  0
VERTEX
  8
4
 10
158.1875
 20
56.9185791015625
  0
VERTEX
  8
4
 10
158.65625
 20
57.4810791015625
  0
VERTEX
  8
4
 10
159.21875
 20
57.4810791015625
  0
VERTEX
  8
4
 10
159.6875
 20
56.9185791015625
  0
VERTEX
  8
4
 10
159.6875
 20
56.1685791015625
  0
VERTEX
  8
4
 10
158.1875
 20
54.8560791015625
  0
VERTEX
  8
4
 10
158.1875
 20
54.4810791015625
  0
VERTEX
  8
4
 10
159.6875
 20
54.4810791015625
  0
SEQEND
  8
4
  0
POLYLINE
  8
4
  6
CONTINUOUS
 66
     1
 70
     0
 40
0.0
 41
0.0
  0
VERTEX
  8
4
 10
160.8125
 20
54.5748291015625
  0
VERTEX
  8
4
 10
160.8125
 20
54.8560791015625
  0
VERTEX
  8
4
 10
161.140625
 20
54.8560791015625
  0
VERTEX
  8
4
 10
161.140625
 20
54.5748291015625
  0
VERTEX
  8
4
 10
160.8125
 20
54.5748291015625
  0
SEQEND
  8
4
  0
POLYLINE
  8
4
  6
CONTINUOUS
 66
     1
 70
     0
 40
0.0
 41
0.0
  0
VERTEX
  8
4
 10
162.40625
 20
56.9185791015625
  0
VERTEX
  8
4
 10
162.40625
 20
55.0435791015625
 42
0.9230769230769231
  0
VERTEX
  8
4
 10
163.625
 20
55.0435791015625
  0
VERTEX
  8
4
 10
163.625
 20
56.9185791015625
 42
0.9230769230769231
  0
VERTEX
  8
4
 10
162.40625
 20
56.9185791015625
  0
SEQEND
  8
4
  0
ENDBLK
  8
4
  0
BLOCK
  8
4
  2
COMP44
 70
    64
 10
0.0
 20
0.0
  0
POLYLINE
  8
4
  6
CONTINUOUS
 66
     1
 70
     0
 40
0.0
 41
0.0
  0
VERTEX
  8
4
 10
159.59375
 20
50.18733215332031
  0
VERTEX
  8
4
 10
158.375
 20
50.18733215332031
  0
VERTEX
  8
4
 10
158.1875
 20
48.87483215332031
  0
VERTEX
  8
4
 10
158.65625
 20
49.06233215332031
  0
VERTEX
  8
4
 10
159.21875
 20
49.06233215332031
  0
VERTEX
  8
4
 10
159.6875
 20
48.68733215332031
  0
VERTEX
  8
4
 10
159.6875
 20
47.74983215332031
  0
VERTEX
  8
4
 10
159.21875
 20
47.28108215332031
  0
VERTEX
  8
4
 10
158.65625
 20
47.28108215332031
  0
VERTEX
  8
4
 10
158.1875
 20
47.74983215332031
  0
SEQEND
  8
4
  0
POLYLINE
  8
4
  6
CONTINUOUS
 66
     1
 70
     0
 40
0.0
 41
0.0
  0
VERTEX
  8
4
 10
160.8125
 20
47.37483215332031
  0
VERTEX
  8
4
 10
160.8125
 20
47.65608215332031
  0
VERTEX
  8
4
 10
161.140625
 20
47.65608215332031
  0
VERTEX
  8
4
 10
161.140625
 20
47.37483215332031
  0
VERTEX
  8
4
 10
160.8125
 20
47.37483215332031
  0
SEQEND
  8
4
  0
POLYLINE
  8
4
  6
CONTINUOUS
 66
     1
 70
     0
 40
0.0
 41
0.0
  0
VERTEX
  8
4
 10
162.40625
 20
49.71858215332031
  0
VERTEX
  8
4
 10
162.40625
 20
47.84358215332031
 42
0.9230769230769231
  0
VERTEX
  8
4
 10
163.625
 20
47.84358215332031
  0
VERTEX
  8
4
 10
163.625
 20
49.71858215332031
 42
0.9230769230769231
  0
VERTEX
  8
4
 10
162.40625
 20
49.71858215332031
  0
SEQEND
  8
4
  0
ENDBLK
  8
4
  0
BLOCK
  8
4
  2
COMP45
 70
    64
 10
0.0
 20
0.0
  0
POLYLINE
  8
4
  6
CONTINUOUS
 66
     1
 70
     0
 40
0.0
 41
0.0
  0
VERTEX
  8
4
 10
145.9375
 20
50.28108215332031
  0
VERTEX
  8
4
 10
145.1875
 20
48.21858215332031
  0
VERTEX
  8
4
 10
146.6875
 20
48.21858215332031
  0
SEQEND
  8
4
  0
POLYLINE
  8
4
  6
CONTINUOUS
 66
     1
 70
     0
 40
0.0
 41
0.0
  0
VERTEX
  8
4
 10
146.21875
 20
47.28108215332031
  0
VERTEX
  8
4
 10
146.21875
 20
49.24983215332031
  0
SEQEND
  8
4
  0
POLYLINE
  8
4
  6
CONTINUOUS
 66
     1
 70
     0
 40
0.0
 41
0.0
  0
VERTEX
  8
4
 10
147.8125
 20
47.37483215332031
  0
VERTEX
  8
4
 10
147.8125
 20
47.65608215332031
  0
VERTEX
  8
4
 10
148.140625
 20
47.65608215332031
  0
VERTEX
  8
4
 10
148.140625
 20
47.37483215332031
  0
VERTEX
  8
4
 10
147.8125
 20
47.37483215332031
  0
SEQEND
  8
4
  0
POLYLINE
  8
4
  6
CONTINUOUS
 66
     1
 70
     0
 40
0.0
 41
0.0
  0
VERTEX
  8
4
 10
150.71875
 20
50.18733215332031
  0
VERTEX
  8
4
 10
149.5
 20
50.18733215332031
  0
VERTEX
  8
4
 10
149.3125
 20
48.87483215332031
  0
VERTEX
  8
4
 10
149.78125
 20
49.06233215332031
  0
VERTEX
  8
4
 10
150.34375
 20
49.06233215332031
  0
VERTEX
  8
4
 10
150.8125
 20
48.68733215332031
  0
VERTEX
  8
4
 10
150.8125
 20
47.74983215332031
  0
VERTEX
  8
4
 10
150.34375
 20
47.28108215332031
  0
VERTEX
  8
4
 10
149.78125
 20
47.28108215332031
  0
VERTEX
  8
4
 10
149.3125
 20
47.74983215332031
  0
SEQEND
  8
4
  0
ENDBLK
  8
4
  0
BLOCK
  8
4
  2
COMP46
 70
    64
 10
0.0
 20
0.0
  0
POLYLINE
  8
4
  6
CONTINUOUS
 66
     1
 70
     0
 40
0.0
 41
0.0
  0
VERTEX
  8
4
 10
132.9375
 20
50.28108215332031
  0
VERTEX
  8
4
 10
132.1875
 20
48.21858215332031
  0
VERTEX
  8
4
 10
133.6875
 20
48.21858215332031
  0
SEQEND
  8
4
  0
POLYLINE
  8
4
  6
CONTINUOUS
 66
     1
 70
     0
 40
0.0
 41
0.0
  0
VERTEX
  8
4
 10
133.21875
 20
47.28108215332031
  0
VERTEX
  8
4
 10
133.21875
 20
49.24983215332031
  0
SEQEND
  8
4
  0
POLYLINE
  8
4
  6
CONTINUOUS
 66
     1
 70
     0
 40
0.0
 41
0.0
  0
VERTEX
  8
4
 10
134.8125
 20
47.37483215332031
  0
VERTEX
  8
4
 10
134.8125
 20
47.65608215332031
  0
VERTEX
  8
4
 10
135.140625
 20
47.65608215332031
  0
VERTEX
  8
4
 10
135.140625
 20
47.37483215332031
  0
VERTEX
  8
4
 10
134.8125
 20
47.37483215332031
  0
SEQEND
  8
4
  0
POLYLINE
  8
4
  6
CONTINUOUS
 66
     1
 70
     0
 40
0.0
 41
0.0
  0
VERTEX
  8
4
 10
136.40625
 20
49.71858215332031
  0
VERTEX
  8
4
 10
136.40625
 20
47.84358215332031
 42
0.9230769230769231
  0
VERTEX
  8
4
 10
137.625
 20
47.84358215332031
  0
VERTEX
  8
4
 10
137.625
 20
49.71858215332031
 42
0.9230769230769231
  0
VERTEX
  8
4
 10
136.40625
 20
49.71858215332031
  0
SEQEND
  8
4
  0
ENDBLK
  8
4
  0
BLOCK
  8
4
  2
COMP47
 70
    64
 10
0.0
 20
0.0
  0
POLYLINE
  8
4
  6
CONTINUOUS
 66
     1
 70
     0
 40
0.0
 41
0.0
  0
VERTEX
  8
4
 10
119.1874923706055
 20
49.71858215332031
  0
VERTEX
  8
4
 10
119.6562423706055
 20
50.28108215332031
  0
VERTEX
  8
4
 10
120.2187423706055
 20
50.28108215332031
  0
VERTEX
  8
4
 10
120.6874923706055
 20
49.71858215332031
  0
VERTEX
  8
4
 10
120.6874923706055
 20
49.24983215332031
  0
VERTEX
  8
4
 10
120.1249923706055
 20
48.78108215332031
  0
VERTEX
  8
4
 10
119.5624923706055
 20
48.78108215332031
  0
SEQEND
  8
4
  0
POLYLINE
  8
4
  6
CONTINUOUS
 66
     1
 70
     0
 40
0.0
 41
0.0
  0
VERTEX
  8
4
 10
120.1249923706055
 20
48.78108215332031
  0
VERTEX
  8
4
 10
120.6874923706055
 20
48.21858215332031
  0
VERTEX
  8
4
 10
120.6874923706055
 20
47.74983215332031
  0
VERTEX
  8
4
 10
120.2187423706055
 20
47.28108215332031
  0
VERTEX
  8
4
 10
119.6562423706055
 20
47.28108215332031
  0
VERTEX
  8
4
 10
119.1874923706055
 20
47.74983215332031
  0
SEQEND
  8
4
  0
POLYLINE
  8
4
  6
CONTINUOUS
 66
     1
 70
     0
 40
0.0
 41
0.0
  0
VERTEX
  8
4
 10
121.8124923706055
 20
47.37483215332031
  0
VERTEX
  8
4
 10
121.8124923706055
 20
47.65608215332031
  0
VERTEX
  8
4
 10
122.1406173706055
 20
47.65608215332031
  0
VERTEX
  8
4
 10
122.1406173706055
 20
47.37483215332031
  0
VERTEX
  8
4
 10
121.8124923706055
 20
47.37483215332031
  0
SEQEND
  8
4
  0
POLYLINE
  8
4
  6
CONTINUOUS
 66
     1
 70
     0
 40
0.0
 41
0.0
  0
VERTEX
  8
4
 10
124.7187423706055
 20
50.18733215332031
  0
VERTEX
  8
4
 10
123.4999923706055
 20
50.18733215332031
  0
VERTEX
  8
4
 10
123.3124923706055
 20
48.87483215332031
  0
VERTEX
  8
4
 10
123.7812423706055
 20
49.06233215332031
  0
VERTEX
  8
4
 10
124.3437423706055
 20
49.06233215332031
  0
VERTEX
  8
4
 10
124.8124923706055
 20
48.68733215332031
  0
VERTEX
  8
4
 10
124.8124923706055
 20
47.74983215332031
  0
VERTEX
  8
4
 10
124.3437423706055
 20
47.28108215332031
  0
VERTEX
  8
4
 10
123.7812423706055
 20
47.28108215332031
  0
VERTEX
  8
4
 10
123.3124923706055
 20
47.74983215332031
  0
SEQEND
  8
4
  0
ENDBLK
  8
4
  0
BLOCK
  8
4
  2
COMP48
 70
    64
 10
0.0
 20
0.0
  0
POLYLINE
  8
4
  6
CONTINUOUS
 66
     1
 70
     0
 40
0.0
 41
0.0
  0
VERTEX
  8
4
 10
106.1874923706055
 20
49.71858215332031
  0
VERTEX
  8
4
 10
106.6562423706055
 20
50.28108215332031
  0
VERTEX
  8
4
 10
107.2187423706055
 20
50.28108215332031
  0
VERTEX
  8
4
 10
107.6874923706055
 20
49.71858215332031
  0
VERTEX
  8
4
 10
107.6874923706055
 20
49.24983215332031
  0
VERTEX
  8
4
 10
107.1249923706055
 20
48.78108215332031
  0
VERTEX
  8
4
 10
106.5624923706055
 20
48.78108215332031
  0
SEQEND
  8
4
  0
POLYLINE
  8
4
  6
CONTINUOUS
 66
     1
 70
     0
 40
0.0
 41
0.0
  0
VERTEX
  8
4
 10
107.1249923706055
 20
48.78108215332031
  0
VERTEX
  8
4
 10
107.6874923706055
 20
48.21858215332031
  0
VERTEX
  8
4
 10
107.6874923706055
 20
47.74983215332031
  0
VERTEX
  8
4
 10
107.2187423706055
 20
47.28108215332031
  0
VERTEX
  8
4
 10
106.6562423706055
 20
47.28108215332031
  0
VERTEX
  8
4
 10
106.1874923706055
 20
47.74983215332031
  0
SEQEND
  8
4
  0
POLYLINE
  8
4
  6
CONTINUOUS
 66
     1
 70
     0
 40
0.0
 41
0.0
  0
VERTEX
  8
4
 10
108.8124923706055
 20
47.37483215332031
  0
VERTEX
  8
4
 10
108.8124923706055
 20
47.65608215332031
  0
VERTEX
  8
4
 10
109.1406173706055
 20
47.65608215332031
  0
VERTEX
  8
4
 10
109.1406173706055
 20
47.37483215332031
  0
VERTEX
  8
4
 10
108.8124923706055
 20
47.37483215332031
  0
SEQEND
  8
4
  0
POLYLINE
  8
4
  6
CONTINUOUS
 66
     1
 70
     0
 40
0.0
 41
0.0
  0
VERTEX
  8
4
 10
110.4062423706055
 20
49.71858215332031
  0
VERTEX
  8
4
 10
110.4062423706055
 20
47.84358215332031
 42
0.9230769230769231
  0
VERTEX
  8
4
 10
111.6249923706055
 20
47.84358215332031
  0
VERTEX
  8
4
 10
111.6249923706055
 20
49.71858215332031
 42
0.9230769230769231
  0
VERTEX
  8
4
 10
110.4062423706055
 20
49.71858215332031
  0
SEQEND
  8
4
  0
ENDBLK
  8
4
  0
BLOCK
  8
4
  2
COMP49
 70
    64
 10
0.0
 20
0.0
  0
POLYLINE
  8
4
  6
CONTINUOUS
 66
     1
 70
     0
 40
0.0
 41
0.0
  0
VERTEX
  8
4
 10
93.18749237060547
 20
49.71858215332031
  0
VERTEX
  8
4
 10
93.65624237060547
 20
50.28108215332031
  0
VERTEX
  8
4
 10
94.21874237060547
 20
50.28108215332031
  0
VERTEX
  8
4
 10
94.68749237060547
 20
49.71858215332031
  0
VERTEX
  8
4
 10
94.68749237060547
 20
48.96858215332031
  0
VERTEX
  8
4
 10
93.18749237060547
 20
47.65608215332031
  0
VERTEX
  8
4
 10
93.18749237060547
 20
47.28108215332031
  0
VERTEX
  8
4
 10
94.68749237060547
 20
47.28108215332031
  0
SEQEND
  8
4
  0
POLYLINE
  8
4
  6
CONTINUOUS
 66
     1
 70
     0
 40
0.0
 41
0.0
  0
VERTEX
  8
4
 10
95.81249237060547
 20
47.37483215332031
  0
VERTEX
  8
4
 10
95.81249237060547
 20
47.65608215332031
  0
VERTEX
  8
4
 10
96.14061737060547
 20
47.65608215332031
  0
VERTEX
  8
4
 10
96.14061737060547
 20
47.37483215332031
  0
VERTEX
  8
4
 10
95.81249237060547
 20
47.37483215332031
  0
SEQEND
  8
4
  0
POLYLINE
  8
4
  6
CONTINUOUS
 66
     1
 70
     0
 40
0.0
 41
0.0
  0
VERTEX
  8
4
 10
98.71874237060547
 20
50.18733215332031
  0
VERTEX
  8
4
 10
97.49999237060547
 20
50.18733215332031
  0
VERTEX
  8
4
 10
97.31249237060547
 20
48.87483215332031
  0
VERTEX
  8
4
 10
97.78124237060547
 20
49.06233215332031
  0
VERTEX
  8
4
 10
98.34374237060547
 20
49.06233215332031
  0
VERTEX
  8
4
 10
98.81249237060547
 20
48.68733215332031
  0
VERTEX
  8
4
 10
98.81249237060547
 20
47.74983215332031
  0
VERTEX
  8
4
 10
98.34374237060547
 20
47.28108215332031
  0
VERTEX
  8
4
 10
97.78124237060547
 20
47.28108215332031
  0
VERTEX
  8
4
 10
97.31249237060547
 20
47.74983215332031
  0
SEQEND
  8
4
  0
ENDBLK
  8
4
  0
BLOCK
  8
4
  2
COMP50
 70
    64
 10
0.0
 20
0.0
  0
POLYLINE
  8
4
  6
CONTINUOUS
 66
     1
 70
     0
 40
0.0
 41
0.0
  0
VERTEX
  8
4
 10
80.18749237060547
 20
49.71858215332031
  0
VERTEX
  8
4
 10
80.65624237060547
 20
50.28108215332031
  0
VERTEX
  8
4
 10
81.21874237060547
 20
50.28108215332031
  0
VERTEX
  8
4
 10
81.68749237060547
 20
49.71858215332031
  0
VERTEX
  8
4
 10
81.68749237060547
 20
48.96858215332031
  0
VERTEX
  8
4
 10
80.18749237060547
 20
47.65608215332031
  0
VERTEX
  8
4
 10
80.18749237060547
 20
47.28108215332031
  0
VERTEX
  8
4
 10
81.68749237060547
 20
47.28108215332031
  0
SEQEND
  8
4
  0
POLYLINE
  8
4
  6
CONTINUOUS
 66
     1
 70
     0
 40
0.0
 41
0.0
  0
VERTEX
  8
4
 10
82.81249237060547
 20
47.37483215332031
  0
VERTEX
  8
4
 10
82.81249237060547
 20
47.65608215332031
  0
VERTEX
  8
4
 10
83.14061737060547
 20
47.65608215332031
  0
VERTEX
  8
4
 10
83.14061737060547
 20
47.37483215332031
  0
VERTEX
  8
4
 10
82.81249237060547
 20
47.37483215332031
  0
SEQEND
  8
4
  0
POLYLINE
  8
4
  6
CONTINUOUS
 66
     1
 70
     0
 40
0.0
 41
0.0
  0
VERTEX
  8
4
 10
84.40624237060547
 20
49.71858215332031
  0
VERTEX
  8
4
 10
84.40624237060547
 20
47.84358215332031
 42
0.9230769230769231
  0
VERTEX
  8
4
 10
85.62499237060547
 20
47.84358215332031
  0
VERTEX
  8
4
 10
85.62499237060547
 20
49.71858215332031
 42
0.9230769230769231
  0
VERTEX
  8
4
 10
84.40624237060547
 20
49.71858215332031
  0
SEQEND
  8
4
  0
ENDBLK
  8
4
  0
BLOCK
  8
4
  2
COMP51
 70
    64
 10
0.0
 20
0.0
  0
POLYLINE
  8
4
  6
CONTINUOUS
 66
     1
 70
     0
 40
0.0
 41
0.0
  0
VERTEX
  8
4
 10
67.93749237060547
 20
47.28108215332031
  0
VERTEX
  8
4
 10
67.93749237060547
 20
50.28108215332031
  0
VERTEX
  8
4
 10
67.42186737060547
 20
49.39045715332031
  0
SEQEND
  8
4
  0
POLYLINE
  8
4
  6
CONTINUOUS
 66
     1
 70
     0
 40
0.0
 41
0.0
  0
VERTEX
  8
4
 10
69.81249237060547
 20
47.37483215332031
  0
VERTEX
  8
4
 10
69.81249237060547
 20
47.65608215332031
  0
VERTEX
  8
4
 10
70.14061737060547
 20
47.65608215332031
  0
VERTEX
  8
4
 10
70.14061737060547
 20
47.37483215332031
  0
VERTEX
  8
4
 10
69.81249237060547
 20
47.37483215332031
  0
SEQEND
  8
4
  0
POLYLINE
  8
4
  6
CONTINUOUS
 66
     1
 70
     0
 40
0.0
 41
0.0
  0
VERTEX
  8
4
 10
72.71874237060547
 20
50.18733215332031
  0
VERTEX
  8
4
 10
71.49999237060547
 20
50.18733215332031
  0
VERTEX
  8
4
 10
71.31249237060547
 20
48.87483215332031
  0
VERTEX
  8
4
 10
71.78124237060547
 20
49.06233215332031
  0
VERTEX
  8
4
 10
72.34374237060547
 20
49.06233215332031
  0
VERTEX
  8
4
 10
72.81249237060547
 20
48.68733215332031
  0
VERTEX
  8
4
 10
72.81249237060547
 20
47.74983215332031
  0
VERTEX
  8
4
 10
72.34374237060547
 20
47.28108215332031
  0
VERTEX
  8
4
 10
71.78124237060547
 20
47.28108215332031
  0
VERTEX
  8
4
 10
71.31249237060547
 20
47.74983215332031
  0
SEQEND
  8
4
  0
ENDBLK
  8
4
  0
BLOCK
  8
4
  2
COMP52
 70
    64
 10
0.0
 20
0.0
  0
POLYLINE
  8
4
  6
CONTINUOUS
 66
     1
 70
     0
 40
0.0
 41
0.0
  0
VERTEX
  8
4
 10
54.93749618530273
 20
47.28108215332031
  0
VERTEX
  8
4
 10
54.93749618530273
 20
50.28108215332031
  0
VERTEX
  8
4
 10
54.42187118530273
 20
49.39045715332031
  0
SEQEND
  8
4
  0
POLYLINE
  8
4
  6
CONTINUOUS
 66
     1
 70
     0
 40
0.0
 41
0.0
  0
VERTEX
  8
4
 10
56.81249618530273
 20
47.37483215332031
  0
VERTEX
  8
4
 10
56.81249618530273
 20
47.65608215332031
  0
VERTEX
  8
4
 10
57.14062118530273
 20
47.65608215332031
  0
VERTEX
  8
4
 10
57.14062118530273
 20
47.37483215332031
  0
VERTEX
  8
4
 10
56.81249618530273
 20
47.37483215332031
  0
SEQEND
  8
4
  0
POLYLINE
  8
4
  6
CONTINUOUS
 66
     1
 70
     0
 40
0.0
 41
0.0
  0
VERTEX
  8
4
 10
58.40624618530273
 20
49.71858215332031
  0
VERTEX
  8
4
 10
58.40624618530273
 20
47.84358215332031
 42
0.9230769230769231
  0
VERTEX
  8
4
 10
59.62499618530273
 20
47.84358215332031
  0
VERTEX
  8
4
 10
59.62499618530273
 20
49.71858215332031
 42
0.9230769230769231
  0
VERTEX
  8
4
 10
58.40624618530273
 20
49.71858215332031
  0
SEQEND
  8
4
  0
ENDBLK
  8
4
  0
BLOCK
  8
4
  2
COMP53
 70
    64
 10
0.0
 20
0.0
  0
POLYLINE
  8
4
  6
CONTINUOUS
 66
     1
 70
     0
 40
0.0
 41
0.0
  0
VERTEX
  8
4
 10
41.28124618530273
 20
49.71858215332031
  0
VERTEX
  8
4
 10
41.28124618530273
 20
47.84358215332031
 42
0.9230769230769231
  0
VERTEX
  8
4
 10
42.49999618530273
 20
47.84358215332031
  0
VERTEX
  8
4
 10
42.49999618530273
 20
49.71858215332031
 42
0.9230769230769231
  0
VERTEX
  8
4
 10
41.28124618530273
 20
49.71858215332031
  0
SEQEND
  8
4
  0
POLYLINE
  8
4
  6
CONTINUOUS
 66
     1
 70
     0
 40
0.0
 41
0.0
  0
VERTEX
  8
4
 10
43.81249618530273
 20
47.37483215332031
  0
VERTEX
  8
4
 10
43.81249618530273
 20
47.65608215332031
  0
VERTEX
  8
4
 10
44.14062118530273
 20
47.65608215332031
  0
VERTEX
  8
4
 10
44.14062118530273
 20
47.37483215332031
  0
VERTEX
  8
4
 10
43.81249618530273
 20
47.37483215332031
  0
SEQEND
  8
4
  0
POLYLINE
  8
4
  6
CONTINUOUS
 66
     1
 70
     0
 40
0.0
 41
0.0
  0
VERTEX
  8
4
 10
46.71874618530273
 20
50.18733215332031
  0
VERTEX
  8
4
 10
45.49999618530273
 20
50.18733215332031
  0
VERTEX
  8
4
 10
45.31249618530273
 20
48.87483215332031
  0
VERTEX
  8
4
 10
45.78124618530273
 20
49.06233215332031
  0
VERTEX
  8
4
 10
46.34374618530273
 20
49.06233215332031
  0
VERTEX
  8
4
 10
46.81249618530273
 20
48.68733215332031
  0
VERTEX
  8
4
 10
46.81249618530273
 20
47.74983215332031
  0
VERTEX
  8
4
 10
46.34374618530273
 20
47.28108215332031
  0
VERTEX
  8
4
 10
45.78124618530273
 20
47.28108215332031
  0
VERTEX
  8
4
 10
45.31249618530273
 20
47.74983215332031
  0
SEQEND
  8
4
  0
ENDBLK
  8
4
  0
BLOCK
  8
4
  2
COMP54
 70
    64
 10
0.0
 20
0.0
  0
POLYLINE
  8
4
  6
CONTINUOUS
 66
     1
 70
     0
 40
0.0
 41
0.0
  0
VERTEX
  8
4
 10
22.99999618530273
 20
50.18733215332031
  0
VERTEX
  8
4
 10
21.78124618530273
 20
50.18733215332031
  0
VERTEX
  8
4
 10
21.59374618530273
 20
48.87483215332031
  0
VERTEX
  8
4
 10
22.06249618530273
 20
49.06233215332031
  0
VERTEX
  8
4
 10
22.62499618530273
 20
49.06233215332031
  0
VERTEX
  8
4
 10
23.09374618530273
 20
48.68733215332031
  0
VERTEX
  8
4
 10
23.09374618530273
 20
47.74983215332031
  0
VERTEX
  8
4
 10
22.62499618530273
 20
47.28108215332031
  0
VERTEX
  8
4
 10
22.06249618530273
 20
47.28108215332031
  0
VERTEX
  8
4
 10
21.59374618530273
 20
47.74983215332031
  0
SEQEND
  8
4
  0
POLYLINE
  8
4
  6
CONTINUOUS
 66
     1
 70
     0
 40
0.0
 41
0.0
  0
VERTEX
  8
4
 10
25.71874618530273
 20
49.24983215332031
  0
VERTEX
  8
4
 10
25.71874618530273
 20
47.28108215332031
  0
SEQEND
  8
4
  0
POLYLINE
  8
4
  6
CONTINUOUS
 66
     1
 70
     0
 40
0.0
 41
0.0
  0
VERTEX
  8
4
 10
27.21874618530273
 20
47.28108215332031
  0
VERTEX
  8
4
 10
27.21874618530273
 20
48.59358215332031
  0
VERTEX
  8
4
 10
26.84374618530273
 20
49.24983215332031
  0
VERTEX
  8
4
 10
26.46874618530273
 20
48.59358215332031
  0
VERTEX
  8
4
 10
26.09374618530273
 20
49.24983215332031
  0
VERTEX
  8
4
 10
25.71874618530273
 20
48.59358215332031
  0
SEQEND
  8
4
  0
POLYLINE
  8
4
  6
CONTINUOUS
 66
     1
 70
     0
 40
0.0
 41
0.0
  0
VERTEX
  8
4
 10
26.46874618530273
 20
48.59358215332031
  0
VERTEX
  8
4
 10
26.46874618530273
 20
47.28108215332031
  0
SEQEND
  8
4
  0
POLYLINE
  8
4
  6
CONTINUOUS
 66
     1
 70
     0
 40
0.0
 41
0.0
  0
VERTEX
  8
4
 10
29.28124618530273
 20
50.28108215332031
  0
VERTEX
  8
4
 10
28.53124618530273
 20
47.28108215332031
  0
VERTEX
  8
4
 10
27.78124618530273
 20
50.28108215332031
  0
SEQEND
  8
4
  0
POLYLINE
  8
4
  6
CONTINUOUS
 66
     1
 70
     0
 40
0.0
 41
0.0
  0
VERTEX
  8
4
 10
29.84374618530273
 20
47.28108215332031
  0
VERTEX
  8
4
 10
31.34374618530273
 20
50.28108215332031
  0
SEQEND
  8
4
  0
POLYLINE
  8
4
  6
CONTINUOUS
 66
     1
 70
     0
 40
0.0
 41
0.0
  0
VERTEX
  8
4
 10
33.40624618530273
 20
50.28108215332031
  0
VERTEX
  8
4
 10
32.65624618530273
 20
47.28108215332031
  0
VERTEX
  8
4
 10
31.90624618530273
 20
50.28108215332031
  0
SEQEND
  8
4
  0
ENDBLK
  8
4
  0
BLOCK
  8
4
  2
COMP55
 70
    64
 10
0.0
 20
0.0
  0
POLYLINE
  8
4
  6
CONTINUOUS
 66
     1
 70
     0
 40
0.0
 41
0.0
  0
VERTEX
  8
4
 10
21.31249618530273
 20
40.08108520507813
  0
VERTEX
  8
4
 10
21.31249618530273
 20
43.08108520507813
  0
VERTEX
  8
4
 10
20.79687118530273
 20
42.19046020507813
  0
SEQEND
  8
4
  0
POLYLINE
  8
4
  6
CONTINUOUS
 66
     1
 70
     0
 40
0.0
 41
0.0
  0
VERTEX
  8
4
 10
22.71874618530273
 20
42.51858520507813
  0
VERTEX
  8
4
 10
22.71874618530273
 20
40.64358520507813
 42
0.9230769230769231
  0
VERTEX
  8
4
 10
23.93749618530273
 20
40.64358520507813
  0
VERTEX
  8
4
 10
23.93749618530273
 20
42.51858520507813
 42
0.9230769230769231
  0
VERTEX
  8
4
 10
22.71874618530273
 20
42.51858520507813
  0
SEQEND
  8
4
  0
POLYLINE
  8
4
  6
CONTINUOUS
 66
     1
 70
     0
 40
0.0
 41
0.0
  0
VERTEX
  8
4
 10
26.74999618530273
 20
42.04983520507813
  0
VERTEX
  8
4
 10
26.74999618530273
 20
40.08108520507813
  0
SEQEND
  8
4
  0
POLYLINE
  8
4
  6
CONTINUOUS
 66
     1
 70
     0
 40
0.0
 41
0.0
  0
VERTEX
  8
4
 10
28.24999618530273
 20
40.08108520507813
  0
VERTEX
  8
4
 10
28.24999618530273
 20
41.39358520507813
  0
VERTEX
  8
4
 10
27.87499618530273
 20
42.04983520507813
  0
VERTEX
  8
4
 10
27.49999618530273
 20
41.39358520507813
  0
VERTEX
  8
4
 10
27.12499618530273
 20
42.04983520507813
  0
VERTEX
  8
4
 10
26.74999618530273
 20
41.39358520507813
  0
SEQEND
  8
4
  0
POLYLINE
  8
4
  6
CONTINUOUS
 66
     1
 70
     0
 40
0.0
 41
0.0
  0
VERTEX
  8
4
 10
27.49999618530273
 20
41.39358520507813
  0
VERTEX
  8
4
 10
27.49999618530273
 20
40.08108520507813
  0
SEQEND
  8
4
  0
POLYLINE
  8
4
  6
CONTINUOUS
 66
     1
 70
     0
 40
0.0
 41
0.0
  0
VERTEX
  8
4
 10
30.31249618530273
 20
43.08108520507813
  0
VERTEX
  8
4
 10
29.56249618530273
 20
40.08108520507813
  0
VERTEX
  8
4
 10
28.81249618530273
 20
43.08108520507813
  0
SEQEND
  8
4
  0
POLYLINE
  8
4
  6
CONTINUOUS
 66
     1
 70
     0
 40
0.0
 41
0.0
  0
VERTEX
  8
4
 10
30.87499618530273
 20
40.08108520507813
  0
VERTEX
  8
4
 10
32.37499618530273
 20
43.08108520507813
  0
SEQEND
  8
4
  0
POLYLINE
  8
4
  6
CONTINUOUS
 66
     1
 70
     0
 40
0.0
 41
0.0
  0
VERTEX
  8
4
 10
34.43749618530273
 20
43.08108520507813
  0
VERTEX
  8
4
 10
33.68749618530273
 20
40.08108520507813
  0
VERTEX
  8
4
 10
32.93749618530273
 20
43.08108520507813
  0
SEQEND
  8
4
  0
ENDBLK
  8
4
  0
BLOCK
  8
4
  2
COMP56
 70
    64
 10
0.0
 20
0.0
  0
POLYLINE
  8
4
  6
CONTINUOUS
 66
     1
 70
     0
 40
0.0
 41
0.0
  0
VERTEX
  8
4
 10
41.93749618530273
 20
40.08108520507813
  0
VERTEX
  8
4
 10
41.93749618530273
 20
43.08108520507813
  0
VERTEX
  8
4
 10
41.42187118530273
 20
42.19046020507813
  0
SEQEND
  8
4
  0
POLYLINE
  8
4
  6
CONTINUOUS
 66
     1
 70
     0
 40
0.0
 41
0.0
  0
VERTEX
  8
4
 10
43.81249618530273
 20
40.17483520507813
  0
VERTEX
  8
4
 10
43.81249618530273
 20
40.45608520507813
  0
VERTEX
  8
4
 10
44.14062118530273
 20
40.45608520507813
  0
VERTEX
  8
4
 10
44.14062118530273
 20
40.17483520507813
  0
VERTEX
  8
4
 10
43.81249618530273
 20
40.17483520507813
  0
SEQEND
  8
4
  0
POLYLINE
  8
4
  6
CONTINUOUS
 66
     1
 70
     0
 40
0.0
 41
0.0
  0
VERTEX
  8
4
 10
45.40624618530273
 20
42.51858520507813
  0
VERTEX
  8
4
 10
45.40624618530273
 20
40.64358520507813
 42
0.9230769230769231
  0
VERTEX
  8
4
 10
46.62499618530273
 20
40.64358520507813
  0
VERTEX
  8
4
 10
46.62499618530273
 20
42.51858520507813
 42
0.9230769230769231
  0
VERTEX
  8
4
 10
45.40624618530273
 20
42.51858520507813
  0
SEQEND
  8
4
  0
ENDBLK
  8
4
  0
BLOCK
  8
4
  2
COMP57
 70
    64
 10
0.0
 20
0.0
  0
POLYLINE
  8
4
  6
CONTINUOUS
 66
     1
 70
     0
 40
0.0
 41
0.0
  0
VERTEX
  8
4
 10
54.18749618530273
 20
42.51858520507813
  0
VERTEX
  8
4
 10
54.65624618530273
 20
43.08108520507813
  0
VERTEX
  8
4
 10
55.21874618530273
 20
43.08108520507813
  0
VERTEX
  8
4
 10
55.68749618530273
 20
42.51858520507813
  0
VERTEX
  8
4
 10
55.68749618530273
 20
41.76858520507813
  0
VERTEX
  8
4
 10
54.18749618530273
 20
40.45608520507813
  0
VERTEX
  8
4
 10
54.18749618530273
 20
40.08108520507813
  0
VERTEX
  8
4
 10
55.68749618530273
 20
40.08108520507813
  0
SEQEND
  8
4
  0
POLYLINE
  8
4
  6
CONTINUOUS
 66
     1
 70
     0
 40
0.0
 41
0.0
  0
VERTEX
  8
4
 10
56.81249618530273
 20
40.17483520507813
  0
VERTEX
  8
4
 10
56.81249618530273
 20
40.45608520507813
  0
VERTEX
  8
4
 10
57.14062118530273
 20
40.45608520507813
  0
VERTEX
  8
4
 10
57.14062118530273
 20
40.17483520507813
  0
VERTEX
  8
4
 10
56.81249618530273
 20
40.17483520507813
  0
SEQEND
  8
4
  0
POLYLINE
  8
4
  6
CONTINUOUS
 66
     1
 70
     0
 40
0.0
 41
0.0
  0
VERTEX
  8
4
 10
58.40624618530273
 20
42.51858520507813
  0
VERTEX
  8
4
 10
58.40624618530273
 20
40.64358520507813
 42
0.9230769230769231
  0
VERTEX
  8
4
 10
59.62499618530273
 20
40.64358520507813
  0
VERTEX
  8
4
 10
59.62499618530273
 20
42.51858520507813
 42
0.9230769230769231
  0
VERTEX
  8
4
 10
58.40624618530273
 20
42.51858520507813
  0
SEQEND
  8
4
  0
ENDBLK
  8
4
  0
BLOCK
  8
4
  2
COMP58
 70
    64
 10
0.0
 20
0.0
  0
POLYLINE
  8
4
  6
CONTINUOUS
 66
     1
 70
     0
 40
0.0
 41
0.0
  0
VERTEX
  8
4
 10
67.18749237060547
 20
42.51858520507813
  0
VERTEX
  8
4
 10
67.65624237060547
 20
43.08108520507813
  0
VERTEX
  8
4
 10
68.21874237060547
 20
43.08108520507813
  0
VERTEX
  8
4
 10
68.68749237060547
 20
42.51858520507813
  0
VERTEX
  8
4
 10
68.68749237060547
 20
42.04983520507813
  0
VERTEX
  8
4
 10
68.12499237060547
 20
41.58108520507813
  0
VERTEX
  8
4
 10
67.56249237060547
 20
41.58108520507813
  0
SEQEND
  8
4
  0
POLYLINE
  8
4
  6
CONTINUOUS
 66
     1
 70
     0
 40
0.0
 41
0.0
  0
VERTEX
  8
4
 10
68.12499237060547
 20
41.58108520507813
  0
VERTEX
  8
4
 10
68.68749237060547
 20
41.01858520507813
  0
VERTEX
  8
4
 10
68.68749237060547
 20
40.54983520507813
  0
VERTEX
  8
4
 10
68.21874237060547
 20
40.08108520507813
  0
VERTEX
  8
4
 10
67.65624237060547
 20
40.08108520507813
  0
VERTEX
  8
4
 10
67.18749237060547
 20
40.54983520507813
  0
SEQEND
  8
4
  0
POLYLINE
  8
4
  6
CONTINUOUS
 66
     1
 70
     0
 40
0.0
 41
0.0
  0
VERTEX
  8
4
 10
69.81249237060547
 20
40.17483520507813
  0
VERTEX
  8
4
 10
69.81249237060547
 20
40.45608520507813
  0
VERTEX
  8
4
 10
70.14061737060547
 20
40.45608520507813
  0
VERTEX
  8
4
 10
70.14061737060547
 20
40.17483520507813
  0
VERTEX
  8
4
 10
69.81249237060547
 20
40.17483520507813
  0
SEQEND
  8
4
  0
POLYLINE
  8
4
  6
CONTINUOUS
 66
     1
 70
     0
 40
0.0
 41
0.0
  0
VERTEX
  8
4
 10
71.40624237060547
 20
42.51858520507813
  0
VERTEX
  8
4
 10
71.40624237060547
 20
40.64358520507813
 42
0.9230769230769231
  0
VERTEX
  8
4
 10
72.62499237060547
 20
40.64358520507813
  0
VERTEX
  8
4
 10
72.62499237060547
 20
42.51858520507813
 42
0.9230769230769231
  0
VERTEX
  8
4
 10
71.40624237060547
 20
42.51858520507813
  0
SEQEND
  8
4
  0
ENDBLK
  8
4
  0
BLOCK
  8
4
  2
COMP59
 70
    64
 10
0.0
 20
0.0
  0
POLYLINE
  8
4
  6
CONTINUOUS
 66
     1
 70
     0
 40
0.0
 41
0.0
  0
VERTEX
  8
4
 10
80.93749237060547
 20
43.08108520507813
  0
VERTEX
  8
4
 10
80.18749237060547
 20
41.01858520507813
  0
VERTEX
  8
4
 10
81.68749237060547
 20
41.01858520507813
  0
SEQEND
  8
4
  0
POLYLINE
  8
4
  6
CONTINUOUS
 66
     1
 70
     0
 40
0.0
 41
0.0
  0
VERTEX
  8
4
 10
81.21874237060547
 20
40.08108520507813
  0
VERTEX
  8
4
 10
81.21874237060547
 20
42.04983520507813
  0
SEQEND
  8
4
  0
POLYLINE
  8
4
  6
CONTINUOUS
 66
     1
 70
     0
 40
0.0
 41
0.0
  0
VERTEX
  8
4
 10
82.81249237060547
 20
40.17483520507813
  0
VERTEX
  8
4
 10
82.81249237060547
 20
40.45608520507813
  0
VERTEX
  8
4
 10
83.14061737060547
 20
40.45608520507813
  0
VERTEX
  8
4
 10
83.14061737060547
 20
40.17483520507813
  0
VERTEX
  8
4
 10
82.81249237060547
 20
40.17483520507813
  0
SEQEND
  8
4
  0
POLYLINE
  8
4
  6
CONTINUOUS
 66
     1
 70
     0
 40
0.0
 41
0.0
  0
VERTEX
  8
4
 10
84.40624237060547
 20
42.51858520507813
  0
VERTEX
  8
4
 10
84.40624237060547
 20
40.64358520507813
 42
0.9230769230769231
  0
VERTEX
  8
4
 10
85.62499237060547
 20
40.64358520507813
  0
VERTEX
  8
4
 10
85.62499237060547
 20
42.51858520507813
 42
0.9230769230769231
  0
VERTEX
  8
4
 10
84.40624237060547
 20
42.51858520507813
  0
SEQEND
  8
4
  0
ENDBLK
  8
4
  0
BLOCK
  8
4
  2
COMP60
 70
    64
 10
0.0
 20
0.0
  0
POLYLINE
  8
4
  6
CONTINUOUS
 66
     1
 70
     0
 40
0.0
 41
0.0
  0
VERTEX
  8
4
 10
94.59374237060547
 20
42.98733520507813
  0
VERTEX
  8
4
 10
93.37499237060547
 20
42.98733520507813
  0
VERTEX
  8
4
 10
93.18749237060547
 20
41.67483520507813
  0
VERTEX
  8
4
 10
93.65624237060547
 20
41.86233520507813
  0
VERTEX
  8
4
 10
94.21874237060547
 20
41.86233520507813
  0
VERTEX
  8
4
 10
94.68749237060547
 20
41.48733520507813
  0
VERTEX
  8
4
 10
94.68749237060547
 20
40.54983520507813
  0
VERTEX
  8
4
 10
94.21874237060547
 20
40.08108520507813
  0
VERTEX
  8
4
 10
93.65624237060547
 20
40.08108520507813
  0
VERTEX
  8
4
 10
93.18749237060547
 20
40.54983520507813
  0
SEQEND
  8
4
  0
POLYLINE
  8
4
  6
CONTINUOUS
 66
     1
 70
     0
 40
0.0
 41
0.0
  0
VERTEX
  8
4
 10
95.81249237060547
 20
40.17483520507813
  0
VERTEX
  8
4
 10
95.81249237060547
 20
40.45608520507813
  0
VERTEX
  8
4
 10
96.14061737060547
 20
40.45608520507813
  0
VERTEX
  8
4
 10
96.14061737060547
 20
40.17483520507813
  0
VERTEX
  8
4
 10
95.81249237060547
 20
40.17483520507813
  0
SEQEND
  8
4
  0
POLYLINE
  8
4
  6
CONTINUOUS
 66
     1
 70
     0
 40
0.0
 41
0.0
  0
VERTEX
  8
4
 10
97.40624237060547
 20
42.51858520507813
  0
VERTEX
  8
4
 10
97.40624237060547
 20
40.64358520507813
 42
0.9230769230769231
  0
VERTEX
  8
4
 10
98.62499237060547
 20
40.64358520507813
  0
VERTEX
  8
4
 10
98.62499237060547
 20
42.51858520507813
 42
0.9230769230769231
  0
VERTEX
  8
4
 10
97.40624237060547
 20
42.51858520507813
  0
SEQEND
  8
4
  0
ENDBLK
  8
4
  0
BLOCK
  8
4
  2
COMP61
 70
    64
 10
0.0
 20
0.0
  0
POLYLINE
  8
4
  6
CONTINUOUS
 66
     1
 70
     0
 40
0.0
 41
0.0
  0
VERTEX
  8
4
 10
106.1874923706055
 20
41.39358520507813
  0
VERTEX
  8
4
 10
106.6562423706055
 20
41.86233520507813
  0
VERTEX
  8
4
 10
107.2187423706055
 20
41.86233520507813
  0
VERTEX
  8
4
 10
107.6874923706055
 20
41.39358520507813
  0
VERTEX
  8
4
 10
107.6874923706055
 20
40.54983520507813
  0
VERTEX
  8
4
 10
107.2187423706055
 20
40.08108520507813
  0
VERTEX
  8
4
 10
106.6562423706055
 20
40.08108520507813
  0
VERTEX
  8
4
 10
106.1874923706055
 20
40.54983520507813
  0
VERTEX
  8
4
 10
106.1874923706055
 20
42.61233520507813
  0
VERTEX
  8
4
 10
106.6562423706055
 20
43.08108520507813
  0
VERTEX
  8
4
 10
107.2187423706055
 20
43.08108520507813
  0
VERTEX
  8
4
 10
107.6874923706055
 20
42.61233520507813
  0
SEQEND
  8
4
  0
POLYLINE
  8
4
  6
CONTINUOUS
 66
     1
 70
     0
 40
0.0
 41
0.0
  0
VERTEX
  8
4
 10
108.8124923706055
 20
40.17483520507813
  0
VERTEX
  8
4
 10
108.8124923706055
 20
40.45608520507813
  0
VERTEX
  8
4
 10
109.1406173706055
 20
40.45608520507813
  0
VERTEX
  8
4
 10
109.1406173706055
 20
40.17483520507813
  0
VERTEX
  8
4
 10
108.8124923706055
 20
40.17483520507813
  0
SEQEND
  8
4
  0
POLYLINE
  8
4
  6
CONTINUOUS
 66
     1
 70
     0
 40
0.0
 41
0.0
  0
VERTEX
  8
4
 10
110.4062423706055
 20
42.51858520507813
  0
VERTEX
  8
4
 10
110.4062423706055
 20
40.64358520507813
 42
0.9230769230769231
  0
VERTEX
  8
4
 10
111.6249923706055
 20
40.64358520507813
  0
VERTEX
  8
4
 10
111.6249923706055
 20
42.51858520507813
 42
0.9230769230769231
  0
VERTEX
  8
4
 10
110.4062423706055
 20
42.51858520507813
  0
SEQEND
  8
4
  0
ENDBLK
  8
4
  0
BLOCK
  8
4
  2
COMP62
 70
    64
 10
0.0
 20
0.0
  0
POLYLINE
  8
4
  6
CONTINUOUS
 66
     1
 70
     0
 40
0.0
 41
0.0
  0
VERTEX
  8
4
 10
119.1874923706055
 20
42.23733520507813
  0
VERTEX
  8
4
 10
119.1874923706055
 20
42.98733520507813
  0
VERTEX
  8
4
 10
120.6874923706055
 20
42.98733520507813
  0
VERTEX
  8
4
 10
119.7499923706055
 20
40.08108520507813
  0
SEQEND
  8
4
  0
POLYLINE
  8
4
  6
CONTINUOUS
 66
     1
 70
     0
 40
0.0
 41
0.0
  0
VERTEX
  8
4
 10
121.8124923706055
 20
40.17483520507813
  0
VERTEX
  8
4
 10
121.8124923706055
 20
40.45608520507813
  0
VERTEX
  8
4
 10
122.1406173706055
 20
40.45608520507813
  0
VERTEX
  8
4
 10
122.1406173706055
 20
40.17483520507813
  0
VERTEX
  8
4
 10
121.8124923706055
 20
40.17483520507813
  0
SEQEND
  8
4
  0
POLYLINE
  8
4
  6
CONTINUOUS
 66
     1
 70
     0
 40
0.0
 41
0.0
  0
VERTEX
  8
4
 10
123.4062423706055
 20
42.51858520507813
  0
VERTEX
  8
4
 10
123.4062423706055
 20
40.64358520507813
 42
0.9230769230769231
  0
VERTEX
  8
4
 10
124.6249923706055
 20
40.64358520507813
  0
VERTEX
  8
4
 10
124.6249923706055
 20
42.51858520507813
 42
0.9230769230769231
  0
VERTEX
  8
4
 10
123.4062423706055
 20
42.51858520507813
  0
SEQEND
  8
4
  0
ENDBLK
  8
4
  0
BLOCK
  8
4
  2
COMP63
 70
    64
 10
0.0
 20
0.0
  0
POLYLINE
  8
4
  6
CONTINUOUS
 66
     1
 70
     0
 40
0.0
 41
0.0
  0
VERTEX
  8
4
 10
133.21875
 20
43.08108520507813
  0
VERTEX
  8
4
 10
133.59375
 20
42.70608520507813
  0
VERTEX
  8
4
 10
133.59375
 20
41.95608520507813
  0
VERTEX
  8
4
 10
133.21875
 20
41.67483520507813
  0
VERTEX
  8
4
 10
132.65625
 20
41.67483520507813
  0
VERTEX
  8
4
 10
132.28125
 20
41.95608520507813
  0
VERTEX
  8
4
 10
132.28125
 20
42.70608520507813
  0
VERTEX
  8
4
 10
132.65625
 20
43.08108520507813
  0
VERTEX
  8
4
 10
133.21875
 20
43.08108520507813
  0
SEQEND
  8
4
  0
POLYLINE
  8
4
  6
CONTINUOUS
 66
     1
 70
     0
 40
0.0
 41
0.0
  0
VERTEX
  8
4
 10
132.65625
 20
41.67483520507813
  0
VERTEX
  8
4
 10
132.1875
 20
41.29983520507813
  0
VERTEX
  8
4
 10
132.1875
 20
40.54983520507813
  0
VERTEX
  8
4
 10
132.65625
 20
40.08108520507813
  0
VERTEX
  8
4
 10
133.21875
 20
40.08108520507813
  0
VERTEX
  8
4
 10
133.6875
 20
40.54983520507813
  0
VERTEX
  8
4
 10
133.6875
 20
41.29983520507813
  0
VERTEX
  8
4
 10
133.21875
 20
41.67483520507813
  0
SEQEND
  8
4
  0
POLYLINE
  8
4
  6
CONTINUOUS
 66
     1
 70
     0
 40
0.0
 41
0.0
  0
VERTEX
  8
4
 10
134.8125
 20
40.17483520507813
  0
VERTEX
  8
4
 10
134.8125
 20
40.45608520507813
  0
VERTEX
  8
4
 10
135.140625
 20
40.45608520507813
  0
VERTEX
  8
4
 10
135.140625
 20
40.17483520507813
  0
VERTEX
  8
4
 10
134.8125
 20
40.17483520507813
  0
SEQEND
  8
4
  0
POLYLINE
  8
4
  6
CONTINUOUS
 66
     1
 70
     0
 40
0.0
 41
0.0
  0
VERTEX
  8
4
 10
136.40625
 20
42.51858520507813
  0
VERTEX
  8
4
 10
136.40625
 20
40.64358520507813
 42
0.9230769230769231
  0
VERTEX
  8
4
 10
137.625
 20
40.64358520507813
  0
VERTEX
  8
4
 10
137.625
 20
42.51858520507813
 42
0.9230769230769231
  0
VERTEX
  8
4
 10
136.40625
 20
42.51858520507813
  0
SEQEND
  8
4
  0
ENDBLK
  8
4
  0
BLOCK
  8
4
  2
COMP64
 70
    64
 10
0.0
 20
0.0
  0
POLYLINE
  8
4
  6
CONTINUOUS
 66
     1
 70
     0
 40
0.0
 41
0.0
  0
VERTEX
  8
4
 10
146.21875
 20
43.08108520507813
  0
VERTEX
  8
4
 10
145.65625
 20
43.08108520507813
  0
VERTEX
  8
4
 10
145.1875
 20
42.61233520507813
  0
VERTEX
  8
4
 10
145.1875
 20
41.76858520507813
  0
VERTEX
  8
4
 10
145.65625
 20
41.29983520507813
  0
VERTEX
  8
4
 10
146.21875
 20
41.29983520507813
  0
VERTEX
  8
4
 10
146.5
 20
41.39358520507813
  0
VERTEX
  8
4
 10
146.6875
 20
41.76858520507813
  0
VERTEX
  8
4
 10
146.6875
 20
42.61233520507813
  0
VERTEX
  8
4
 10
146.21875
 20
43.08108520507813
  0
SEQEND
  8
4
  0
POLYLINE
  8
4
  6
CONTINUOUS
 66
     1
 70
     0
 40
0.0
 41
0.0
  0
VERTEX
  8
4
 10
146.5
 20
41.39358520507813
  0
VERTEX
  8
4
 10
146.125
 20
40.54983520507813
  0
VERTEX
  8
4
 10
145.5625
 20
40.08108520507813
  0
SEQEND
  8
4
  0
POLYLINE
  8
4
  6
CONTINUOUS
 66
     1
 70
     0
 40
0.0
 41
0.0
  0
VERTEX
  8
4
 10
147.8125
 20
40.17483520507813
  0
VERTEX
  8
4
 10
147.8125
 20
40.45608520507813
  0
VERTEX
  8
4
 10
148.140625
 20
40.45608520507813
  0
VERTEX
  8
4
 10
148.140625
 20
40.17483520507813
  0
VERTEX
  8
4
 10
147.8125
 20
40.17483520507813
  0
SEQEND
  8
4
  0
POLYLINE
  8
4
  6
CONTINUOUS
 66
     1
 70
     0
 40
0.0
 41
0.0
  0
VERTEX
  8
4
 10
149.40625
 20
42.51858520507813
  0
VERTEX
  8
4
 10
149.40625
 20
40.64358520507813
 42
0.9230769230769231
  0
VERTEX
  8
4
 10
150.625
 20
40.64358520507813
  0
VERTEX
  8
4
 10
150.625
 20
42.51858520507813
 42
0.9230769230769231
  0
VERTEX
  8
4
 10
149.40625
 20
42.51858520507813
  0
SEQEND
  8
4
  0
ENDBLK
  8
4
  0
BLOCK
  8
4
  2
COMP65
 70
    64
 10
0.0
 20
0.0
  0
POLYLINE
  8
4
  6
CONTINUOUS
 66
     1
 70
     0
 40
0.0
 41
0.0
  0
VERTEX
  8
4
 10
157.90625
 20
40.08108520507813
  0
VERTEX
  8
4
 10
157.90625
 20
43.08108520507813
  0
VERTEX
  8
4
 10
157.390625
 20
42.19046020507813
  0
SEQEND
  8
4
  0
POLYLINE
  8
4
  6
CONTINUOUS
 66
     1
 70
     0
 40
0.0
 41
0.0
  0
VERTEX
  8
4
 10
159.3125
 20
42.51858520507813
  0
VERTEX
  8
4
 10
159.3125
 20
40.64358520507813
 42
0.9230769230769231
  0
VERTEX
  8
4
 10
160.53125
 20
40.64358520507813
  0
VERTEX
  8
4
 10
160.53125
 20
42.51858520507813
 42
0.9230769230769231
  0
VERTEX
  8
4
 10
159.3125
 20
42.51858520507813
  0
SEQEND
  8
4
  0
POLYLINE
  8
4
  6
CONTINUOUS
 66
     1
 70
     0
 40
0.0
 41
0.0
  0
VERTEX
  8
4
 10
161.84375
 20
40.17483520507813
  0
VERTEX
  8
4
 10
161.84375
 20
40.45608520507813
  0
VERTEX
  8
4
 10
162.171875
 20
40.45608520507813
  0
VERTEX
  8
4
 10
162.171875
 20
40.17483520507813
  0
VERTEX
  8
4
 10
161.84375
 20
40.17483520507813
  0
SEQEND
  8
4
  0
POLYLINE
  8
4
  6
CONTINUOUS
 66
     1
 70
     0
 40
0.0
 41
0.0
  0
VERTEX
  8
4
 10
163.4375
 20
42.51858520507813
  0
VERTEX
  8
4
 10
163.4375
 20
40.64358520507813
 42
0.9230769230769231
  0
VERTEX
  8
4
 10
164.65625
 20
40.64358520507813
  0
VERTEX
  8
4
 10
164.65625
 20
42.51858520507813
 42
0.9230769230769231
  0
VERTEX
  8
4
 10
163.4375
 20
42.51858520507813
  0
SEQEND
  8
4
  0
ENDBLK
  8
4
  0
BLOCK
  8
2
  2
COMP66
 70
    64
 10
0.0
 20
0.0
  0
POLYLINE
  8
2
  6
CONTINUOUS
 66
     1
 70
     0
 40
0.0
 41
0.0
  0
VERTEX
  8
2
 10
137.3211364746094
 20
-91.99547576904297
  0
VERTEX
  8
2
 10
135.8211364746094
 20
-93.96422576904297
  0
SEQEND
  8
2
  0
POLYLINE
  8
2
  6
CONTINUOUS
 66
     1
 70
     0
 40
0.0
 41
0.0
  0
VERTEX
  8
2
 10
135.8211364746094
 20
-91.99547576904297
  0
VERTEX
  8
2
 10
137.3211364746094
 20
-93.96422576904297
  0
SEQEND
  8
2
  0
POLYLINE
  8
2
  6
CONTINUOUS
 66
     1
 70
     0
 40
0.0
 41
0.0
  0
VERTEX
  8
2
 10
138.6336364746094
 20
-93.96422576904297
  0
VERTEX
  8
2
 10
138.6336364746094
 20
-90.96422576904297
  0
VERTEX
  8
2
 10
138.1180114746094
 20
-91.85485076904297
  0
SEQEND
  8
2
  0
POLYLINE
  8
2
  6
CONTINUOUS
 66
     1
 70
     0
 40
0.0
 41
0.0
  0
VERTEX
  8
2
 10
139.9461364746094
 20
-93.96422576904297
  0
VERTEX
  8
2
 10
141.4461364746094
 20
-90.96422576904297
  0
SEQEND
  8
2
  0
POLYLINE
  8
2
  6
CONTINUOUS
 66
     1
 70
     0
 40
0.0
 41
0.0
  0
VERTEX
  8
2
 10
142.7586364746094
 20
-93.96422576904297
  0
VERTEX
  8
2
 10
142.7586364746094
 20
-90.96422576904297
  0
VERTEX
  8
2
 10
142.2430114746094
 20
-91.85485076904297
  0
SEQEND
  8
2
  0
POLYLINE
  8
2
  6
CONTINUOUS
 66
     1
 70
     0
 40
0.0
 41
0.0
  0
VERTEX
  8
2
 10
144.1648864746094
 20
-91.52672576904297
  0
VERTEX
  8
2
 10
144.1648864746094
 20
-93.40172576904297
 42
0.9230769230769231
  0
VERTEX
  8
2
 10
145.3836364746094
 20
-93.40172576904297
  0
VERTEX
  8
2
 10
145.3836364746094
 20
-91.52672576904297
 42
0.9230769230769231
  0
VERTEX
  8
2
 10
144.1648864746094
 20
-91.52672576904297
  0
SEQEND
  8
2
  0
ENDBLK
  8
2
  0
BLOCK
  8
4
  2
COMP67
 70
    64
 10
0.0
 20
0.0
  0
POLYLINE
  8
4
  6
CONTINUOUS
 66
     1
 70
     0
 40
0.0
 41
0.0
  0
VERTEX
  8
4
 10
143.0955352783203
 20
-86.86873626708984
  0
VERTEX
  8
4
 10
143.0955352783203
 20
-83.36873626708984
  0
VERTEX
  8
4
 10
142.4939727783203
 20
-84.40779876708984
  0
SEQEND
  8
4
  0
POLYLINE
  8
4
  6
CONTINUOUS
 66
     1
 70
     0
 40
0.0
 41
0.0
  0
VERTEX
  8
4
 10
144.7361602783203
 20
-84.02498626708984
  0
VERTEX
  8
4
 10
144.7361602783203
 20
-86.21248626708984
 42
0.9230769230769231
  0
VERTEX
  8
4
 10
146.1580352783203
 20
-86.21248626708984
  0
VERTEX
  8
4
 10
146.1580352783203
 20
-84.02498626708984
 42
0.9230769230769231
  0
VERTEX
  8
4
 10
144.7361602783203
 20
-84.02498626708984
  0
SEQEND
  8
4
  0
ENDBLK
  8
4
  0
BLOCK
  8
4
  2
COMP68
 70
    64
 10
0.0
 20
0.0
  0
POLYLINE
  8
4
  6
CONTINUOUS
 66
     1
 70
     0
 40
0.0
 41
0.0
  0
VERTEX
  8
4
 10
148.0677642822266
 20
-74.90298461914063
  0
VERTEX
  8
4
 10
147.4115142822266
 20
-74.90298461914063
  0
VERTEX
  8
4
 10
146.8646392822266
 20
-75.44985961914063
  0
VERTEX
  8
4
 10
146.8646392822266
 20
-76.43423461914063
  0
VERTEX
  8
4
 10
147.4115142822266
 20
-76.98110961914063
  0
VERTEX
  8
4
 10
148.0677642822266
 20
-76.98110961914063
  0
VERTEX
  8
4
 10
148.3958892822266
 20
-76.87173461914063
  0
VERTEX
  8
4
 10
148.6146392822266
 20
-76.43423461914063
  0
VERTEX
  8
4
 10
148.6146392822266
 20
-75.44985961914063
  0
VERTEX
  8
4
 10
148.0677642822266
 20
-74.90298461914063
  0
SEQEND
  8
4
  0
POLYLINE
  8
4
  6
CONTINUOUS
 66
     1
 70
     0
 40
0.0
 41
0.0
  0
VERTEX
  8
4
 10
148.3958892822266
 20
-76.87173461914063
  0
VERTEX
  8
4
 10
147.9583892822266
 20
-77.85610961914063
  0
VERTEX
  8
4
 10
147.3021392822266
 20
-78.40298461914063
  0
SEQEND
  8
4
  0
ENDBLK
  8
4
  0
BLOCK
  8
4
  2
COMP69
 70
    64
 10
0.0
 20
0.0
  0
POLYLINE
  8
4
  6
CONTINUOUS
 66
     1
 70
     0
 40
0.0
 41
0.0
  0
VERTEX
  8
4
 10
145.6005554199219
 20
-66.00184631347656
  0
VERTEX
  8
4
 10
146.0380554199219
 20
-66.43934631347656
  0
VERTEX
  8
4
 10
146.0380554199219
 20
-67.31434631347656
  0
VERTEX
  8
4
 10
145.6005554199219
 20
-67.64247131347656
  0
VERTEX
  8
4
 10
144.9443054199219
 20
-67.64247131347656
  0
VERTEX
  8
4
 10
144.5068054199219
 20
-67.31434631347656
  0
VERTEX
  8
4
 10
144.5068054199219
 20
-66.43934631347656
  0
VERTEX
  8
4
 10
144.9443054199219
 20
-66.00184631347656
  0
VERTEX
  8
4
 10
145.6005554199219
 20
-66.00184631347656
  0
SEQEND
  8
4
  0
POLYLINE
  8
4
  6
CONTINUOUS
 66
     1
 70
     0
 40
0.0
 41
0.0
  0
VERTEX
  8
4
 10
144.9443054199219
 20
-67.64247131347656
  0
VERTEX
  8
4
 10
144.3974304199219
 20
-68.07997131347656
  0
VERTEX
  8
4
 10
144.3974304199219
 20
-68.95497131347656
  0
VERTEX
  8
4
 10
144.9443054199219
 20
-69.50184631347656
  0
VERTEX
  8
4
 10
145.6005554199219
 20
-69.50184631347656
  0
VERTEX
  8
4
 10
146.1474304199219
 20
-68.95497131347656
  0
VERTEX
  8
4
 10
146.1474304199219
 20
-68.07997131347656
  0
VERTEX
  8
4
 10
145.6005554199219
 20
-67.64247131347656
  0
SEQEND
  8
4
  0
ENDBLK
  8
4
  0
BLOCK
  8
4
  2
COMP70
 70
    64
 10
0.0
 20
0.0
  0
POLYLINE
  8
4
  6
CONTINUOUS
 66
     1
 70
     0
 40
0.0
 41
0.0
  0
VERTEX
  8
4
 10
137.4553375244141
 20
-61.05714797973633
  0
VERTEX
  8
4
 10
137.4553375244141
 20
-60.18214797973633
  0
VERTEX
  8
4
 10
139.2053375244141
 20
-60.18214797973633
  0
VERTEX
  8
4
 10
138.1115875244141
 20
-63.57277297973633
  0
SEQEND
  8
4
  0
ENDBLK
  8
4
  0
BLOCK
  8
4
  2
COMP71
 70
    64
 10
0.0
 20
0.0
  0
POLYLINE
  8
4
  6
CONTINUOUS
 66
     1
 70
     0
 40
0.0
 41
0.0
  0
VERTEX
  8
4
 10
129.1107330322266
 20
-59.50484466552734
  0
VERTEX
  8
4
 10
129.6576080322266
 20
-58.95796966552734
  0
VERTEX
  8
4
 10
130.3138580322266
 20
-58.95796966552734
  0
VERTEX
  8
4
 10
130.8607330322266
 20
-59.50484466552734
  0
VERTEX
  8
4
 10
130.8607330322266
 20
-60.48921966552734
  0
VERTEX
  8
4
 10
130.3138580322266
 20
-61.03609466552734
  0
VERTEX
  8
4
 10
129.6576080322266
 20
-61.03609466552734
  0
VERTEX
  8
4
 10
129.1107330322266
 20
-60.48921966552734
  0
VERTEX
  8
4
 10
129.1107330322266
 20
-58.08296966552734
  0
VERTEX
  8
4
 10
129.6576080322266
 20
-57.53609466552734
  0
VERTEX
  8
4
 10
130.3138580322266
 20
-57.53609466552734
  0
VERTEX
  8
4
 10
130.8607330322266
 20
-58.08296966552734
  0
SEQEND
  8
4
  0
ENDBLK
  8
4
  0
BLOCK
  8
4
  2
COMP72
 70
    64
 10
0.0
 20
0.0
  0
POLYLINE
  8
4
  6
CONTINUOUS
 66
     1
 70
     0
 40
0.0
 41
0.0
  0
VERTEX
  8
4
 10
122.188850402832
 20
-59.82238006591797
  0
VERTEX
  8
4
 10
120.766975402832
 20
-59.82238006591797
  0
VERTEX
  8
4
 10
120.548225402832
 20
-61.35363006591797
  0
VERTEX
  8
4
 10
121.095100402832
 20
-61.13488006591797
  0
VERTEX
  8
4
 10
121.751350402832
 20
-61.13488006591797
  0
VERTEX
  8
4
 10
122.298225402832
 20
-61.57238006591797
  0
VERTEX
  8
4
 10
122.298225402832
 20
-62.66613006591797
  0
VERTEX
  8
4
 10
121.751350402832
 20
-63.21300506591797
  0
VERTEX
  8
4
 10
121.095100402832
 20
-63.21300506591797
  0
VERTEX
  8
4
 10
120.548225402832
 20
-62.66613006591797
  0
SEQEND
  8
4
  0
ENDBLK
  8
4
  0
BLOCK
  8
4
  2
COMP73
 70
    64
 10
0.0
 20
0.0
  0
POLYLINE
  8
4
  6
CONTINUOUS
 66
     1
 70
     0
 40
0.0
 41
0.0
  0
VERTEX
  8
4
 10
114.9892272949219
 20
-66.09860229492188
  0
VERTEX
  8
4
 10
114.1142272949219
 20
-68.50485229492188
  0
VERTEX
  8
4
 10
115.8642272949219
 20
-68.50485229492188
  0
SEQEND
  8
4
  0
POLYLINE
  8
4
  6
CONTINUOUS
 66
     1
 70
     0
 40
0.0
 41
0.0
  0
VERTEX
  8
4
 10
115.3173522949219
 20
-69.59860229492188
  0
VERTEX
  8
4
 10
115.3173522949219
 20
-67.30172729492188
  0
SEQEND
  8
4
  0
ENDBLK
  8
4
  0
BLOCK
  8
4
  2
COMP74
 70
    64
 10
0.0
 20
0.0
  0
POLYLINE
  8
4
  6
CONTINUOUS
 66
     1
 70
     0
 40
0.0
 41
0.0
  0
VERTEX
  8
4
 10
111.8405303955078
 20
-75.84949493408203
  0
VERTEX
  8
4
 10
112.3874053955078
 20
-75.19324493408203
  0
VERTEX
  8
4
 10
113.0436553955078
 20
-75.19324493408203
  0
VERTEX
  8
4
 10
113.5905303955078
 20
-75.84949493408203
  0
VERTEX
  8
4
 10
113.5905303955078
 20
-76.39636993408203
  0
VERTEX
  8
4
 10
112.9342803955078
 20
-76.94324493408203
  0
VERTEX
  8
4
 10
112.2780303955078
 20
-76.94324493408203
  0
SEQEND
  8
4
  0
POLYLINE
  8
4
  6
CONTINUOUS
 66
     1
 70
     0
 40
0.0
 41
0.0
  0
VERTEX
  8
4
 10
112.9342803955078
 20
-76.94324493408203
  0
VERTEX
  8
4
 10
113.5905303955078
 20
-77.59949493408203
  0
VERTEX
  8
4
 10
113.5905303955078
 20
-78.14636993408203
  0
VERTEX
  8
4
 10
113.0436553955078
 20
-78.69324493408203
  0
VERTEX
  8
4
 10
112.3874053955078
 20
-78.69324493408203
  0
VERTEX
  8
4
 10
111.8405303955078
 20
-78.14636993408203
  0
SEQEND
  8
4
  0
ENDBLK
  8
4
  0
BLOCK
  8
4
  2
COMP75
 70
    64
 10
0.0
 20
0.0
  0
POLYLINE
  8
4
  6
CONTINUOUS
 66
     1
 70
     0
 40
0.0
 41
0.0
  0
VERTEX
  8
4
 10
114.2109298706055
 20
-84.75063323974609
  0
VERTEX
  8
4
 10
114.7578048706055
 20
-84.09438323974609
  0
VERTEX
  8
4
 10
115.4140548706055
 20
-84.09438323974609
  0
VERTEX
  8
4
 10
115.9609298706055
 20
-84.75063323974609
  0
VERTEX
  8
4
 10
115.9609298706055
 20
-85.62563323974609
  0
VERTEX
  8
4
 10
114.2109298706055
 20
-87.15688323974609
  0
VERTEX
  8
4
 10
114.2109298706055
 20
-87.59438323974609
  0
VERTEX
  8
4
 10
115.9609298706055
 20
-87.59438323974609
  0
SEQEND
  8
4
  0
ENDBLK
  8
4
  0
BLOCK
  8
4
  2
COMP76
 70
    64
 10
0.0
 20
0.0
  0
POLYLINE
  8
4
  6
CONTINUOUS
 66
     1
 70
     0
 40
0.0
 41
0.0
  0
VERTEX
  8
4
 10
121.5199279785156
 20
-93.78647613525391
  0
VERTEX
  8
4
 10
121.5199279785156
 20
-90.28647613525391
  0
VERTEX
  8
4
 10
120.9183654785156
 20
-91.32553863525391
  0
SEQEND
  8
4
  0
ENDBLK
  8
4
  0
BLOCK
  8
4
  2
COMP77
 70
    64
 10
0.0
 20
0.0
  0
POLYLINE
  8
4
  6
CONTINUOUS
 66
     1
 70
     0
 40
0.0
 41
0.0
  0
VERTEX
  8
4
 10
129.1233062744141
 20
-92.97451019287109
  0
VERTEX
  8
4
 10
129.1233062744141
 20
-95.16201019287109
 42
0.9230769230769231
  0
VERTEX
  8
4
 10
130.5451812744141
 20
-95.16201019287109
  0
VERTEX
  8
4
 10
130.5451812744141
 20
-92.97451019287109
 42
0.9230769230769231
  0
VERTEX
  8
4
 10
129.1233062744141
 20
-92.97451019287109
  0
SEQEND
  8
4
  0
ENDBLK
  8
4
  0
BLOCK
  8
2
  2
COMP78
 70
    64
 10
0.0
 20
0.0
  0
POLYLINE
  8
2
  6
CONTINUOUS
 66
     1
 70
     0
 40
0.0
 41
0.0
  0
VERTEX
  8
2
 10
83.74779510498047
 20
-92.16312408447266
  0
VERTEX
  8
2
 10
83.74779510498047
 20
-94.13187408447266
  0
SEQEND
  8
2
  0
POLYLINE
  8
2
  6
CONTINUOUS
 66
     1
 70
     0
 40
0.0
 41
0.0
  0
VERTEX
  8
2
 10
85.24779510498047
 20
-94.13187408447266
  0
VERTEX
  8
2
 10
85.24779510498047
 20
-92.81937408447266
  0
VERTEX
  8
2
 10
84.87279510498047
 20
-92.16312408447266
  0
VERTEX
  8
2
 10
84.49779510498047
 20
-92.81937408447266
  0
VERTEX
  8
2
 10
84.12279510498047
 20
-92.16312408447266
  0
VERTEX
  8
2
 10
83.74779510498047
 20
-92.81937408447266
  0
SEQEND
  8
2
  0
POLYLINE
  8
2
  6
CONTINUOUS
 66
     1
 70
     0
 40
0.0
 41
0.0
  0
VERTEX
  8
2
 10
84.49779510498047
 20
-92.81937408447266
  0
VERTEX
  8
2
 10
84.49779510498047
 20
-94.13187408447266
  0
SEQEND
  8
2
  0
POLYLINE
  8
2
  6
CONTINUOUS
 66
     1
 70
     0
 40
0.0
 41
0.0
  0
VERTEX
  8
2
 10
87.31029510498047
 20
-91.13187408447266
  0
VERTEX
  8
2
 10
86.56029510498047
 20
-94.13187408447266
  0
VERTEX
  8
2
 10
85.81029510498047
 20
-91.13187408447266
  0
SEQEND
  8
2
  0
POLYLINE
  8
2
  6
CONTINUOUS
 66
     1
 70
     0
 40
0.0
 41
0.0
  0
VERTEX
  8
2
 10
87.87279510498047
 20
-94.13187408447266
  0
VERTEX
  8
2
 10
89.37279510498047
 20
-91.13187408447266
  0
SEQEND
  8
2
  0
POLYLINE
  8
2
  6
CONTINUOUS
 66
     1
 70
     0
 40
0.0
 41
0.0
  0
VERTEX
  8
2
 10
91.43529510498047
 20
-91.13187408447266
  0
VERTEX
  8
2
 10
90.68529510498047
 20
-94.13187408447266
  0
VERTEX
  8
2
 10
89.93529510498047
 20
-91.13187408447266
  0
SEQEND
  8
2
  0
ENDBLK
  8
2
  0
BLOCK
  8
4
  2
COMP79
 70
    64
 10
0.0
 20
0.0
  0
POLYLINE
  8
4
  6
CONTINUOUS
 66
     1
 70
     0
 40
0.0
 41
0.0
  0
VERTEX
  8
4
 10
70.73377990722656
 20
-85.13764190673828
  0
VERTEX
  8
4
 10
70.73377990722656
 20
-87.32514190673828
 42
0.9230769230769231
  0
VERTEX
  8
4
 10
72.15565490722656
 20
-87.32514190673828
  0
VERTEX
  8
4
 10
72.15565490722656
 20
-85.13764190673828
 42
0.9230769230769231
  0
VERTEX
  8
4
 10
70.73377990722656
 20
-85.13764190673828
  0
SEQEND
  8
4
  0
POLYLINE
  8
4
  6
CONTINUOUS
 66
     1
 70
     0
 40
0.0
 41
0.0
  0
VERTEX
  8
4
 10
73.68690490722656
 20
-87.87201690673828
  0
VERTEX
  8
4
 10
73.68690490722656
 20
-87.54389190673828
  0
VERTEX
  8
4
 10
74.06971740722656
 20
-87.54389190673828
  0
VERTEX
  8
4
 10
74.06971740722656
 20
-87.87201690673828
  0
VERTEX
  8
4
 10
73.68690490722656
 20
-87.87201690673828
  0
SEQEND
  8
4
  0
POLYLINE
  8
4
  6
CONTINUOUS
 66
     1
 70
     0
 40
0.0
 41
0.0
  0
VERTEX
  8
4
 10
77.07752990722656
 20
-84.59076690673828
  0
VERTEX
  8
4
 10
75.65565490722656
 20
-84.59076690673828
  0
VERTEX
  8
4
 10
75.43690490722656
 20
-86.12201690673828
  0
VERTEX
  8
4
 10
75.98377990722656
 20
-85.90326690673828
  0
VERTEX
  8
4
 10
76.64002990722656
 20
-85.90326690673828
  0
VERTEX
  8
4
 10
77.18690490722656
 20
-86.34076690673828
  0
VERTEX
  8
4
 10
77.18690490722656
 20
-87.43451690673828
  0
VERTEX
  8
4
 10
76.64002990722656
 20
-87.98139190673828
  0
VERTEX
  8
4
 10
75.98377990722656
 20
-87.98139190673828
  0
VERTEX
  8
4
 10
75.43690490722656
 20
-87.43451690673828
  0
SEQEND
  8
4
  0
ENDBLK
  8
4
  0
BLOCK
  8
4
  2
COMP80
 70
    64
 10
0.0
 20
0.0
  0
POLYLINE
  8
4
  6
CONTINUOUS
 66
     1
 70
     0
 40
0.0
 41
0.0
  0
VERTEX
  8
4
 10
69.26988983154297
 20
-75.31735229492188
  0
VERTEX
  8
4
 10
69.81676483154297
 20
-74.66110229492188
  0
VERTEX
  8
4
 10
70.47301483154297
 20
-74.66110229492188
  0
VERTEX
  8
4
 10
71.01988983154297
 20
-75.31735229492188
  0
VERTEX
  8
4
 10
71.01988983154297
 20
-76.19235229492188
  0
VERTEX
  8
4
 10
69.26988983154297
 20
-77.72360229492188
  0
VERTEX
  8
4
 10
69.26988983154297
 20
-78.16110229492188
  0
VERTEX
  8
4
 10
71.01988983154297
 20
-78.16110229492188
  0
SEQEND
  8
4
  0
ENDBLK
  8
4
  0
BLOCK
  8
4
  2
COMP81
 70
    64
 10
0.0
 20
0.0
  0
POLYLINE
  8
4
  6
CONTINUOUS
 66
     1
 70
     0
 40
0.0
 41
0.0
  0
VERTEX
  8
4
 10
73.08742523193359
 20
-65.67583465576172
  0
VERTEX
  8
4
 10
71.66555023193359
 20
-65.67583465576172
  0
VERTEX
  8
4
 10
71.44680023193359
 20
-67.20708465576172
  0
VERTEX
  8
4
 10
71.99367523193359
 20
-66.98833465576172
  0
VERTEX
  8
4
 10
72.64992523193359
 20
-66.98833465576172
  0
VERTEX
  8
4
 10
73.19680023193359
 20
-67.42583465576172
  0
VERTEX
  8
4
 10
73.19680023193359
 20
-68.51958465576172
  0
VERTEX
  8
4
 10
72.64992523193359
 20
-69.06645965576172
  0
VERTEX
  8
4
 10
71.99367523193359
 20
-69.06645965576172
  0
VERTEX
  8
4
 10
71.44680023193359
 20
-68.51958465576172
  0
SEQEND
  8
4
  0
ENDBLK
  8
4
  0
BLOCK
  8
4
  2
COMP82
 70
    64
 10
0.0
 20
0.0
  0
POLYLINE
  8
4
  6
CONTINUOUS
 66
     1
 70
     0
 40
0.0
 41
0.0
  0
VERTEX
  8
4
 10
77.59477996826172
 20
-63.21300506591797
  0
VERTEX
  8
4
 10
77.59477996826172
 20
-59.71300506591797
  0
VERTEX
  8
4
 10
76.99321746826172
 20
-60.75206756591797
  0
SEQEND
  8
4
  0
POLYLINE
  8
4
  6
CONTINUOUS
 66
     1
 70
     0
 40
0.0
 41
0.0
  0
VERTEX
  8
4
 10
79.23540496826172
 20
-60.36925506591797
  0
VERTEX
  8
4
 10
79.23540496826172
 20
-62.55675506591797
 42
0.9230769230769231
  0
VERTEX
  8
4
 10
80.65727996826172
 20
-62.55675506591797
  0
VERTEX
  8
4
 10
80.65727996826172
 20
-60.36925506591797
 42
0.9230769230769231
  0
VERTEX
  8
4
 10
79.23540496826172
 20
-60.36925506591797
  0
SEQEND
  8
4
  0
ENDBLK
  8
4
  0
BLOCK
  8
2
  2
COMP83
 70
    64
 10
0.0
 20
0.0
  0
POLYLINE
  8
2
  6
CONTINUOUS
 66
     1
 70
     0
 40
0.0
 41
0.0
  0
VERTEX
  8
2
 10
29.64379692077637
 20
-60.79612350463867
  0
VERTEX
  8
2
 10
30.51879692077637
 20
-60.79612350463867
 42
0.414213562373096
  0
VERTEX
  8
2
 10
31.39379692077637
 20
-59.92112350463867
 42
0.4142135623730927
  0
VERTEX
  8
2
 10
30.51879692077637
 20
-59.04612350463867
  0
VERTEX
  8
2
 10
29.64379692077637
 20
-59.04612350463867
  0
VERTEX
  8
2
 10
29.64379692077637
 20
-62.54612350463867
  0
SEQEND
  8
2
  0
POLYLINE
  8
2
  6
CONTINUOUS
 66
     1
 70
     0
 40
0.0
 41
0.0
  0
VERTEX
  8
2
 10
33.800048828125
 20
-59.70237350463867
 42
0.360125948309296
  0
VERTEX
  8
2
 10
32.925048828125
 20
-59.04612350463867
 42
0.3984755216782595
  0
VERTEX
  8
2
 10
32.050048828125
 20
-59.81174850463867
 42
0.414210386300409
  0
VERTEX
  8
2
 10
32.925048828125
 20
-60.79612350463867
 42
-0.3750000000000001
  0
VERTEX
  8
2
 10
33.800048828125
 20
-61.67112350463867
 42
-0.4832224030776621
  0
VERTEX
  8
2
 10
32.979736328125
 20
-62.54612350463867
 42
-0.3193894702859237
  0
VERTEX
  8
2
 10
32.050048828125
 20
-61.88987350463867
  0
SEQEND
  8
2
  0
POLYLINE
  8
2
  6
CONTINUOUS
 66
     1
 70
     0
 40
0.0
 41
0.0
  0
VERTEX
  8
2
 10
36.206298828125
 20
-59.81174850463867
 42
0.875
  0
VERTEX
  8
2
 10
34.456298828125
 20
-59.81174850463867
  0
VERTEX
  8
2
 10
34.456298828125
 20
-61.88987350463867
 42
0.75
  0
VERTEX
  8
2
 10
36.206298828125
 20
-61.88987350463867
  0
SEQEND
  8
2
  0
POLYLINE
  8
2
  6
CONTINUOUS
 66
     1
 70
     0
 40
0.0
 41
0.0
  0
VERTEX
  8
2
 10
38.503173828125
 20
-60.79612350463867
  0
VERTEX
  8
2
 10
36.971923828125
 20
-60.79612350463867
  0
SEQEND
  8
2
  0
POLYLINE
  8
2
  6
CONTINUOUS
 66
     1
 70
     0
 40
0.0
 41
0.0
  0
VERTEX
  8
2
 10
39.268798828125
 20
-59.70237350463867
  0
VERTEX
  8
2
 10
39.815673828125
 20
-59.04612350463867
  0
VERTEX
  8
2
 10
40.471923828125
 20
-59.04612350463867
  0
VERTEX
  8
2
 10
41.018798828125
 20
-59.70237350463867
  0
VERTEX
  8
2
 10
41.018798828125
 20
-60.24924850463867
  0
VERTEX
  8
2
 10
40.362548828125
 20
-60.79612350463867
  0
VERTEX
  8
2
 10
39.706298828125
 20
-60.79612350463867
  0
SEQEND
  8
2
  0
POLYLINE
  8
2
  6
CONTINUOUS
 66
     1
 70
     0
 40
0.0
 41
0.0
  0
VERTEX
  8
2
 10
40.362548828125
 20
-60.79612350463867
  0
VERTEX
  8
2
 10
41.018798828125
 20
-61.45237350463867
  0
VERTEX
  8
2
 10
41.018798828125
 20
-61.99924850463867
  0
VERTEX
  8
2
 10
40.471923828125
 20
-62.54612350463867
  0
VERTEX
  8
2
 10
39.815673828125
 20
-62.54612350463867
  0
VERTEX
  8
2
 10
39.268798828125
 20
-61.99924850463867
  0
SEQEND
  8
2
  0
POLYLINE
  8
2
  6
CONTINUOUS
 66
     1
 70
     0
 40
0.0
 41
0.0
  0
VERTEX
  8
2
 10
43.315673828125
 20
-59.15549850463867
  0
VERTEX
  8
2
 10
41.893798828125
 20
-59.15549850463867
  0
VERTEX
  8
2
 10
41.675048828125
 20
-60.68674850463867
  0
VERTEX
  8
2
 10
42.221923828125
 20
-60.46799850463867
  0
VERTEX
  8
2
 10
42.878173828125
 20
-60.46799850463867
  0
VERTEX
  8
2
 10
43.425048828125
 20
-60.90549850463867
  0
VERTEX
  8
2
 10
43.425048828125
 20
-61.99924850463867
  0
VERTEX
  8
2
 10
42.878173828125
 20
-62.54612350463867
  0
VERTEX
  8
2
 10
42.221923828125
 20
-62.54612350463867
  0
VERTEX
  8
2
 10
41.675048828125
 20
-61.99924850463867
  0
SEQEND
  8
2
  0
POLYLINE
  8
2
  6
CONTINUOUS
 66
     1
 70
     0
 40
0.0
 41
0.0
  0
VERTEX
  8
2
 10
44.190673828125
 20
-59.70237350463867
  0
VERTEX
  8
2
 10
44.190673828125
 20
-61.88987350463867
 42
0.9230769230769231
  0
VERTEX
  8
2
 10
45.612548828125
 20
-61.88987350463867
  0
VERTEX
  8
2
 10
45.612548828125
 20
-59.70237350463867
 42
0.9230769230769231
  0
VERTEX
  8
2
 10
44.190673828125
 20
-59.70237350463867
  0
SEQEND
  8
2
  0
ENDBLK
  8
2
  0
BLOCK
  8
2
  2
COMP84
 70
    64
 10
0.0
 20
0.0
  0
POLYLINE
  8
2
  6
CONTINUOUS
 66
     1
 70
     0
 40
0.0
 41
0.0
  0
VERTEX
  8
2
 10
6.961146831512451
 20
-66.46134185791016
  0
VERTEX
  8
2
 10
7.711146831512451
 20
-66.46134185791016
 42
0.414213748589607
  0
VERTEX
  8
2
 10
8.46114730834976
 20
-65.71134185791016
 42
0.4142137485895003
  0
VERTEX
  8
2
 10
7.711146831512451
 20
-64.96134185791031
  0
VERTEX
  8
2
 10
6.961146831512451
 20
-64.96134185791016
  0
VERTEX
  8
2
 10
6.961146831512451
 20
-67.96134185791016
  0
SEQEND
  8
2
  0
POLYLINE
  8
2
  6
CONTINUOUS
 66
     1
 70
     0
 40
0.0
 41
0.0
  0
VERTEX
  8
2
 10
9.023647308349609
 20
-66.46134185791016
  0
VERTEX
  8
2
 10
9.773647308349609
 20
-66.46134185791016
 42
0.4142135623730997
  0
VERTEX
  8
2
 10
10.52364730834961
 20
-65.71134185791016
 42
0.4142135623731037
  0
VERTEX
  8
2
 10
9.773647308349609
 20
-64.96134185791016
  0
VERTEX
  8
2
 10
9.023647308349609
 20
-64.96134185791016
  0
VERTEX
  8
2
 10
9.023647308349609
 20
-67.96134185791016
  0
SEQEND
  8
2
  0
POLYLINE
  8
2
  6
CONTINUOUS
 66
     1
 70
     0
 40
0.0
 41
0.0
  0
VERTEX
  8
2
 10
10.52364730834961
 20
-67.96134185791016
  0
VERTEX
  8
2
 10
9.773647308349609
 20
-66.46134185791016
  0
SEQEND
  8
2
  0
POLYLINE
  8
2
  6
CONTINUOUS
 66
     1
 70
     0
 40
0.0
 41
0.0
  0
VERTEX
  8
2
 10
12.58614730834961
 20
-64.96134185791016
  0
VERTEX
  8
2
 10
11.08614730834961
 20
-64.96134185791016
  0
VERTEX
  8
2
 10
11.08614730834961
 20
-67.96134185791016
  0
VERTEX
  8
2
 10
12.58614730834961
 20
-67.96134185791016
  0
SEQEND
  8
2
  0
POLYLINE
  8
2
  6
CONTINUOUS
 66
     1
 70
     0
 40
0.0
 41
0.0
  0
VERTEX
  8
2
 10
11.08614730834961
 20
-66.46134185791016
  0
VERTEX
  8
2
 10
12.58614730834961
 20
-66.46134185791016
  0
SEQEND
  8
2
  0
POLYLINE
  8
2
  6
CONTINUOUS
 66
     1
 70
     0
 40
0.0
 41
0.0
  0
VERTEX
  8
2
 10
14.64864730834961
 20
-65.61759185791016
 42
0.8749999999999999
  0
VERTEX
  8
2
 10
13.14864730834961
 20
-65.61759185791016
  0
VERTEX
  8
2
 10
13.14864730834961
 20
-67.39884185791016
 42
0.75
  0
VERTEX
  8
2
 10
14.64864730834961
 20
-67.39884185791016
  0
SEQEND
  8
2
  0
POLYLINE
  8
2
  6
CONTINUOUS
 66
     1
 70
     0
 40
0.0
 41
0.0
  0
VERTEX
  8
2
 10
15.67989730834961
 20
-64.96134185791016
  0
VERTEX
  8
2
 10
16.24239730834961
 20
-64.96134185791016
  0
SEQEND
  8
2
  0
POLYLINE
  8
2
  6
CONTINUOUS
 66
     1
 70
     0
 40
0.0
 41
0.0
  0
VERTEX
  8
2
 10
15.67989730834961
 20
-67.96134185791016
  0
VERTEX
  8
2
 10
16.24239730834961
 20
-67.96134185791016
  0
SEQEND
  8
2
  0
POLYLINE
  8
2
  6
CONTINUOUS
 66
     1
 70
     0
 40
0.0
 41
0.0
  0
VERTEX
  8
2
 10
15.96114730834961
 20
-67.96134185791016
  0
VERTEX
  8
2
 10
15.96114730834961
 20
-64.96134185791016
  0
SEQEND
  8
2
  0
POLYLINE
  8
2
  6
CONTINUOUS
 66
     1
 70
     0
 40
0.0
 41
0.0
  0
VERTEX
  8
2
 10
18.77364730834961
 20
-65.52384185791016
 42
0.3601277669270834
  0
VERTEX
  8
2
 10
18.02364730834961
 20
-64.96134185791016
 42
0.3984745215865783
  0
VERTEX
  8
2
 10
17.27364730834961
 20
-65.61759185791016
 42
0.4142073089283329
  0
VERTEX
  8
2
 10
18.02364730834961
 20
-66.46134185791016
 42
-0.3750000000000001
  0
VERTEX
  8
2
 10
18.77364730834961
 20
-67.21134185791016
 42
-0.4832250238134313
  0
VERTEX
  8
2
 10
18.07052230834961
 20
-67.96134185791016
 42
-0.3193918407912325
  0
VERTEX
  8
2
 10
17.27364730834961
 20
-67.39884185791016
  0
SEQEND
  8
2
  0
POLYLINE
  8
2
  6
CONTINUOUS
 66
     1
 70
     0
 40
0.0
 41
0.0
  0
VERTEX
  8
2
 10
19.80489730834961
 20
-64.96134185791016
  0
VERTEX
  8
2
 10
20.36739730834961
 20
-64.96134185791016
  0
SEQEND
  8
2
  0
POLYLINE
  8
2
  6
CONTINUOUS
 66
     1
 70
     0
 40
0.0
 41
0.0
  0
VERTEX
  8
2
 10
19.80489730834961
 20
-67.96134185791016
  0
VERTEX
  8
2
 10
20.36739730834961
 20
-67.96134185791016
  0
SEQEND
  8
2
  0
POLYLINE
  8
2
  6
CONTINUOUS
 66
     1
 70
     0
 40
0.0
 41
0.0
  0
VERTEX
  8
2
 10
20.08614730834961
 20
-67.96134185791016
  0
VERTEX
  8
2
 10
20.08614730834961
 20
-64.96134185791016
  0
SEQEND
  8
2
  0
POLYLINE
  8
2
  6
CONTINUOUS
 66
     1
 70
     0
 40
0.0
 41
0.0
  0
VERTEX
  8
2
 10
21.39864730834961
 20
-65.61759185791016
  0
VERTEX
  8
2
 10
21.39864730834961
 20
-67.39884185791016
 42
0.75
  0
VERTEX
  8
2
 10
22.89864730834961
 20
-67.39884185791016
  0
VERTEX
  8
2
 10
22.89864730834961
 20
-65.61759185791016
 42
0.8749999999999999
  0
VERTEX
  8
2
 10
21.39864730834961
 20
-65.61759185791016
  0
SEQEND
  8
2
  0
POLYLINE
  8
2
  6
CONTINUOUS
 66
     1
 70
     0
 40
0.0
 41
0.0
  0
VERTEX
  8
2
 10
23.46114730834961
 20
-67.96134185791016
  0
VERTEX
  8
2
 10
23.46114730834961
 20
-64.96134185791016
  0
VERTEX
  8
2
 10
24.96114730834961
 20
-67.96134185791016
  0
VERTEX
  8
2
 10
24.96114730834961
 20
-64.96134185791016
  0
SEQEND
  8
2
  0
POLYLINE
  8
2
  6
CONTINUOUS
 66
     1
 70
     0
 40
0.0
 41
0.0
  0
VERTEX
  8
2
 10
29.08614730834961
 20
-65.61759185791016
 42
0.8749999999999999
  0
VERTEX
  8
2
 10
27.58614730834961
 20
-65.61759185791016
  0
VERTEX
  8
2
 10
27.58614730834961
 20
-67.39884185791016
 42
0.75
  0
VERTEX
  8
2
 10
29.08614730834961
 20
-67.39884185791016
  0
SEQEND
  8
2
  0
POLYLINE
  8
2
  6
CONTINUOUS
 66
     1
 70
     0
 40
0.0
 41
0.0
  0
VERTEX
  8
2
 10
29.64864730834961
 20
-67.96134185791016
  0
VERTEX
  8
2
 10
30.39864730834961
 20
-64.96134185791016
  0
VERTEX
  8
2
 10
31.14864730834961
 20
-67.96134185791016
  0
SEQEND
  8
2
  0
POLYLINE
  8
2
  6
CONTINUOUS
 66
     1
 70
     0
 40
0.0
 41
0.0
  0
VERTEX
  8
2
 10
30.91427230834961
 20
-67.02384185791016
  0
VERTEX
  8
2
 10
29.88302230834961
 20
-67.02384185791016
  0
SEQEND
  8
2
  0
POLYLINE
  8
2
  6
CONTINUOUS
 66
     1
 70
     0
 40
0.0
 41
0.0
  0
VERTEX
  8
2
 10
31.71114730834961
 20
-64.96134185791016
  0
VERTEX
  8
2
 10
31.71114730834961
 20
-67.96134185791016
  0
VERTEX
  8
2
 10
33.21114730834961
 20
-67.96134185791016
  0
SEQEND
  8
2
  0
POLYLINE
  8
2
  6
CONTINUOUS
 66
     1
 70
     0
 40
0.0
 41
0.0
  0
VERTEX
  8
2
 10
34.24239730834961
 20
-64.96134185791016
  0
VERTEX
  8
2
 10
34.80489730834961
 20
-64.96134185791016
  0
SEQEND
  8
2
  0
POLYLINE
  8
2
  6
CONTINUOUS
 66
     1
 70
     0
 40
0.0
 41
0.0
  0
VERTEX
  8
2
 10
34.24239730834961
 20
-67.96134185791016
  0
VERTEX
  8
2
 10
34.80489730834961
 20
-67.96134185791016
  0
SEQEND
  8
2
  0
POLYLINE
  8
2
  6
CONTINUOUS
 66
     1
 70
     0
 40
0.0
 41
0.0
  0
VERTEX
  8
2
 10
34.52364730834961
 20
-67.96134185791016
  0
VERTEX
  8
2
 10
34.52364730834961
 20
-64.96134185791016
  0
SEQEND
  8
2
  0
POLYLINE
  8
2
  6
CONTINUOUS
 66
     1
 70
     0
 40
0.0
 41
0.0
  0
VERTEX
  8
2
 10
35.83614730834961
 20
-67.96134185791016
  0
VERTEX
  8
2
 10
36.67989730834961
 20
-67.96134185791016
 42
0.8749999999999999
  0
VERTEX
  8
2
 10
36.67989730834961
 20
-66.46134185791016
 42
0.8749999999999999
  0
VERTEX
  8
2
 10
36.67989730834961
 20
-64.96134185791016
  0
VERTEX
  8
2
 10
35.83614730834961
 20
-64.96134185791016
  0
VERTEX
  8
2
 10
35.83614730834961
 20
-67.96134185791016
  0
SEQEND
  8
2
  0
POLYLINE
  8
2
  6
CONTINUOUS
 66
     1
 70
     0
 40
0.0
 41
0.0
  0
VERTEX
  8
2
 10
35.83614730834961
 20
-66.46134185791016
  0
VERTEX
  8
2
 10
36.67989730834961
 20
-66.46134185791016
  0
SEQEND
  8
2
  0
POLYLINE
  8
2
  6
CONTINUOUS
 66
     1
 70
     0
 40
0.0
 41
0.0
  0
VERTEX
  8
2
 10
37.89864730834961
 20
-66.46134185791016
  0
VERTEX
  8
2
 10
38.64864730834961
 20
-66.46134185791016
 42
0.4142135623730932
  0
VERTEX
  8
2
 10
39.39864730834961
 20
-65.71134185791016
 42
0.4142135623731009
  0
VERTEX
  8
2
 10
38.64864730834961
 20
-64.96134185791016
  0
VERTEX
  8
2
 10
37.89864730834961
 20
-64.96134185791016
  0
VERTEX
  8
2
 10
37.89864730834961
 20
-67.96134185791016
  0
SEQEND
  8
2
  0
POLYLINE
  8
2
  6
CONTINUOUS
 66
     1
 70
     0
 40
0.0
 41
0.0
  0
VERTEX
  8
2
 10
39.39864730834961
 20
-67.96134185791016
  0
VERTEX
  8
2
 10
38.64864730834961
 20
-66.46134185791016
  0
SEQEND
  8
2
  0
POLYLINE
  8
2
  6
CONTINUOUS
 66
     1
 70
     0
 40
0.0
 41
0.0
  0
VERTEX
  8
2
 10
39.96114730834961
 20
-67.96134185791016
  0
VERTEX
  8
2
 10
40.71114730834961
 20
-64.96134185791016
  0
VERTEX
  8
2
 10
41.46114730834961
 20
-67.96134185791016
  0
SEQEND
  8
2
  0
POLYLINE
  8
2
  6
CONTINUOUS
 66
     1
 70
     0
 40
0.0
 41
0.0
  0
VERTEX
  8
2
 10
41.22677230834961
 20
-67.02384185791016
  0
VERTEX
  8
2
 10
40.19552230834961
 20
-67.02384185791016
  0
SEQEND
  8
2
  0
POLYLINE
  8
2
  6
CONTINUOUS
 66
     1
 70
     0
 40
0.0
 41
0.0
  0
VERTEX
  8
2
 10
42.02364730834961
 20
-64.96134185791016
  0
VERTEX
  8
2
 10
43.52364730834961
 20
-64.96134185791016
  0
SEQEND
  8
2
  0
POLYLINE
  8
2
  6
CONTINUOUS
 66
     1
 70
     0
 40
0.0
 41
0.0
  0
VERTEX
  8
2
 10
42.77364730834961
 20
-64.96134185791016
  0
VERTEX
  8
2
 10
42.77364730834961
 20
-67.96134185791016
  0
SEQEND
  8
2
  0
POLYLINE
  8
2
  6
CONTINUOUS
 66
     1
 70
     0
 40
0.0
 41
0.0
  0
VERTEX
  8
2
 10
44.08614730834961
 20
-65.61759185791016
  0
VERTEX
  8
2
 10
44.08614730834961
 20
-67.39884185791016
 42
0.75
  0
VERTEX
  8
2
 10
45.58614730834961
 20
-67.39884185791016
  0
VERTEX
  8
2
 10
45.58614730834961
 20
-65.61759185791016
 42
0.8749999999999999
  0
VERTEX
  8
2
 10
44.08614730834961
 20
-65.61759185791016
  0
SEQEND
  8
2
  0
POLYLINE
  8
2
  6
CONTINUOUS
 66
     1
 70
     0
 40
0.0
 41
0.0
  0
VERTEX
  8
2
 10
46.14864730834961
 20
-66.46134185791016
  0
VERTEX
  8
2
 10
46.89864730834961
 20
-66.46134185791016
 42
0.4142135623730932
  0
VERTEX
  8
2
 10
47.64864730834961
 20
-65.71134185791016
 42
0.4142135623731009
  0
VERTEX
  8
2
 10
46.89864730834961
 20
-64.96134185791016
  0
VERTEX
  8
2
 10
46.14864730834961
 20
-64.96134185791016
  0
VERTEX
  8
2
 10
46.14864730834961
 20
-67.96134185791016
  0
SEQEND
  8
2
  0
POLYLINE
  8
2
  6
CONTINUOUS
 66
     1
 70
     0
 40
0.0
 41
0.0
  0
VERTEX
  8
2
 10
47.64864730834961
 20
-67.96134185791016
  0
VERTEX
  8
2
 10
46.89864730834961
 20
-66.46134185791016
  0
SEQEND
  8
2
  0
ENDBLK
  8
2
  0
BLOCK
  8
2
  2
COMP85
 70
    64
 10
0.0
 20
0.0
  0
POLYLINE
  8
2
  6
CONTINUOUS
 66
     1
 70
     0
 40
0.0
 41
0.0
  0
VERTEX
  8
2
 10
28.92244529724121
 20
-84.29781341552734
  0
VERTEX
  8
2
 10
25.92244529724121
 20
-84.29781341552734
  0
SEQEND
  8
2
  0
POLYLINE
  8
2
  6
CONTINUOUS
 66
     1
 70
     0
 40
0.0
 41
0.0
  0
VERTEX
  8
2
 10
27.42244529724121
 20
-85.79781341552734
  0
VERTEX
  8
2
 10
27.42244529724121
 20
-82.79781341552734
  0
SEQEND
  8
2
  0
ENDBLK
  8
2
  0
BLOCK
  8
2
  2
COMP86
 70
    64
 10
0.0
 20
0.0
  0
POLYLINE
  8
2
  6
CONTINUOUS
 66
     1
 70
     0
 40
0.0
 41
0.0
  0
VERTEX
  8
2
 10
48.64190673828125
 20
-84.09925079345703
  0
VERTEX
  8
2
 10
46.01690673828125
 20
-84.09925079345703
  0
SEQEND
  8
2
  0
ENDBLK
  8
2
  0
BLOCK
  8
2
  2
COMP87
 70
    64
 10
0.0
 20
0.0
  0
POLYLINE
  8
2
  6
CONTINUOUS
 66
     1
 70
     0
 40
0.0
 41
0.0
  0
VERTEX
  8
2
 10
29.88207626342773
 20
-92.72784423828125
  0
VERTEX
  8
2
 10
30.63207626342773
 20
-92.72784423828125
 42
0.4142135623730997
  0
VERTEX
  8
2
 10
31.38207626342773
 20
-91.97784423828125
 42
0.4142135623731037
  0
VERTEX
  8
2
 10
30.63207626342773
 20
-91.22784423828125
  0
VERTEX
  8
2
 10
29.88207626342773
 20
-91.22784423828125
  0
VERTEX
  8
2
 10
29.88207626342773
 20
-94.22784423828125
  0
SEQEND
  8
2
  0
POLYLINE
  8
2
  6
CONTINUOUS
 66
     1
 70
     0
 40
0.0
 41
0.0
  0
VERTEX
  8
2
 10
31.94457626342773
 20
-91.88409423828125
  0
VERTEX
  8
2
 10
31.94457626342773
 20
-93.66534423828125
 42
0.75
  0
VERTEX
  8
2
 10
33.44457626342773
 20
-93.66534423828125
  0
VERTEX
  8
2
 10
33.44457626342773
 20
-91.88409423828125
 42
0.8749999999999999
  0
VERTEX
  8
2
 10
31.94457626342773
 20
-91.88409423828125
  0
SEQEND
  8
2
  0
POLYLINE
  8
2
  6
CONTINUOUS
 66
     1
 70
     0
 40
0.0
 41
0.0
  0
VERTEX
  8
2
 10
34.00707626342773
 20
-91.22784423828125
  0
VERTEX
  8
2
 10
34.00707626342773
 20
-94.22784423828125
  0
VERTEX
  8
2
 10
35.50707626342773
 20
-94.22784423828125
  0
SEQEND
  8
2
  0
POLYLINE
  8
2
  6
CONTINUOUS
 66
     1
 70
     0
 40
0.0
 41
0.0
  0
VERTEX
  8
2
 10
36.06957626342773
 20
-94.22784423828125
  0
VERTEX
  8
2
 10
36.81957626342773
 20
-91.22784423828125
  0
VERTEX
  8
2
 10
37.56957626342773
 20
-94.22784423828125
  0
SEQEND
  8
2
  0
POLYLINE
  8
2
  6
CONTINUOUS
 66
     1
 70
     0
 40
0.0
 41
0.0
  0
VERTEX
  8
2
 10
37.33520126342773
 20
-93.29034423828125
  0
VERTEX
  8
2
 10
36.30395126342773
 20
-93.29034423828125
  0
SEQEND
  8
2
  0
POLYLINE
  8
2
  6
CONTINUOUS
 66
     1
 70
     0
 40
0.0
 41
0.0
  0
VERTEX
  8
2
 10
38.13207626342773
 20
-92.72784423828125
  0
VERTEX
  8
2
 10
38.88207626342773
 20
-92.72784423828125
 42
0.4142135623730932
  0
VERTEX
  8
2
 10
39.63207626342773
 20
-91.97784423828125
 42
0.4142135623731009
  0
VERTEX
  8
2
 10
38.88207626342773
 20
-91.22784423828125
  0
VERTEX
  8
2
 10
38.13207626342773
 20
-91.22784423828125
  0
VERTEX
  8
2
 10
38.13207626342773
 20
-94.22784423828125
  0
SEQEND
  8
2
  0
POLYLINE
  8
2
  6
CONTINUOUS
 66
     1
 70
     0
 40
0.0
 41
0.0
  0
VERTEX
  8
2
 10
39.63207626342773
 20
-94.22784423828125
  0
VERTEX
  8
2
 10
38.88207626342773
 20
-92.72784423828125
  0
SEQEND
  8
2
  0
POLYLINE
  8
2
  6
CONTINUOUS
 66
     1
 70
     0
 40
0.0
 41
0.0
  0
VERTEX
  8
2
 10
40.66332626342773
 20
-91.22784423828125
  0
VERTEX
  8
2
 10
41.22582626342773
 20
-91.22784423828125
  0
SEQEND
  8
2
  0
POLYLINE
  8
2
  6
CONTINUOUS
 66
     1
 70
     0
 40
0.0
 41
0.0
  0
VERTEX
  8
2
 10
40.66332626342773
 20
-94.22784423828125
  0
VERTEX
  8
2
 10
41.22582626342773
 20
-94.22784423828125
  0
SEQEND
  8
2
  0
POLYLINE
  8
2
  6
CONTINUOUS
 66
     1
 70
     0
 40
0.0
 41
0.0
  0
VERTEX
  8
2
 10
40.94457626342773
 20
-94.22784423828125
  0
VERTEX
  8
2
 10
40.94457626342773
 20
-91.22784423828125
  0
SEQEND
  8
2
  0
POLYLINE
  8
2
  6
CONTINUOUS
 66
     1
 70
     0
 40
0.0
 41
0.0
  0
VERTEX
  8
2
 10
42.25707626342773
 20
-91.22784423828125
  0
VERTEX
  8
2
 10
43.75707626342773
 20
-91.22784423828125
  0
SEQEND
  8
2
  0
POLYLINE
  8
2
  6
CONTINUOUS
 66
     1
 70
     0
 40
0.0
 41
0.0
  0
VERTEX
  8
2
 10
43.00707626342773
 20
-91.22784423828125
  0
VERTEX
  8
2
 10
43.00707626342773
 20
-94.22784423828125
  0
SEQEND
  8
2
  0
POLYLINE
  8
2
  6
CONTINUOUS
 66
     1
 70
     0
 40
0.0
 41
0.0
  0
VERTEX
  8
2
 10
44.31957626342773
 20
-91.22784423828125
  0
VERTEX
  8
2
 10
45.06957626342773
 20
-92.72784423828125
  0
VERTEX
  8
2
 10
45.06957626342773
 20
-94.22784423828125
  0
SEQEND
  8
2
  0
POLYLINE
  8
2
  6
CONTINUOUS
 66
     1
 70
     0
 40
0.0
 41
0.0
  0
VERTEX
  8
2
 10
45.06957626342773
 20
-92.72784423828125
  0
VERTEX
  8
2
 10
45.81957626342773
 20
-91.22784423828125
  0
SEQEND
  8
2
  0
ENDBLK
  8
2
  0
ENDSEC
  0
SECTION
  2
ENTITIES
  0
LINE
  8
3
  6
CONTINUOUS
 10
274.1229237707306
 20
103.1810810810806
 11
274.1229237707306
 21
114.1810810810806
  0
LINE
  8
3
  6
CONTINUOUS
 10
268.8229237707306
 20
110.1810810810806
 11
268.8229237707306
 21
114.1810810810806
  0
LINE
  8
4
  6
CONTINUOUS
 10
286.3229237707306
 20
-0.8189189189189179
 11
265.3229237707306
 21
-0.8189189189189179
  0
LINE
  8
10
  6
CONTINUOUS
 10
282.1729237707305
 20
138.6810810810806
 11
288.4729237707307
 21
138.6810810810806
  0
LINE
  8
10
  6
CONTINUOUS
 10
288.3591885081469
 20
139.9810810810807
 11
288.4729237707307
 21
138.6810810810806
  0
LINE
  8
10
  6
CONTINUOUS
 10
282.2866590333142
 20
139.9810810810807
 11
288.3591885081469
 21
139.9810810810807
  0
LINE
  8
10
  6
CONTINUOUS
 10
282.2866590333142
 20
139.9810810810807
 11
282.1729237707305
 21
138.6810810810806
  0
ARC
  8
10
  6
CONTINUOUS
 10
285.3229237707306
 20
132.5986614513497
 40
7.98241962973139
 50
67.64346058572916
 51
112.3565394142716
  0
CIRCLE
  8
10
  6
CONTINUOUS
 10
270.1229237707306
 20
28.68108108108108
 40
3.15
  0
ARC
  8
10
  6
CONTINUOUS
 10
270.1229237707306
 20
28.68108108108108
 40
1.75
 50
90.0
 51
98.21321070173811
  0
ARC
  8
10
  6
CONTINUOUS
 10
270.1229237707306
 20
28.68108108108108
 40
1.75
 50
171.7867892982619
 51
188.2132107017381
  0
ARC
  8
10
  6
CONTINUOUS
 10
270.1229237707306
 20
28.68108108108108
 40
1.75
 50
261.7867892982616
 51
278.2132107017384
  0
ARC
  8
10
  6
CONTINUOUS
 10
270.1229237707306
 20
28.68108108108108
 40
1.75
 50
351.7867892982619
 51
8.213210701738101
  0
ARC
  8
10
  6
CONTINUOUS
 10
270.1229237707306
 20
28.68108108108108
 40
1.75
 50
81.78678929826191
 51
90.0
  0
LINE
  8
10
  6
CONTINUOUS
 10
269.8729237707306
 20
26.94903027351224
 11
269.8729237707306
 21
27.83108108108117
  0
LINE
  8
10
  6
CONTINUOUS
 10
269.8729237707306
 20
29.53108108108128
 11
269.8729237707306
 21
30.41313188864998
  0
LINE
  8
10
  6
CONTINUOUS
 10
270.3729237707306
 20
26.94903027351224
 11
270.3729237707306
 21
27.83108108108117
  0
LINE
  8
10
  6
CONTINUOUS
 10
270.3729237707306
 20
29.53108108108128
 11
270.3729237707306
 21
30.41313188864998
  0
LINE
  8
10
  6
CONTINUOUS
 10
271.8549745782995
 20
28.93108108108108
 11
270.9729237707306
 21
28.93108108108108
  0
LINE
  8
10
  6
CONTINUOUS
 10
269.2729237707306
 20
28.93108108108108
 11
268.3908729631617
 21
28.93108108108108
  0
LINE
  8
10
  6
CONTINUOUS
 10
271.8549745782995
 20
28.43108108108108
 11
270.9729237707306
 21
28.43108108108108
  0
LINE
  8
10
  6
CONTINUOUS
 10
269.2729237707306
 20
28.43108108108108
 11
268.3908729631617
 21
28.43108108108108
  0
ARC
  8
10
  6
CONTINUOUS
 10
269.2729237707306
 20
29.53108108108128
 40
0.6
 50
270.0
 51
0.0
  0
ARC
  8
10
  6
CONTINUOUS
 10
269.2729237707306
 20
27.83108108108117
 40
0.6
 50
0.0
 51
90.0
  0
ARC
  8
10
  6
CONTINUOUS
 10
270.9729237707306
 20
27.83108108108117
 40
0.6
 50
90.0
 51
180.0
  0
ARC
  8
10
  6
CONTINUOUS
 10
270.9729237707306
 20
29.53108108108128
 40
0.6
 50
180.0
 51
270.0
  0
LINE
  8
20
  6
CONTINUOUS
 10
299.4229237707306
 20
13.68108108108105
 11
299.4229237707306
 21
138.6810810810806
  0
LINE
  8
20
  6
CONTINUOUS
 10
299.4229237707306
 20
13.68108108108105
 11
252.2229237707306
 21
13.68108108108105
  0
LINE
  8
20
  6
CONTINUOUS
 10
299.4229237707306
 20
138.6810810810806
 11
274.1229237707306
 21
138.6810810810806
  0
LINE
  8
4
  6
CONTINUOUS
 10
264.4261495771822
 20
13.08108108108115
 11
265.3229237707306
 21
-0.8189189189189179
  0
LINE
  8
4
  6
CONTINUOUS
 10
287.219697964279
 20
13.08108108108115
 11
286.3229237707306
 21
-0.8189189189189179
  0
LINE
  8
1
  6
CONTINUOUS
 10
304.4229237707306
 20
20.68108108108108
 11
299.4229237707306
 21
20.68108108108108
  0
LINE
  8
1
  6
CONTINUOUS
 10
304.4229237707306
 20
30.68108108108108
 11
299.4229237707306
 21
30.68108108108108
  0
LINE
  8
1
  6
CONTINUOUS
 10
304.4229237707306
 20
120.6810810810806
 11
299.4229237707306
 21
120.6810810810806
  0
LINE
  8
1
  6
CONTINUOUS
 10
304.4229237707306
 20
130.6810810810806
 11
299.4229237707306
 21
130.6810810810806
  0
LINE
  8
1
  6
CONTINUOUS
 10
304.4229237707306
 20
120.6810810810806
 11
304.4229237707306
 21
130.6810810810806
  0
LINE
  8
1
  6
CONTINUOUS
 10
304.4229237707306
 20
20.68108108108108
 11
304.4229237707306
 21
30.68108108108108
  0
LINE
  8
10
  6
CONTINUOUS
 10
274.1229248046875
 20
114.3810501098633
 11
274.1229248046875
 21
135.3810424804688
  0
LINE
  8
10
  6
CONTINUOUS
 10
272.6229248046875
 20
121.1811599731445
 11
272.6229248046875
 21
135.3810424804688
  0
LINE
  8
10
  6
CONTINUOUS
 10
261.6229248046875
 20
121.1811599731445
 11
261.6229248046875
 21
132.8810424804688
  0
LINE
  8
10
  6
CONTINUOUS
 10
261.6229248046875
 20
132.8810424804688
 11
270.9229431152344
 21
132.8810424804688
  0
LINE
  8
10
  6
CONTINUOUS
 10
272.6229248046875
 20
135.3810424804688
 11
274.1229248046875
 21
135.3810424804688
  0
LINE
  8
10
  6
CONTINUOUS
 10
272.6229248046875
 20
130.6310424804688
 11
272.6229248046875
 21
135.1310424804688
  0
LINE
  8
10
  6
CONTINUOUS
 10
271.8409423828125
 20
135.0625305175781
 11
272.6229248046875
 21
135.1310424804688
  0
LINE
  8
10
  6
CONTINUOUS
 10
271.8409423828125
 20
130.6994323730469
 11
272.6229248046875
 21
130.6310424804688
  0
ARC
  8
10
  6
CONTINUOUS
 10
276.9229431152344
 20
132.8810424804688
 40
6.0
 50
164.5569434899723
 51
195.4422138090634
  0
ARC
  8
10
  6
CONTINUOUS
 10
271.9106750488281
 20
134.2657470703125
 40
0.800000011920929
 50
95.00165183314223
 51
164.5598929733053
  0
ARC
  8
10
  6
CONTINUOUS
 10
271.9106750488281
 20
131.4964294433594
 40
0.800000011920929
 50
195.4401070266947
 51
264.9996819865478
  0
LINE
  8
20
  6
CONTINUOUS
 10
299.4229237707306
 20
137.6810810810806
 11
275.1229237707306
 21
137.6810810810806
  0
LINE
  8
20
  6
CONTINUOUS
 10
275.1229237707306
 20
13.68108108108105
 11
275.1229237707306
 21
137.6810810810806
  0
LINE
  8
10
  6
CONTINUOUS
 10
291.5229237707305
 20
138.6810810810806
 11
297.8229237707307
 21
138.6810810810806
  0
LINE
  8
10
  6
CONTINUOUS
 10
297.7091885081469
 20
139.9810810810807
 11
297.8229237707307
 21
138.6810810810806
  0
LINE
  8
10
  6
CONTINUOUS
 10
291.6366590333142
 20
139.9810810810807
 11
297.7091885081469
 21
139.9810810810807
  0
LINE
  8
10
  6
CONTINUOUS
 10
291.6366590333142
 20
139.9810810810807
 11
291.5229237707305
 21
138.6810810810806
  0
ARC
  8
10
  6
CONTINUOUS
 10
294.6729237707306
 20
132.5986614513497
 40
7.98241962973139
 50
67.64346058572916
 51
112.356539414272
  0
CIRCLE
  8
10
  6
CONTINUOUS
 10
270.1229237707306
 20
77.68108108108109
 40
3.15
  0
ARC
  8
10
  6
CONTINUOUS
 10
270.1229237707306
 20
77.68108108108109
 40
1.75
 50
90.0
 51
98.21321070173838
  0
ARC
  8
10
  6
CONTINUOUS
 10
270.1229237707306
 20
77.68108108108109
 40
1.75
 50
171.7867892982619
 51
188.2132107017381
  0
ARC
  8
10
  6
CONTINUOUS
 10
270.1229237707306
 20
77.68108108108109
 40
1.75
 50
261.7867892982616
 51
278.2132107017384
  0
ARC
  8
10
  6
CONTINUOUS
 10
270.1229237707306
 20
77.68108108108109
 40
1.75
 50
351.7867892982619
 51
8.213210701738101
  0
ARC
  8
10
  6
CONTINUOUS
 10
270.1229237707306
 20
77.68108108108109
 40
1.75
 50
81.78678929826164
 51
90.0
  0
LINE
  8
10
  6
CONTINUOUS
 10
269.8729237707306
 20
75.94903027351225
 11
269.8729237707306
 21
76.83108108108118
  0
LINE
  8
10
  6
CONTINUOUS
 10
269.8729237707306
 20
78.53108108108128
 11
269.8729237707306
 21
79.41313188864993
  0
LINE
  8
10
  6
CONTINUOUS
 10
270.3729237707306
 20
75.94903027351225
 11
270.3729237707306
 21
76.83108108108118
  0
LINE
  8
10
  6
CONTINUOUS
 10
270.3729237707306
 20
78.53108108108128
 11
270.3729237707306
 21
79.41313188864993
  0
LINE
  8
10
  6
CONTINUOUS
 10
271.8549745782995
 20
77.93108108108109
 11
270.9729237707306
 21
77.93108108108109
  0
LINE
  8
10
  6
CONTINUOUS
 10
269.2729237707306
 20
77.93108108108109
 11
268.3908729631617
 21
77.93108108108109
  0
LINE
  8
10
  6
CONTINUOUS
 10
271.8549745782995
 20
77.43108108108109
 11
270.9729237707306
 21
77.43108108108109
  0
LINE
  8
10
  6
CONTINUOUS
 10
269.2729237707306
 20
77.43108108108109
 11
268.3908729631617
 21
77.43108108108109
  0
ARC
  8
10
  6
CONTINUOUS
 10
269.2729237707306
 20
78.53108108108128
 40
0.6
 50
270.0
 51
0.0
  0
ARC
  8
10
  6
CONTINUOUS
 10
269.2729237707306
 20
76.83108108108118
 40
0.6
 50
0.0
 51
90.0
  0
ARC
  8
10
  6
CONTINUOUS
 10
270.9729237707306
 20
76.83108108108118
 40
0.6
 50
90.0
 51
180.0
  0
ARC
  8
10
  6
CONTINUOUS
 10
270.9729237707306
 20
78.53108108108128
 40
0.6
 50
180.0
 51
270.0
  0
LINE
  8
3
  6
CONTINUOUS
 10
275.1229237707306
 20
92.68108108108109
 11
252.2229237707306
 21
92.68108108108109
  0
LINE
  8
20
  6
CONTINUOUS
 10
252.2229237707306
 20
13.68108108108105
 11
252.2229237707306
 21
92.68108108108109
  0
LINE
  8
4
  6
CONTINUOUS
 10
274.1229237707306
 20
92.68108108108109
 11
274.1229237707306
 21
138.6810810810806
  0
LINE
  8
3
  6
CONTINUOUS
 10
273.8229237707306
 20
110.1810810810806
 11
255.8229237707306
 21
110.1810810810806
  0
LINE
  8
3
  6
CONTINUOUS
 10
273.8229237707306
 20
121.1810810810806
 11
255.8229237707306
 21
121.1810810810806
  0
LINE
  8
3
  6
CONTINUOUS
 10
255.8229237707306
 20
110.1810810810806
 11
255.8229237707306
 21
121.1810810810806
  0
LINE
  8
3
  6
CONTINUOUS
 10
268.8229237707306
 20
110.1810810810806
 11
268.8229237707306
 21
121.1810810810806
  0
LINE
  8
3
  6
CONTINUOUS
 10
273.1229237707306
 20
110.1810810810806
 11
273.1229237707306
 21
121.1810810810806
  0
CIRCLE
  8
4
  6
CONTINUOUS
 10
72.5
 20
113.5810810810811
 40
2.0
  0
CIRCLE
  8
4
  6
CONTINUOUS
 10
92.5
 20
113.5810810810811
 40
2.0
  0
CIRCLE
  8
4
  6
CONTINUOUS
 10
112.5
 20
113.5810810810811
 40
2.0
  0
CIRCLE
  8
4
  6
CONTINUOUS
 10
132.5
 20
113.5810810810811
 40
2.0
  0
CIRCLE
  8
4
  6
CONTINUOUS
 10
152.5
 20
113.5810810810811
 40
2.0
  0
CIRCLE
  8
4
  6
CONTINUOUS
 10
72.5
 20
113.5810810810811
 40
5.5
  0
CIRCLE
  8
4
  6
CONTINUOUS
 10
92.5
 20
113.5810810810811
 40
5.5
  0
CIRCLE
  8
4
  6
CONTINUOUS
 10
112.5
 20
113.5810810810811
 40
5.5
  0
CIRCLE
  8
4
  6
CONTINUOUS
 10
132.5
 20
113.5810810810811
 40
5.5
  0
CIRCLE
  8
4
  6
CONTINUOUS
 10
152.5
 20
113.5810810810811
 40
5.5
  0
LINE
  8
4
  6
CONTINUOUS
 10
98.0
 20
-0.8189189189189189
 11
77.0
 21
-0.8189189189189189
  0
LINE
  8
4
  6
CONTINUOUS
 10
140.5
 20
-0.8189189189189189
 11
119.5
 21
-0.8189189189189189
  0
LINE
  8
3
  6
CONTINUOUS
 10
36.8428264136341
 20
5.537365951902401
 11
31.0472714558997
 21
7.09028022251752
  0
LINE
  8
100
  6
CONTINUOUS
 10
0.0
 20
12.98108108108107
 11
0.0
 21
138.5810810810811
  0
LINE
  8
100
  6
CONTINUOUS
 10
185.0
 20
12.98108108108107
 11
185.0
 21
138.5810810810811
  0
LINE
  8
6
  6
CONTINUOUS
 10
144.45
 20
136.8310810810811
 11
80.55000000000001
 21
136.8310810810811
  0
LINE
  8
6
  6
CONTINUOUS
 10
144.45
 20
124.3310810810811
 11
80.55000000000001
 21
124.3310810810811
  0
LINE
  8
6
  6
CONTINUOUS
 10
80.55000000000001
 20
124.3310810810811
 11
80.55000000000001
 21
136.8310810810811
  0
LINE
  8
6
  6
CONTINUOUS
 10
144.45
 20
124.3310810810811
 11
144.45
 21
136.8310810810811
  0
LINE
  8
6
  6
CONTINUOUS
 10
185.0
 20
138.5810810810811
 11
0.0
 21
138.5810810810811
  0
LINE
  8
6
  6
CONTINUOUS
 10
0.0
 20
92.58108108108105
 11
185.0
 21
92.58108108108108
  0
LINE
  8
6
  6
CONTINUOUS
 10
82.23999999999995
 20
124.3310810810811
 11
82.23999999999995
 21
136.8310810810811
  0
CIRCLE
  8
10
  6
CONTINUOUS
 10
85.8300000000001
 20
130.5810810810811
 40
3.15
  0
ARC
  8
10
  6
CONTINUOUS
 10
85.8300000000001
 20
130.5810810810811
 40
1.75
 50
0.0
 51
8.213210701738365
  0
ARC
  8
10
  6
CONTINUOUS
 10
85.8300000000001
 20
130.5810810810811
 40
1.75
 50
81.78678929826191
 51
98.21321070173811
  0
ARC
  8
10
  6
CONTINUOUS
 10
85.8300000000001
 20
130.5810810810811
 40
1.75
 50
171.7867892982617
 51
188.2132107017384
  0
ARC
  8
10
  6
CONTINUOUS
 10
85.8300000000001
 20
130.5810810810811
 40
1.75
 50
261.7867892982616
 51
278.2132107017384
  0
ARC
  8
10
  6
CONTINUOUS
 10
85.8300000000001
 20
130.5810810810811
 40
1.75
 50
351.7867892982616
 51
0.0
  0
LINE
  8
10
  6
CONTINUOUS
 10
84.09794919243126
 20
130.8310810810811
 11
84.98000000000008
 21
130.8310810810811
  0
LINE
  8
10
  6
CONTINUOUS
 10
86.68000000000012
 20
130.8310810810811
 11
87.56205080756894
 21
130.8310810810811
  0
LINE
  8
10
  6
CONTINUOUS
 10
84.09794919243126
 20
130.3310810810811
 11
84.98000000000008
 21
130.3310810810811
  0
LINE
  8
10
  6
CONTINUOUS
 10
86.68000000000012
 20
130.3310810810811
 11
87.56205080756894
 21
130.3310810810811
  0
LINE
  8
10
  6
CONTINUOUS
 10
86.0800000000001
 20
128.8490302735122
 11
86.0800000000001
 21
129.7310810810811
  0
LINE
  8
10
  6
CONTINUOUS
 10
86.0800000000001
 20
131.4310810810811
 11
86.0800000000001
 21
132.31313188865
  0
LINE
  8
10
  6
CONTINUOUS
 10
85.5800000000001
 20
128.8490302735122
 11
85.5800000000001
 21
129.7310810810811
  0
LINE
  8
10
  6
CONTINUOUS
 10
85.5800000000001
 20
131.4310810810811
 11
85.5800000000001
 21
132.31313188865
  0
ARC
  8
10
  6
CONTINUOUS
 10
86.68000000000012
 20
131.4310810810811
 40
0.6
 50
180.0
 51
270.0
  0
ARC
  8
10
  6
CONTINUOUS
 10
84.98000000000008
 20
131.4310810810811
 40
0.6
 50
270.0
 51
0.0
  0
ARC
  8
10
  6
CONTINUOUS
 10
84.98000000000008
 20
129.7310810810811
 40
0.6
 50
0.0
 51
90.0
  0
ARC
  8
10
  6
CONTINUOUS
 10
86.68000000000012
 20
129.7310810810811
 40
0.6
 50
90.0
 51
180.0
  0
CIRCLE
  8
10
  6
CONTINUOUS
 10
94.72000000000008
 20
130.5810810810811
 40
3.15
  0
ARC
  8
10
  6
CONTINUOUS
 10
94.72000000000008
 20
130.5810810810811
 40
1.75
 50
0.0
 51
8.213210701738365
  0
ARC
  8
10
  6
CONTINUOUS
 10
94.72000000000008
 20
130.5810810810811
 40
1.75
 50
81.78678929826191
 51
98.21321070173811
  0
ARC
  8
10
  6
CONTINUOUS
 10
94.72000000000008
 20
130.5810810810811
 40
1.75
 50
171.7867892982617
 51
188.2132107017384
  0
ARC
  8
10
  6
CONTINUOUS
 10
94.72000000000008
 20
130.5810810810811
 40
1.75
 50
261.7867892982616
 51
278.2132107017384
  0
ARC
  8
10
  6
CONTINUOUS
 10
94.72000000000008
 20
130.5810810810811
 40
1.75
 50
351.7867892982616
 51
0.0
  0
LINE
  8
10
  6
CONTINUOUS
 10
92.98794919243125
 20
130.8310810810811
 11
93.87000000000006
 21
130.8310810810811
  0
LINE
  8
10
  6
CONTINUOUS
 10
95.57000000000011
 20
130.8310810810811
 11
96.45205080756892
 21
130.8310810810811
  0
LINE
  8
10
  6
CONTINUOUS
 10
92.98794919243125
 20
130.3310810810811
 11
93.87000000000006
 21
130.3310810810811
  0
LINE
  8
10
  6
CONTINUOUS
 10
95.57000000000011
 20
130.3310810810811
 11
96.45205080756892
 21
130.3310810810811
  0
LINE
  8
10
  6
CONTINUOUS
 10
94.97000000000008
 20
128.8490302735122
 11
94.97000000000008
 21
129.7310810810811
  0
LINE
  8
10
  6
CONTINUOUS
 10
94.97000000000008
 20
131.4310810810811
 11
94.97000000000008
 21
132.31313188865
  0
LINE
  8
10
  6
CONTINUOUS
 10
94.47000000000008
 20
128.8490302735122
 11
94.47000000000008
 21
129.7310810810811
  0
LINE
  8
10
  6
CONTINUOUS
 10
94.47000000000008
 20
131.4310810810811
 11
94.47000000000008
 21
132.31313188865
  0
ARC
  8
10
  6
CONTINUOUS
 10
95.57000000000011
 20
131.4310810810811
 40
0.6
 50
180.0
 51
270.0
  0
ARC
  8
10
  6
CONTINUOUS
 10
93.87000000000006
 20
131.4310810810811
 40
0.6
 50
270.0
 51
0.0
  0
ARC
  8
10
  6
CONTINUOUS
 10
93.87000000000006
 20
129.7310810810811
 40
0.6
 50
0.0
 51
90.0
  0
ARC
  8
10
  6
CONTINUOUS
 10
95.57000000000011
 20
129.7310810810811
 40
0.6
 50
90.0
 51
180.0
  0
LINE
  8
6
  6
CONTINUOUS
 10
91.12999999999994
 20
124.3310810810811
 11
91.12999999999994
 21
136.8310810810811
  0
LINE
  8
6
  6
CONTINUOUS
 10
89.44
 20
124.3310810810811
 11
89.44
 21
136.8310810810811
  0
LINE
  8
6
  6
CONTINUOUS
 10
98.32999999999998
 20
124.3310810810811
 11
98.32999999999998
 21
136.8310810810811
  0
LINE
  8
6
  6
CONTINUOUS
 10
100.0199999999999
 20
124.3310810810811
 11
100.0199999999999
 21
136.8310810810811
  0
CIRCLE
  8
10
  6
CONTINUOUS
 10
103.6100000000001
 20
130.5810810810811
 40
3.15
  0
ARC
  8
10
  6
CONTINUOUS
 10
103.6100000000001
 20
130.5810810810811
 40
1.75
 50
0.0
 51
8.213210701738365
  0
ARC
  8
10
  6
CONTINUOUS
 10
103.6100000000001
 20
130.5810810810811
 40
1.75
 50
81.78678929826191
 51
98.21321070173811
  0
ARC
  8
10
  6
CONTINUOUS
 10
103.6100000000001
 20
130.5810810810811
 40
1.75
 50
171.7867892982617
 51
188.2132107017384
  0
ARC
  8
10
  6
CONTINUOUS
 10
103.6100000000001
 20
130.5810810810811
 40
1.75
 50
261.7867892982616
 51
278.2132107017384
  0
ARC
  8
10
  6
CONTINUOUS
 10
103.6100000000001
 20
130.5810810810811
 40
1.75
 50
351.7867892982616
 51
0.0
  0
LINE
  8
10
  6
CONTINUOUS
 10
101.8779491924312
 20
130.8310810810811
 11
102.7600000000001
 21
130.8310810810811
  0
LINE
  8
10
  6
CONTINUOUS
 10
104.4600000000001
 20
130.8310810810811
 11
105.3420508075689
 21
130.8310810810811
  0
LINE
  8
10
  6
CONTINUOUS
 10
101.8779491924312
 20
130.3310810810811
 11
102.7600000000001
 21
130.3310810810811
  0
LINE
  8
10
  6
CONTINUOUS
 10
104.4600000000001
 20
130.3310810810811
 11
105.3420508075689
 21
130.3310810810811
  0
LINE
  8
10
  6
CONTINUOUS
 10
103.8600000000001
 20
128.8490302735122
 11
103.8600000000001
 21
129.7310810810811
  0
LINE
  8
10
  6
CONTINUOUS
 10
103.8600000000001
 20
131.4310810810811
 11
103.8600000000001
 21
132.31313188865
  0
LINE
  8
10
  6
CONTINUOUS
 10
103.3600000000001
 20
128.8490302735122
 11
103.3600000000001
 21
129.7310810810811
  0
LINE
  8
10
  6
CONTINUOUS
 10
103.3600000000001
 20
131.4310810810811
 11
103.3600000000001
 21
132.31313188865
  0
ARC
  8
10
  6
CONTINUOUS
 10
104.4600000000001
 20
131.4310810810811
 40
0.6
 50
180.0
 51
270.0
  0
ARC
  8
10
  6
CONTINUOUS
 10
102.7600000000001
 20
131.4310810810811
 40
0.6
 50
270.0
 51
0.0
  0
ARC
  8
10
  6
CONTINUOUS
 10
102.7600000000001
 20
129.7310810810811
 40
0.6
 50
0.0
 51
90.0
  0
ARC
  8
10
  6
CONTINUOUS
 10
104.4600000000001
 20
129.7310810810811
 40
0.6
 50
90.0
 51
180.0
  0
LINE
  8
6
  6
CONTINUOUS
 10
107.22
 20
124.3310810810811
 11
107.22
 21
136.8310810810811
  0
LINE
  8
6
  6
CONTINUOUS
 10
108.9
 20
124.3310810810811
 11
108.9
 21
136.8310810810811
  0
CIRCLE
  8
10
  6
CONTINUOUS
 10
112.5000000000001
 20
130.5810810810811
 40
3.15
  0
ARC
  8
10
  6
CONTINUOUS
 10
112.5000000000001
 20
130.5810810810811
 40
1.75
 50
0.0
 51
8.213210701738365
  0
ARC
  8
10
  6
CONTINUOUS
 10
112.5000000000001
 20
130.5810810810811
 40
1.75
 50
81.78678929826191
 51
98.21321070173811
  0
ARC
  8
10
  6
CONTINUOUS
 10
112.5000000000001
 20
130.5810810810811
 40
1.75
 50
171.7867892982617
 51
188.2132107017384
  0
ARC
  8
10
  6
CONTINUOUS
 10
112.5000000000001
 20
130.5810810810811
 40
1.75
 50
261.7867892982616
 51
278.2132107017384
  0
ARC
  8
10
  6
CONTINUOUS
 10
112.5000000000001
 20
130.5810810810811
 40
1.75
 50
351.7867892982616
 51
0.0
  0
LINE
  8
10
  6
CONTINUOUS
 10
110.7679491924312
 20
130.8310810810811
 11
111.65
 21
130.8310810810811
  0
LINE
  8
10
  6
CONTINUOUS
 10
113.3500000000001
 20
130.8310810810811
 11
114.2320508075689
 21
130.8310810810811
  0
LINE
  8
10
  6
CONTINUOUS
 10
110.7679491924312
 20
130.3310810810811
 11
111.65
 21
130.3310810810811
  0
LINE
  8
10
  6
CONTINUOUS
 10
113.3500000000001
 20
130.3310810810811
 11
114.2320508075689
 21
130.3310810810811
  0
LINE
  8
10
  6
CONTINUOUS
 10
112.7500000000001
 20
128.8490302735122
 11
112.7500000000001
 21
129.7310810810811
  0
LINE
  8
10
  6
CONTINUOUS
 10
112.7500000000001
 20
131.4310810810811
 11
112.7500000000001
 21
132.31313188865
  0
LINE
  8
10
  6
CONTINUOUS
 10
112.2500000000001
 20
128.8490302735122
 11
112.2500000000001
 21
129.7310810810811
  0
LINE
  8
10
  6
CONTINUOUS
 10
112.2500000000001
 20
131.4310810810811
 11
112.2500000000001
 21
132.31313188865
  0
ARC
  8
10
  6
CONTINUOUS
 10
113.3500000000001
 20
131.4310810810811
 40
0.6
 50
180.0
 51
270.0
  0
ARC
  8
10
  6
CONTINUOUS
 10
111.65
 20
131.4310810810811
 40
0.6
 50
270.0
 51
0.0
  0
ARC
  8
10
  6
CONTINUOUS
 10
111.65
 20
129.7310810810811
 40
0.6
 50
0.0
 51
90.0
  0
ARC
  8
10
  6
CONTINUOUS
 10
113.3500000000001
 20
129.7310810810811
 40
0.6
 50
90.0
 51
180.0
  0
LINE
  8
6
  6
CONTINUOUS
 10
116.1000000000001
 20
124.3310810810811
 11
116.1000000000001
 21
136.8310810810811
  0
LINE
  8
6
  6
CONTINUOUS
 10
117.79
 20
124.3310810810811
 11
117.79
 21
136.8310810810811
  0
CIRCLE
  8
10
  6
CONTINUOUS
 10
121.39
 20
130.5810810810811
 40
3.15
  0
ARC
  8
10
  6
CONTINUOUS
 10
121.39
 20
130.5810810810811
 40
1.75
 50
0.0
 51
8.213210701738365
  0
ARC
  8
10
  6
CONTINUOUS
 10
121.39
 20
130.5810810810811
 40
1.75
 50
81.78678929826191
 51
98.21321070173811
  0
ARC
  8
10
  6
CONTINUOUS
 10
121.39
 20
130.5810810810811
 40
1.75
 50
171.7867892982617
 51
188.2132107017384
  0
ARC
  8
10
  6
CONTINUOUS
 10
121.39
 20
130.5810810810811
 40
1.75
 50
261.7867892982616
 51
278.2132107017384
  0
ARC
  8
10
  6
CONTINUOUS
 10
121.39
 20
130.5810810810811
 40
1.75
 50
351.7867892982616
 51
0.0
  0
LINE
  8
10
  6
CONTINUOUS
 10
119.6579491924312
 20
130.8310810810811
 11
120.54
 21
130.8310810810811
  0
LINE
  8
10
  6
CONTINUOUS
 10
122.2400000000001
 20
130.8310810810811
 11
123.1220508075689
 21
130.8310810810811
  0
LINE
  8
10
  6
CONTINUOUS
 10
119.6579491924312
 20
130.3310810810811
 11
120.54
 21
130.3310810810811
  0
LINE
  8
10
  6
CONTINUOUS
 10
122.2400000000001
 20
130.3310810810811
 11
123.1220508075689
 21
130.3310810810811
  0
LINE
  8
10
  6
CONTINUOUS
 10
121.64
 20
128.8490302735122
 11
121.64
 21
129.7310810810811
  0
LINE
  8
10
  6
CONTINUOUS
 10
121.64
 20
131.4310810810811
 11
121.64
 21
132.31313188865
  0
LINE
  8
10
  6
CONTINUOUS
 10
121.14
 20
128.8490302735122
 11
121.14
 21
129.7310810810811
  0
LINE
  8
10
  6
CONTINUOUS
 10
121.14
 20
131.4310810810811
 11
121.14
 21
132.31313188865
  0
ARC
  8
10
  6
CONTINUOUS
 10
122.2400000000001
 20
131.4310810810811
 40
0.6
 50
180.0
 51
270.0
  0
ARC
  8
10
  6
CONTINUOUS
 10
120.54
 20
131.4310810810811
 40
0.6
 50
270.0
 51
0.0
  0
ARC
  8
10
  6
CONTINUOUS
 10
120.54
 20
129.7310810810811
 40
0.6
 50
0.0
 51
90.0
  0
ARC
  8
10
  6
CONTINUOUS
 10
122.2400000000001
 20
129.7310810810811
 40
0.6
 50
90.0
 51
180.0
  0
LINE
  8
6
  6
CONTINUOUS
 10
124.9900000000001
 20
124.3310810810811
 11
124.9900000000001
 21
136.8310810810811
  0
LINE
  8
6
  6
CONTINUOUS
 10
126.68
 20
124.3310810810811
 11
126.68
 21
136.8310810810811
  0
CIRCLE
  8
10
  6
CONTINUOUS
 10
130.28
 20
130.5810810810811
 40
3.15
  0
ARC
  8
10
  6
CONTINUOUS
 10
130.28
 20
130.5810810810811
 40
1.75
 50
0.0
 51
8.213210701738365
  0
ARC
  8
10
  6
CONTINUOUS
 10
130.28
 20
130.5810810810811
 40
1.75
 50
81.78678929826191
 51
98.21321070173811
  0
ARC
  8
10
  6
CONTINUOUS
 10
130.28
 20
130.5810810810811
 40
1.75
 50
171.7867892982617
 51
188.2132107017384
  0
ARC
  8
10
  6
CONTINUOUS
 10
130.28
 20
130.5810810810811
 40
1.75
 50
261.7867892982616
 51
278.2132107017384
  0
ARC
  8
10
  6
CONTINUOUS
 10
130.28
 20
130.5810810810811
 40
1.75
 50
351.7867892982616
 51
0.0
  0
LINE
  8
10
  6
CONTINUOUS
 10
128.5479491924312
 20
130.8310810810811
 11
129.43
 21
130.8310810810811
  0
LINE
  8
10
  6
CONTINUOUS
 10
131.1300000000001
 20
130.8310810810811
 11
132.0120508075689
 21
130.8310810810811
  0
LINE
  8
10
  6
CONTINUOUS
 10
128.5479491924312
 20
130.3310810810811
 11
129.43
 21
130.3310810810811
  0
LINE
  8
10
  6
CONTINUOUS
 10
131.1300000000001
 20
130.3310810810811
 11
132.0120508075689
 21
130.3310810810811
  0
LINE
  8
10
  6
CONTINUOUS
 10
130.53
 20
128.8490302735122
 11
130.53
 21
129.7310810810811
  0
LINE
  8
10
  6
CONTINUOUS
 10
130.53
 20
131.4310810810811
 11
130.53
 21
132.31313188865
  0
LINE
  8
10
  6
CONTINUOUS
 10
130.03
 20
128.8490302735122
 11
130.03
 21
129.7310810810811
  0
LINE
  8
10
  6
CONTINUOUS
 10
130.03
 20
131.4310810810811
 11
130.03
 21
132.31313188865
  0
ARC
  8
10
  6
CONTINUOUS
 10
131.1300000000001
 20
131.4310810810811
 40
0.6
 50
180.0
 51
270.0
  0
ARC
  8
10
  6
CONTINUOUS
 10
129.43
 20
131.4310810810811
 40
0.6
 50
270.0
 51
0.0
  0
ARC
  8
10
  6
CONTINUOUS
 10
129.43
 20
129.7310810810811
 40
0.6
 50
0.0
 51
90.0
  0
ARC
  8
10
  6
CONTINUOUS
 10
131.1300000000001
 20
129.7310810810811
 40
0.6
 50
90.0
 51
180.0
  0
LINE
  8
6
  6
CONTINUOUS
 10
133.8800000000001
 20
124.3310810810811
 11
133.8800000000001
 21
136.8310810810811
  0
LINE
  8
6
  6
CONTINUOUS
 10
135.5600000000001
 20
124.3310810810811
 11
135.5600000000001
 21
136.8310810810811
  0
CIRCLE
  8
10
  6
CONTINUOUS
 10
139.17
 20
130.5810810810811
 40
3.15
  0
ARC
  8
10
  6
CONTINUOUS
 10
139.17
 20
130.5810810810811
 40
1.75
 50
0.0
 51
8.213210701738365
  0
ARC
  8
10
  6
CONTINUOUS
 10
139.17
 20
130.5810810810811
 40
1.75
 50
81.78678929826191
 51
98.21321070173811
  0
ARC
  8
10
  6
CONTINUOUS
 10
139.17
 20
130.5810810810811
 40
1.75
 50
171.7867892982617
 51
188.2132107017384
  0
ARC
  8
10
  6
CONTINUOUS
 10
139.17
 20
130.5810810810811
 40
1.75
 50
261.7867892982616
 51
278.2132107017384
  0
ARC
  8
10
  6
CONTINUOUS
 10
139.17
 20
130.5810810810811
 40
1.75
 50
351.7867892982616
 51
0.0
  0
LINE
  8
10
  6
CONTINUOUS
 10
137.4379491924312
 20
130.8310810810811
 11
138.32
 21
130.8310810810811
  0
LINE
  8
10
  6
CONTINUOUS
 10
140.02
 20
130.8310810810811
 11
140.9020508075689
 21
130.8310810810811
  0
LINE
  8
10
  6
CONTINUOUS
 10
137.4379491924312
 20
130.3310810810811
 11
138.32
 21
130.3310810810811
  0
LINE
  8
10
  6
CONTINUOUS
 10
140.02
 20
130.3310810810811
 11
140.9020508075689
 21
130.3310810810811
  0
LINE
  8
10
  6
CONTINUOUS
 10
139.42
 20
128.8490302735122
 11
139.42
 21
129.7310810810811
  0
LINE
  8
10
  6
CONTINUOUS
 10
139.42
 20
131.4310810810811
 11
139.42
 21
132.31313188865
  0
LINE
  8
10
  6
CONTINUOUS
 10
138.92
 20
128.8490302735122
 11
138.92
 21
129.7310810810811
  0
LINE
  8
10
  6
CONTINUOUS
 10
138.92
 20
131.4310810810811
 11
138.92
 21
132.31313188865
  0
ARC
  8
10
  6
CONTINUOUS
 10
140.02
 20
131.4310810810811
 40
0.6
 50
180.0
 51
270.0
  0
ARC
  8
10
  6
CONTINUOUS
 10
138.32
 20
131.4310810810811
 40
0.6
 50
270.0
 51
0.0
  0
ARC
  8
10
  6
CONTINUOUS
 10
138.32
 20
129.7310810810811
 40
0.6
 50
0.0
 51
90.0
  0
ARC
  8
10
  6
CONTINUOUS
 10
140.02
 20
129.7310810810811
 40
0.6
 50
90.0
 51
180.0
  0
LINE
  8
6
  6
CONTINUOUS
 10
142.7600000000002
 20
124.3310810810811
 11
142.7600000000002
 21
136.8310810810811
  0
LINE
  8
6
  6
CONTINUOUS
 10
145.45
 20
123.2810810810811
 11
145.45
 21
138.5810810810811
  0
LINE
  8
6
  6
CONTINUOUS
 10
79.55000000000001
 20
123.2810810810811
 11
79.55000000000001
 21
138.5810810810811
  0
LINE
  8
3
  6
CONTINUOUS
 10
145.45
 20
123.2810810810811
 11
79.55000000000001
 21
123.2810810810811
  0
LINE
  8
10
  6
CONTINUOUS
 10
159.35
 20
138.5810810810811
 11
165.65
 21
138.5810810810811
  0
LINE
  8
10
  6
CONTINUOUS
 10
165.5362647374163
 20
139.8810810810811
 11
165.65
 21
138.5810810810811
  0
LINE
  8
10
  6
CONTINUOUS
 10
159.4637352625837
 20
139.8810810810811
 11
165.5362647374163
 21
139.8810810810811
  0
LINE
  8
10
  6
CONTINUOUS
 10
159.4637352625837
 20
139.8810810810811
 11
159.35
 21
138.5810810810811
  0
ARC
  8
10
  6
CONTINUOUS
 10
162.5
 20
132.4986614513497
 40
7.98241962973139
 50
67.64346058573025
 51
112.3565394142698
  0
LINE
  8
10
  6
CONTINUOUS
 10
59.34999999999997
 20
138.5810810810811
 11
65.65000000000003
 21
138.5810810810811
  0
LINE
  8
10
  6
CONTINUOUS
 10
65.53626473741628
 20
139.8810810810811
 11
65.65000000000003
 21
138.5810810810811
  0
LINE
  8
10
  6
CONTINUOUS
 10
59.46373526258373
 20
139.8810810810811
 11
65.53626473741628
 21
139.8810810810811
  0
LINE
  8
10
  6
CONTINUOUS
 10
59.46373526258373
 20
139.8810810810811
 11
59.34999999999997
 21
138.5810810810811
  0
ARC
  8
10
  6
CONTINUOUS
 10
62.5
 20
132.4986614513497
 40
7.98241962973139
 50
67.64346058573025
 51
112.3565394142698
  0
LINE
  8
20
  6
CONTINUOUS
 10
185.0
 20
13.58108108108107
 11
0.0
 21
13.58108108108107
  0
LINE
  8
3
  6
CONTINUOUS
 10
5.0
 20
125.0810810810811
 11
5.0
 21
132.0810810810811
  0
LINE
  8
3
  6
CONTINUOUS
 10
25.0
 20
125.0810810810811
 11
25.0
 21
132.0810810810811
  0
LINE
  8
3
  6
CONTINUOUS
 10
23.5
 20
123.5810810810811
 11
6.5
 21
123.5810810810811
  0
LINE
  8
3
  6
CONTINUOUS
 10
23.5
 20
133.5810810810811
 11
6.5
 21
133.5810810810811
  0
ARC
  8
3
  6
CONTINUOUS
 10
23.5
 20
132.0810810810811
 40
1.5
 50
0.0
 51
90.0
  0
ARC
  8
3
  6
CONTINUOUS
 10
23.5
 20
125.0810810810811
 40
1.5
 50
270.0
 51
0.0
  0
ARC
  8
3
  6
CONTINUOUS
 10
6.5
 20
125.0810810810811
 40
1.5
 50
180.0
 51
270.0
  0
ARC
  8
3
  6
CONTINUOUS
 10
6.5
 20
132.0810810810811
 40
1.5
 50
90.0
 51
180.0
  0
LINE
  8
10
  6
CONTINUOUS
 10
176.85
 20
138.5810810810811
 11
183.15
 21
138.5810810810811
  0
LINE
  8
10
  6
CONTINUOUS
 10
183.0362647374163
 20
139.8810810810811
 11
183.15
 21
138.5810810810811
  0
LINE
  8
10
  6
CONTINUOUS
 10
176.9637352625837
 20
139.8810810810811
 11
183.0362647374163
 21
139.8810810810811
  0
LINE
  8
10
  6
CONTINUOUS
 10
176.9637352625837
 20
139.8810810810811
 11
176.85
 21
138.5810810810811
  0
ARC
  8
10
  6
CONTINUOUS
 10
180.0
 20
132.4986614513497
 40
7.98241962973139
 50
67.64346058573025
 51
112.3565394142698
  0
LINE
  8
10
  6
CONTINUOUS
 10
1.849999999999966
 20
138.5810810810811
 11
8.150000000000034
 21
138.5810810810811
  0
LINE
  8
10
  6
CONTINUOUS
 10
8.036264737416275
 20
139.8810810810811
 11
8.150000000000034
 21
138.5810810810811
  0
LINE
  8
10
  6
CONTINUOUS
 10
1.963735262583725
 20
139.8810810810811
 11
8.036264737416275
 21
139.8810810810811
  0
LINE
  8
10
  6
CONTINUOUS
 10
1.963735262583725
 20
139.8810810810811
 11
1.849999999999966
 21
138.5810810810811
  0
ARC
  8
10
  6
CONTINUOUS
 10
5.0
 20
132.4986614513497
 40
7.98241962973139
 50
67.64346058573025
 51
112.3565394142698
  0
LINE
  8
20
  6
CONTINUOUS
 10
145.45
 20
137.5810810810811
 11
79.55000000000001
 21
137.5810810810811
  0
LINE
  8
1
  6
CONTINUOUS
 10
84.66938194610719
 20
120.6106565488249
 11
78.90532467532478
 21
117.2810810810811
  0
LINE
  8
1
  6
CONTINUOUS
 10
87.1703370174971
 20
121.2810810810811
 11
92.72000000000008
 21
121.2810810810811
  0
LINE
  8
1
  6
CONTINUOUS
 10
97.83857142857147
 20
117.2810810810811
 11
102.7492661188605
 21
120.6845328466279
  0
LINE
  8
1
  6
CONTINUOUS
 10
103.6100000000001
 20
122.3283311038409
 11
103.6100000000001
 21
123.2810810810811
  0
LINE
  8
1
  6
CONTINUOUS
 10
112.5
 20
123.2810810810811
 11
112.5
 21
119.0810810810811
  0
LINE
  8
1
  6
CONTINUOUS
 10
127.1614285714286
 20
117.2810810810811
 11
122.2507338811395
 21
120.684532846628
  0
LINE
  8
1
  6
CONTINUOUS
 10
121.39
 20
122.328331103841
 11
121.39
 21
123.2810810810811
  0
LINE
  8
1
  6
CONTINUOUS
 10
137.829662982503
 20
121.2810810810811
 11
132.28
 21
121.2810810810811
  0
ARC
  8
1
  6
CONTINUOUS
 10
92.72000000000008
 20
123.2810810810811
 40
2.0
 50
270.0
 51
0.0
  0
ARC
  8
1
  6
CONTINUOUS
 10
101.6100000000001
 20
122.3283311038409
 40
2.0
 50
304.7246418351207
 51
0.0
  0
ARC
  8
1
  6
CONTINUOUS
 10
123.39
 20
122.328331103841
 40
2.0
 50
180.0
 51
235.2753581648777
  0
ARC
  8
1
  6
CONTINUOUS
 10
132.28
 20
123.2810810810811
 40
2.0
 50
180.0
 51
270.0
  0
ARC
  8
1
  6
CONTINUOUS
 10
137.829662982503
 20
116.2810810810811
 40
5.0
 50
59.98736179224676
 51
90.0
  0
ARC
  8
1
  6
CONTINUOUS
 10
87.1703370174971
 20
116.2810810810811
 40
5.0
 50
90.0
 51
120.0126382077533
  0
LINE
  8
4
  6
CONTINUOUS
 10
98.89032258064515
 20
12.98108108108107
 11
98.0
 21
-0.8189189189189189
  0
LINE
  8
4
  6
CONTINUOUS
 10
76.10967741935485
 20
12.98108108108107
 11
77.0
 21
-0.8189189189189189
  0
LINE
  8
4
  6
CONTINUOUS
 10
118.6096774193549
 20
12.98108108108107
 11
119.5
 21
-0.8189189189189189
  0
LINE
  8
4
  6
CONTINUOUS
 10
141.3903225806452
 20
12.98108108108107
 11
140.5
 21
-0.8189189189189189
  0
LINE
  8
3
  6
CONTINUOUS
 10
36.8428264136341
 20
5.537365951902401
 11
38.83736387118483
 21
12.98108108108107
  0
LINE
  8
3
  6
CONTINUOUS
 10
31.0472714558997
 20
7.090280222517506
 11
32.62570678872436
 21
12.98108108108108
  0
CIRCLE
  8
10
  6
CONTINUOUS
 10
177.5
 20
106.3310810810811
 40
3.15
  0
ARC
  8
10
  6
CONTINUOUS
 10
177.5
 20
106.3310810810811
 40
1.75
 50
0.0
 51
8.213210701738365
  0
ARC
  8
10
  6
CONTINUOUS
 10
177.5
 20
106.3310810810811
 40
1.75
 50
81.78678929826164
 51
98.21321070173838
  0
ARC
  8
10
  6
CONTINUOUS
 10
177.5
 20
106.3310810810811
 40
1.75
 50
171.7867892982617
 51
188.2132107017384
  0
ARC
  8
10
  6
CONTINUOUS
 10
177.5
 20
106.3310810810811
 40
1.75
 50
261.7867892982619
 51
278.2132107017381
  0
ARC
  8
10
  6
CONTINUOUS
 10
177.5
 20
106.3310810810811
 40
1.75
 50
351.7867892982616
 51
0.0
  0
LINE
  8
10
  6
CONTINUOUS
 10
175.7679491924312
 20
106.5810810810811
 11
176.65
 21
106.5810810810811
  0
LINE
  8
10
  6
CONTINUOUS
 10
178.35
 20
106.5810810810811
 11
179.2320508075688
 21
106.5810810810811
  0
LINE
  8
10
  6
CONTINUOUS
 10
175.7679491924312
 20
106.0810810810811
 11
176.65
 21
106.0810810810811
  0
LINE
  8
10
  6
CONTINUOUS
 10
178.35
 20
106.0810810810811
 11
179.2320508075688
 21
106.0810810810811
  0
LINE
  8
10
  6
CONTINUOUS
 10
177.75
 20
104.5990302735122
 11
177.75
 21
105.4810810810811
  0
LINE
  8
10
  6
CONTINUOUS
 10
177.75
 20
107.1810810810811
 11
177.75
 21
108.0631318886499
  0
LINE
  8
10
  6
CONTINUOUS
 10
177.25
 20
104.5990302735122
 11
177.25
 21
105.4810810810811
  0
LINE
  8
10
  6
CONTINUOUS
 10
177.25
 20
107.1810810810811
 11
177.25
 21
108.0631318886499
  0
ARC
  8
10
  6
CONTINUOUS
 10
178.35
 20
107.1810810810811
 40
0.6
 50
180.0
 51
270.0
  0
ARC
  8
10
  6
CONTINUOUS
 10
176.65
 20
107.1810810810811
 40
0.6
 50
270.0
 51
0.0
  0
ARC
  8
10
  6
CONTINUOUS
 10
176.65
 20
105.4810810810811
 40
0.6
 50
0.0
 51
90.0
  0
ARC
  8
10
  6
CONTINUOUS
 10
178.35
 20
105.4810810810811
 40
0.6
 50
90.0
 51
180.0
  0
CIRCLE
  8
10
  6
CONTINUOUS
 10
7.5
 20
106.3310810810811
 40
3.15
  0
ARC
  8
10
  6
CONTINUOUS
 10
7.5
 20
106.3310810810811
 40
1.75
 50
0.0
 51
8.213210701738365
  0
ARC
  8
10
  6
CONTINUOUS
 10
7.5
 20
106.3310810810811
 40
1.75
 50
81.78678929826164
 51
98.21321070173838
  0
ARC
  8
10
  6
CONTINUOUS
 10
7.5
 20
106.3310810810811
 40
1.75
 50
171.7867892982617
 51
188.2132107017384
  0
ARC
  8
10
  6
CONTINUOUS
 10
7.5
 20
106.3310810810811
 40
1.75
 50
261.7867892982619
 51
278.2132107017381
  0
ARC
  8
10
  6
CONTINUOUS
 10
7.5
 20
106.3310810810811
 40
1.75
 50
351.7867892982616
 51
0.0
  0
LINE
  8
10
  6
CONTINUOUS
 10
5.767949192431161
 20
106.5810810810811
 11
6.649999999999977
 21
106.5810810810811
  0
LINE
  8
10
  6
CONTINUOUS
 10
8.350000000000023
 20
106.5810810810811
 11
9.232050807568839
 21
106.5810810810811
  0
LINE
  8
10
  6
CONTINUOUS
 10
5.767949192431161
 20
106.0810810810811
 11
6.649999999999977
 21
106.0810810810811
  0
LINE
  8
10
  6
CONTINUOUS
 10
8.350000000000023
 20
106.0810810810811
 11
9.232050807568839
 21
106.0810810810811
  0
LINE
  8
10
  6
CONTINUOUS
 10
7.75
 20
104.5990302735122
 11
7.75
 21
105.481081081081
  0
LINE
  8
10
  6
CONTINUOUS
 10
7.75
 20
107.181081081081
 11
7.75
 21
108.0631318886499
  0
LINE
  8
10
  6
CONTINUOUS
 10
7.25
 20
104.5990302735122
 11
7.25
 21
105.481081081081
  0
LINE
  8
10
  6
CONTINUOUS
 10
7.25
 20
107.181081081081
 11
7.25
 21
108.0631318886499
  0
ARC
  8
10
  6
CONTINUOUS
 10
8.350000000000023
 20
107.181081081081
 40
0.6
 50
180.0
 51
270.0
  0
ARC
  8
10
  6
CONTINUOUS
 10
6.649999999999977
 20
107.181081081081
 40
0.6
 50
270.0
 51
0.0
  0
ARC
  8
10
  6
CONTINUOUS
 10
6.649999999999977
 20
105.481081081081
 40
0.6
 50
0.0
 51
90.0
  0
ARC
  8
10
  6
CONTINUOUS
 10
8.350000000000023
 20
105.481081081081
 40
0.6
 50
90.0
 51
180.0
  0
LINE
  8
2
  6
CONTINUOUS
 10
167.5
 20
73.98108108108107
 11
17.5
 21
73.98108108108107
  0
LINE
  8
1
  6
CONTINUOUS
 10
37.5
 20
37.98108108108108
 11
37.5
 21
73.98108108108107
  0
LINE
  8
1
  6
CONTINUOUS
 10
37.4670269708713
 20
66.7724528181331
 11
18.00344878101737
 21
73.4057799142268
  0
LINE
  8
1
  6
CONTINUOUS
 10
50.5
 20
37.98108108108108
 11
50.5
 21
73.98108108108107
  0
LINE
  8
1
  6
CONTINUOUS
 10
63.5
 20
37.98108108108108
 11
63.5
 21
73.98108108108107
  0
LINE
  8
1
  6
CONTINUOUS
 10
76.5
 20
37.98108108108108
 11
76.5
 21
73.98108108108107
  0
LINE
  8
1
  6
CONTINUOUS
 10
89.5
 20
37.98108108108108
 11
89.5
 21
73.98108108108107
  0
LINE
  8
1
  6
CONTINUOUS
 10
102.5
 20
37.98108108108108
 11
102.5
 21
73.98108108108107
  0
LINE
  8
1
  6
CONTINUOUS
 10
115.5
 20
37.98108108108108
 11
115.5
 21
73.98108108108107
  0
LINE
  8
1
  6
CONTINUOUS
 10
128.5
 20
37.98108108108108
 11
128.5
 21
73.98108108108107
  0
LINE
  8
1
  6
CONTINUOUS
 10
141.5
 20
37.98108108108108
 11
141.5
 21
73.98108108108107
  0
LINE
  8
1
  6
CONTINUOUS
 10
154.5
 20
37.98108108108108
 11
154.5
 21
73.98108108108107
  0
LINE
  8
2
  6
CONTINUOUS
 10
167.5
 20
37.98108108108108
 11
17.5
 21
37.98108108108108
  0
LINE
  8
2
  6
CONTINUOUS
 10
167.5
 20
45.18108108108107
 11
17.5
 21
45.18108108108107
  0
LINE
  8
2
  6
CONTINUOUS
 10
167.5
 20
52.38108108108109
 11
17.5
 21
52.38108108108109
  0
LINE
  8
2
  6
CONTINUOUS
 10
167.5
 20
59.58108108108107
 11
17.5
 21
59.58108108108107
  0
LINE
  8
2
  6
CONTINUOUS
 10
167.5
 20
66.78108108108106
 11
17.5
 21
66.78108108108106
  0
LINE
  8
1
  6
CONTINUOUS
 10
17.5
 20
37.98108108108108
 11
17.5
 21
73.98108108108107
  0
LINE
  8
1
  6
CONTINUOUS
 10
167.5
 20
37.98108108108108
 11
167.5
 21
73.98108108108107
  0
LINE
  8
10
  6
CONTINUOUS
 10
32.24999618530273
 20
134.0810852050781
 11
48.24999618530273
 21
134.0810852050781
  0
LINE
  8
10
  6
CONTINUOUS
 10
32.24999618530273
 20
113.0810852050781
 11
48.24999618530273
 21
113.0810852050781
  0
LINE
  8
10
  6
CONTINUOUS
 10
29.74999618530273
 20
115.5810852050781
 11
29.74999618530273
 21
131.5810852050781
  0
LINE
  8
10
  6
CONTINUOUS
 10
50.74999618530273
 20
115.5810852050781
 11
50.74999618530273
 21
131.5810852050781
  0
CIRCLE
  8
10
  6
CONTINUOUS
 10
48.24999618530273
 20
131.5810852050781
 40
2.25
  0
ARC
  8
10
  6
CONTINUOUS
 10
48.24999618530273
 20
131.5810852050781
 40
1.299999952316284
 50
0.0
 51
8.849803607575071
  0
ARC
  8
10
  6
CONTINUOUS
 10
48.24999618530273
 20
131.5810852050781
 40
1.299999952316284
 50
81.14953188469715
 51
98.85046811530285
  0
ARC
  8
10
  6
CONTINUOUS
 10
48.24999618530273
 20
131.5810852050781
 40
1.299999952316284
 50
171.1501963924249
 51
188.8498036075751
  0
ARC
  8
10
  6
CONTINUOUS
 10
48.24999618530273
 20
131.5810852050781
 40
1.299999952316284
 50
261.1496353539726
 51
278.8503646460274
  0
ARC
  8
10
  6
CONTINUOUS
 10
48.24999618530273
 20
131.5810852050781
 40
1.299999952316284
 50
351.1501963924249
 51
0.0
  0
LINE
  8
10
  6
CONTINUOUS
 10
46.96548080444336
 20
131.7810821533203
 11
47.54998397827148
 21
131.7810821533203
  0
LINE
  8
10
  6
CONTINUOUS
 10
48.95000839233398
 20
131.7810821533203
 11
49.53451156616211
 21
131.7810821533203
  0
LINE
  8
10
  6
CONTINUOUS
 10
46.96548080444336
 20
131.3810882568359
 11
47.54998397827148
 21
131.3810882568359
  0
LINE
  8
10
  6
CONTINUOUS
 10
48.95000839233398
 20
131.3810882568359
 11
49.53451156616211
 21
131.3810882568359
  0
LINE
  8
10
  6
CONTINUOUS
 10
48.45000839233398
 20
130.2965545654297
 11
48.45000839233398
 21
130.8810882568359
  0
LINE
  8
10
  6
CONTINUOUS
 10
48.45000839233398
 20
132.2810821533203
 11
48.45000839233398
 21
132.8656005859375
  0
LINE
  8
10
  6
CONTINUOUS
 10
48.04998397827148
 20
130.2965545654297
 11
48.04998397827148
 21
130.8810882568359
  0
LINE
  8
10
  6
CONTINUOUS
 10
48.04998397827148
 20
132.2810821533203
 11
48.04998397827148
 21
132.8656005859375
  0
ARC
  8
10
  6
CONTINUOUS
 10
48.95000839233398
 20
132.2810821533203
 40
0.5
 50
180.0
 51
270.0
  0
ARC
  8
10
  6
CONTINUOUS
 10
47.54998397827148
 20
132.2810821533203
 40
0.5
 50
270.0
 51
0.0
  0
ARC
  8
10
  6
CONTINUOUS
 10
47.54998397827148
 20
130.8810882568359
 40
0.5
 50
0.0
 51
90.0
  0
ARC
  8
10
  6
CONTINUOUS
 10
48.95000839233398
 20
130.8810882568359
 40
0.5
 50
90.0
 51
180.0
  0
CIRCLE
  8
10
  6
CONTINUOUS
 10
48.24999618530273
 20
115.5810852050781
 40
2.25
  0
ARC
  8
10
  6
CONTINUOUS
 10
48.24999618530273
 20
115.5810852050781
 40
1.299999952316284
 50
0.0
 51
8.849803607575071
  0
ARC
  8
10
  6
CONTINUOUS
 10
48.24999618530273
 20
115.5810852050781
 40
1.299999952316284
 50
81.14958361963488
 51
98.85041638036512
  0
ARC
  8
10
  6
CONTINUOUS
 10
48.24999618530273
 20
115.5810852050781
 40
1.299999952316284
 50
171.1501963924249
 51
188.8498036075751
  0
ARC
  8
10
  6
CONTINUOUS
 10
48.24999618530273
 20
115.5810852050781
 40
1.299999952316284
 50
261.1495836196349
 51
278.8504163803651
  0
ARC
  8
10
  6
CONTINUOUS
 10
48.24999618530273
 20
115.5810852050781
 40
1.299999952316284
 50
351.1501963924249
 51
0.0
  0
LINE
  8
10
  6
CONTINUOUS
 10
46.96548080444336
 20
115.7810821533203
 11
47.54998397827148
 21
115.7810821533203
  0
LINE
  8
10
  6
CONTINUOUS
 10
48.95000839233398
 20
115.7810821533203
 11
49.53451156616211
 21
115.7810821533203
  0
LINE
  8
10
  6
CONTINUOUS
 10
46.96548080444336
 20
115.3810882568359
 11
47.54998397827148
 21
115.3810882568359
  0
LINE
  8
10
  6
CONTINUOUS
 10
48.95000839233398
 20
115.3810882568359
 11
49.53451156616211
 21
115.3810882568359
  0
LINE
  8
10
  6
CONTINUOUS
 10
48.45000839233398
 20
114.2965621948242
 11
48.45000839233398
 21
114.8810882568359
  0
LINE
  8
10
  6
CONTINUOUS
 10
48.45000839233398
 20
116.2810821533203
 11
48.45000839233398
 21
116.865608215332
  0
LINE
  8
10
  6
CONTINUOUS
 10
48.04998397827148
 20
114.2965621948242
 11
48.04998397827148
 21
114.8810882568359
  0
LINE
  8
10
  6
CONTINUOUS
 10
48.04998397827148
 20
116.2810821533203
 11
48.04998397827148
 21
116.865608215332
  0
ARC
  8
10
  6
CONTINUOUS
 10
48.95000839233398
 20
116.2810821533203
 40
0.5
 50
180.0
 51
270.0
  0
ARC
  8
10
  6
CONTINUOUS
 10
47.54998397827148
 20
116.2810821533203
 40
0.5
 50
270.0
 51
0.0
  0
ARC
  8
10
  6
CONTINUOUS
 10
47.54998397827148
 20
114.8810882568359
 40
0.5
 50
0.0
 51
90.0
  0
ARC
  8
10
  6
CONTINUOUS
 10
48.95000839233398
 20
114.8810882568359
 40
0.5
 50
90.0
 51
180.0
  0
CIRCLE
  8
10
  6
CONTINUOUS
 10
32.24999618530273
 20
115.5810852050781
 40
2.25
  0
ARC
  8
10
  6
CONTINUOUS
 10
32.24999618530273
 20
115.5810852050781
 40
1.299999952316284
 50
0.0
 51
8.849803607575071
  0
ARC
  8
10
  6
CONTINUOUS
 10
32.24999618530273
 20
115.5810852050781
 40
1.299999952316284
 50
81.14958361963488
 51
98.85041638036512
  0
ARC
  8
10
  6
CONTINUOUS
 10
32.24999618530273
 20
115.5810852050781
 40
1.299999952316284
 50
171.1501963924249
 51
188.8498036075751
  0
ARC
  8
10
  6
CONTINUOUS
 10
32.24999618530273
 20
115.5810852050781
 40
1.299999952316284
 50
261.1495836196349
 51
278.8504163803651
  0
ARC
  8
10
  6
CONTINUOUS
 10
32.24999618530273
 20
115.5810852050781
 40
1.299999952316284
 50
351.1501963924249
 51
0.0
  0
LINE
  8
10
  6
CONTINUOUS
 10
30.96548080444336
 20
115.7810821533203
 11
31.54998397827148
 21
115.7810821533203
  0
LINE
  8
10
  6
CONTINUOUS
 10
32.95000839233398
 20
115.7810821533203
 11
33.53451156616211
 21
115.7810821533203
  0
LINE
  8
10
  6
CONTINUOUS
 10
30.96548080444336
 20
115.3810882568359
 11
31.54998397827148
 21
115.3810882568359
  0
LINE
  8
10
  6
CONTINUOUS
 10
32.95000839233398
 20
115.3810882568359
 11
33.53451156616211
 21
115.3810882568359
  0
LINE
  8
10
  6
CONTINUOUS
 10
32.45000839233398
 20
114.2965621948242
 11
32.45000839233398
 21
114.8810882568359
  0
LINE
  8
10
  6
CONTINUOUS
 10
32.45000839233398
 20
116.2810821533203
 11
32.45000839233398
 21
116.865608215332
  0
LINE
  8
10
  6
CONTINUOUS
 10
32.04998397827148
 20
114.2965621948242
 11
32.04998397827148
 21
114.8810882568359
  0
LINE
  8
10
  6
CONTINUOUS
 10
32.04998397827148
 20
116.2810821533203
 11
32.04998397827148
 21
116.865608215332
  0
ARC
  8
10
  6
CONTINUOUS
 10
32.95000839233398
 20
116.2810821533203
 40
0.5
 50
180.0
 51
270.0
  0
ARC
  8
10
  6
CONTINUOUS
 10
31.54998397827148
 20
116.2810821533203
 40
0.5
 50
270.0
 51
0.0
  0
ARC
  8
10
  6
CONTINUOUS
 10
31.54998397827148
 20
114.8810882568359
 40
0.5
 50
0.0
 51
90.0
  0
ARC
  8
10
  6
CONTINUOUS
 10
32.95000839233398
 20
114.8810882568359
 40
0.5
 50
90.0
 51
180.0
  0
CIRCLE
  8
10
  6
CONTINUOUS
 10
32.24999618530273
 20
131.5810852050781
 40
2.25
  0
ARC
  8
10
  6
CONTINUOUS
 10
32.24999618530273
 20
131.5810852050781
 40
1.299999952316284
 50
0.0
 51
8.849803607575071
  0
ARC
  8
10
  6
CONTINUOUS
 10
32.24999618530273
 20
131.5810852050781
 40
1.299999952316284
 50
81.14953188469715
 51
98.85046811530285
  0
ARC
  8
10
  6
CONTINUOUS
 10
32.24999618530273
 20
131.5810852050781
 40
1.299999952316284
 50
171.1501963924249
 51
188.8498036075751
  0
ARC
  8
10
  6
CONTINUOUS
 10
32.24999618530273
 20
131.5810852050781
 40
1.299999952316284
 50
261.1496353539726
 51
278.8503646460274
  0
ARC
  8
10
  6
CONTINUOUS
 10
32.24999618530273
 20
131.5810852050781
 40
1.299999952316284
 50
351.1501963924249
 51
0.0
  0
LINE
  8
10
  6
CONTINUOUS
 10
30.96548080444336
 20
131.7810821533203
 11
31.54998397827148
 21
131.7810821533203
  0
LINE
  8
10
  6
CONTINUOUS
 10
32.95000839233398
 20
131.7810821533203
 11
33.53451156616211
 21
131.7810821533203
  0
LINE
  8
10
  6
CONTINUOUS
 10
30.96548080444336
 20
131.3810882568359
 11
31.54998397827148
 21
131.3810882568359
  0
LINE
  8
10
  6
CONTINUOUS
 10
32.95000839233398
 20
131.3810882568359
 11
33.53451156616211
 21
131.3810882568359
  0
LINE
  8
10
  6
CONTINUOUS
 10
32.45000839233398
 20
130.2965545654297
 11
32.45000839233398
 21
130.8810882568359
  0
LINE
  8
10
  6
CONTINUOUS
 10
32.45000839233398
 20
132.2810821533203
 11
32.45000839233398
 21
132.8656005859375
  0
LINE
  8
10
  6
CONTINUOUS
 10
32.04998397827148
 20
130.2965545654297
 11
32.04998397827148
 21
130.8810882568359
  0
LINE
  8
10
  6
CONTINUOUS
 10
32.04998397827148
 20
132.2810821533203
 11
32.04998397827148
 21
132.8656005859375
  0
ARC
  8
10
  6
CONTINUOUS
 10
32.95000839233398
 20
132.2810821533203
 40
0.5
 50
180.0
 51
270.0
  0
ARC
  8
10
  6
CONTINUOUS
 10
31.54998397827148
 20
132.2810821533203
 40
0.5
 50
270.0
 51
0.0
  0
ARC
  8
10
  6
CONTINUOUS
 10
31.54998397827148
 20
130.8810882568359
 40
0.5
 50
0.0
 51
90.0
  0
ARC
  8
10
  6
CONTINUOUS
 10
32.95000839233398
 20
130.8810882568359
 40
0.5
 50
90.0
 51
180.0
  0
ARC
  8
10
  6
CONTINUOUS
 10
48.24999618530273
 20
131.5810852050781
 40
2.5
 50
0.0
 51
90.0
  0
ARC
  8
10
  6
CONTINUOUS
 10
48.24999618530273
 20
115.5810852050781
 40
2.5
 50
270.0
 51
0.0
  0
ARC
  8
10
  6
CONTINUOUS
 10
32.24999618530273
 20
115.5810852050781
 40
2.5
 50
180.0
 51
270.0
  0
ARC
  8
10
  6
CONTINUOUS
 10
32.24999618530273
 20
131.5810852050781
 40
2.5
 50
90.0
 51
180.0
  0
CIRCLE
  8
10
  6
CONTINUOUS
 10
40.24999618530273
 20
123.5810852050781
 40
8.0
  0
CIRCLE
  8
10
  6
CONTINUOUS
 10
40.24999618530273
 20
123.5810852050781
 40
7.0
  0
CIRCLE
  8
10
  6
CONTINUOUS
 10
40.24999618530273
 20
123.5810852050781
 40
6.0
  0
LINE
  8
10
  6
CONTINUOUS
 10
39.74999618530273
 20
129.7810821533203
 11
39.74999618530273
 21
130.5632019042969
  0
LINE
  8
10
  6
CONTINUOUS
 10
40.74999618530273
 20
129.7810821533203
 11
40.74999618530273
 21
130.5632019042969
  0
LINE
  8
10
  6
CONTINUOUS
 10
39.74999618530273
 20
129.7810821533203
 11
40.74999618530273
 21
129.7810821533203
  0
CIRCLE
  8
10
  6
CONTINUOUS
 10
40.24999618530273
 20
119.5810852050781
 40
0.800000011920929
  0
CIRCLE
  8
10
  6
CONTINUOUS
 10
43.37731552124023
 20
121.0871276855469
 40
0.800000011920929
  0
CIRCLE
  8
10
  6
CONTINUOUS
 10
44.14971542358398
 20
124.4711608886719
 40
0.800000011920929
  0
CIRCLE
  8
10
  6
CONTINUOUS
 10
41.98553085327148
 20
127.1849594116211
 40
0.800000011920929
  0
CIRCLE
  8
10
  6
CONTINUOUS
 10
38.51446151733398
 20
127.1849594116211
 40
0.800000011920929
  0
CIRCLE
  8
10
  6
CONTINUOUS
 10
36.35027694702148
 20
124.4711608886719
 40
0.800000011920929
  0
CIRCLE
  8
10
  6
CONTINUOUS
 10
37.12267684936523
 20
121.0871276855469
 40
0.800000011920929
  0
CIRCLE
  8
10
  6
CONTINUOUS
 10
40.24999618530273
 20
123.5810852050781
 40
0.800000011920929
  0
LINE
  8
1
  6
CONTINUOUS
 10
140.3306180538928
 20
120.6106565488249
 11
146.0946753246752
 21
117.2810810810811
  0
LINE
  8
10
  6
CONTINUOUS
 10
184.918100876571
 20
80.92123040564938
 11
184.918100876571
 21
74.62123040564931
  0
LINE
  8
10
  6
CONTINUOUS
 10
186.218100876571
 20
74.73496566823307
 11
184.918100876571
 21
74.62123040564931
  0
LINE
  8
10
  6
CONTINUOUS
 10
186.218100876571
 20
80.80749514306562
 11
186.218100876571
 21
74.73496566823307
  0
LINE
  8
10
  6
CONTINUOUS
 10
186.218100876571
 20
80.80749514306562
 11
184.918100876571
 21
80.92123040564938
  0
ARC
  8
10
  6
CONTINUOUS
 10
178.8356812468396
 20
77.77123040564935
 40
7.98241962973139
 50
337.6434605857302
 51
22.35653941426975
  0
LINE
  8
10
  6
CONTINUOUS
 10
184.918100876571
 20
31.92123040564938
 11
184.918100876571
 21
25.62123040564931
  0
LINE
  8
10
  6
CONTINUOUS
 10
186.218100876571
 20
25.73496566823307
 11
184.918100876571
 21
25.62123040564931
  0
LINE
  8
10
  6
CONTINUOUS
 10
186.218100876571
 20
31.80749514306562
 11
186.218100876571
 21
25.73496566823307
  0
LINE
  8
10
  6
CONTINUOUS
 10
186.218100876571
 20
31.80749514306562
 11
184.918100876571
 21
31.92123040564938
  0
ARC
  8
10
  6
CONTINUOUS
 10
178.8356812468396
 20
28.77123040564934
 40
7.98241962973139
 50
337.6434605857302
 51
22.35653941426975
  0
LINE
  8
10
  6
CONTINUOUS
 10
0.08189912342896832
 20
80.92123040564938
 11
0.08189912342896832
 21
74.62123040564931
  0
LINE
  8
10
  6
CONTINUOUS
 10
-1.218100876571043
 20
74.73496566823307
 11
0.08189912342896832
 21
74.62123040564931
  0
LINE
  8
10
  6
CONTINUOUS
 10
-1.218100876571043
 20
80.80749514306562
 11
-1.218100876571043
 21
74.73496566823307
  0
LINE
  8
10
  6
CONTINUOUS
 10
-1.218100876571043
 20
80.80749514306562
 11
0.08189912342896832
 21
80.92123040564938
  0
ARC
  8
10
  6
CONTINUOUS
 10
6.164318753160387
 20
77.77123040564935
 40
7.98241962973139
 50
157.6434605857303
 51
202.3565394142698
  0
LINE
  8
10
  6
CONTINUOUS
 10
0.08189912342896832
 20
31.92123040564938
 11
0.08189912342896832
 21
25.62123040564931
  0
LINE
  8
10
  6
CONTINUOUS
 10
-1.218100876571043
 20
25.73496566823307
 11
0.08189912342896832
 21
25.62123040564931
  0
LINE
  8
10
  6
CONTINUOUS
 10
-1.218100876571043
 20
31.80749514306562
 11
-1.218100876571043
 21
25.73496566823307
  0
LINE
  8
10
  6
CONTINUOUS
 10
-1.218100876571043
 20
31.80749514306562
 11
0.08189912342896832
 21
31.92123040564938
  0
ARC
  8
10
  6
CONTINUOUS
 10
6.164318753160387
 20
28.77123040564934
 40
7.98241962973139
 50
157.6434605857303
 51
202.3565394142698
  0
LINE
  8
4
  6
CONTINUOUS
 10
139.807852804032
 20
-74.81666564310865
 11
141.033834404536
 21
-74.57280274058846
  0
LINE
  8
4
  6
CONTINUOUS
 10
138.314696123025
 20
-71.21186653307396
 11
139.354033138403
 21
-70.51740374179936
  0
ARC
  8
4
  6
CONTINUOUS
 10
130.0
 20
-76.76756886326986
 40
10.5
 50
0.0
 51
11.24999999999971
  0
ARC
  8
4
  6
CONTINUOUS
 10
130.0
 20
-76.76756886326986
 40
9.99999999999992
 50
11.24999999999993
 51
33.75000000000137
  0
ARC
  8
4
  6
CONTINUOUS
 10
130.0
 20
-76.76756886326986
 40
10.4999999999999
 50
348.7500000000003
 51
0.0
  0
ARC
  8
4
  6
CONTINUOUS
 10
130.0
 20
-76.76756886326986
 40
10.5
 50
45.0000000000028
 51
56.2499999999992
  0
ARC
  8
4
  6
CONTINUOUS
 10
130.0
 20
-76.76756886326986
 40
9.99999999999992
 50
56.24999999999963
 51
78.75000000000151
  0
LINE
  8
4
  6
CONTINUOUS
 10
131.950903220161
 20
-66.95971605923765
 11
132.194766122681
 21
-65.73373445873355
  0
LINE
  8
4
  6
CONTINUOUS
 10
135.555702330196
 20
-68.45287274024456
 11
136.25016512147
 21
-67.41353572486625
  0
ARC
  8
4
  6
CONTINUOUS
 10
130.0
 20
-76.76756886326986
 40
10.4999999999999
 50
33.75000000000217
 51
45.00000000000236
  0
CIRCLE
  8
4
  6
CONTINUOUS
 10
130.0
 20
-76.76756886326986
 40
11.5
  0
ARC
  8
4
  6
CONTINUOUS
 10
130.0
 20
-76.76756886326986
 40
11.25
 50
56.2500000000022
 51
78.75000000000223
  0
ARC
  8
4
  6
CONTINUOUS
 10
130.0
 20
-76.76756886326986
 40
11.25
 50
11.25000000000015
 51
33.75000000000171
  0
ARC
  8
4
  6
CONTINUOUS
 10
130.0
 20
-76.76756886326986
 40
9.99999999999992
 50
146.2500000000024
 51
168.7500000000012
  0
LINE
  8
4
  6
CONTINUOUS
 10
120.192147195967
 20
-74.81666564310865
 11
118.966165595463
 21
-74.57280274058846
  0
ARC
  8
4
  6
CONTINUOUS
 10
130.0
 20
-76.76756886326986
 40
10.5
 50
135.0000000000012
 51
146.2500000000009
  0
ARC
  8
4
  6
CONTINUOUS
 10
130.0
 20
-76.76756886326986
 40
11.25
 50
146.2500000000012
 51
168.7500000000009
  0
LINE
  8
4
  6
CONTINUOUS
 10
121.685303876974
 20
-71.21186653307396
 11
120.645966861596
 21
-70.51740374179936
  0
ARC
  8
4
  6
CONTINUOUS
 10
130.0
 20
-76.76756886326986
 40
9.99999999999992
 50
101.2500000000043
 51
123.7500000000004
  0
ARC
  8
4
  6
CONTINUOUS
 10
130.0
 20
-76.76756886326986
 40
10.4999999999999
 50
123.7500000000013
 51
135.0000000000016
  0
LINE
  8
4
  6
CONTINUOUS
 10
124.444297669804
 20
-68.45287274024456
 11
123.749834878529
 21
-67.41353572486625
  0
ARC
  8
4
  6
CONTINUOUS
 10
130.0
 20
-76.76756886326986
 40
11.25
 50
101.2500000000029
 51
123.7500000000022
  0
LINE
  8
4
  6
CONTINUOUS
 10
128.049096779838
 20
-66.95971605923776
 11
127.805233877318
 21
-65.73373445873355
  0
ARC
  8
4
  6
CONTINUOUS
 10
130.0
 20
-76.76756886326986
 40
10.5
 50
90.0
 51
101.2500000000035
  0
ARC
  8
4
  6
CONTINUOUS
 10
130.0
 20
-76.76756886326986
 40
10.4999999999999
 50
78.75000000000183
 51
90.0
  0
ARC
  8
4
  6
CONTINUOUS
 10
130.0
 20
-76.76756886326986
 40
9.99999999999992
 50
326.2499999999986
 51
348.7499999999996
  0
LINE
  8
4
  6
CONTINUOUS
 10
139.807852804032
 20
-78.71847208343115
 11
141.033834404536
 21
-78.96233498595136
  0
ARC
  8
4
  6
CONTINUOUS
 10
130.0
 20
-76.76756886326986
 40
11.25
 50
326.2499999999979
 51
348.7499999999994
  0
LINE
  8
4
  6
CONTINUOUS
 10
138.314696123025
 20
-82.32327119346576
 11
139.354033138403
 21
-83.01773398474046
  0
ARC
  8
4
  6
CONTINUOUS
 10
130.0
 20
-76.76756886326986
 40
9.99999999999992
 50
281.2499999999984
 51
303.7500000000001
  0
ARC
  8
4
  6
CONTINUOUS
 10
130.0
 20
-76.76756886326986
 40
10.4999999999999
 50
303.7500000000008
 51
314.9999999999973
  0
LINE
  8
4
  6
CONTINUOUS
 10
135.555702330196
 20
-85.08226498629526
 11
136.25016512147
 21
-86.12160200167355
  0
ARC
  8
4
  6
CONTINUOUS
 10
130.0
 20
-76.76756886326986
 40
11.25
 50
281.2499999999977
 51
303.7499999999976
  0
LINE
  8
4
  6
CONTINUOUS
 10
131.950903220161
 20
-86.57542166730195
 11
132.194766122681
 21
-87.80140326780625
  0
ARC
  8
4
  6
CONTINUOUS
 10
130.0
 20
-76.76756886326986
 40
10.5
 50
270.0
 51
281.2499999999981
  0
ARC
  8
4
  6
CONTINUOUS
 10
130.0
 20
-76.76756886326986
 40
10.5
 50
314.9999999999969
 51
326.2499999999974
  0
ARC
  8
4
  6
CONTINUOUS
 10
130.0
 20
-76.76756886326986
 40
10.4999999999999
 50
258.7499999999965
 51
270.0
  0
ARC
  8
4
  6
CONTINUOUS
 10
130.0
 20
-76.76756886326986
 40
9.99999999999992
 50
236.2499999999999
 51
258.7499999999959
  0
LINE
  8
4
  6
CONTINUOUS
 10
128.049096779838
 20
-86.57542166730207
 11
127.805233877318
 21
-87.80140326780625
  0
ARC
  8
4
  6
CONTINUOUS
 10
130.0
 20
-76.76756886326986
 40
11.25
 50
236.2499999999981
 51
258.7499999999972
  0
LINE
  8
4
  6
CONTINUOUS
 10
124.444297669804
 20
-85.08226498629516
 11
123.749834878529
 21
-86.12160200167355
  0
ARC
  8
4
  6
CONTINUOUS
 10
130.0
 20
-76.76756886326986
 40
9.99999999999992
 50
191.2499999999993
 51
213.7499999999981
  0
ARC
  8
4
  6
CONTINUOUS
 10
130.0
 20
-76.76756886326986
 40
10.4999999999999
 50
213.7499999999991
 51
224.9999999999988
  0
LINE
  8
4
  6
CONTINUOUS
 10
121.685303876974
 20
-82.32327119346586
 11
120.645966861596
 21
-83.01773398474046
  0
ARC
  8
4
  6
CONTINUOUS
 10
130.0
 20
-76.76756886326986
 40
11.25
 50
191.2499999999996
 51
213.7499999999993
  0
ARC
  8
4
  6
CONTINUOUS
 10
130.0
 20
-76.76756886326986
 40
10.5
 50
224.9999999999992
 51
236.2499999999994
  0
ARC
  8
4
  6
CONTINUOUS
 10
130.0
 20
-76.76756886326986
 40
10.4999999999999
 50
168.7500000000003
 51
180.0
  0
ARC
  8
4
  6
CONTINUOUS
 10
130.0
 20
-76.76756886326986
 40
10.5
 50
180.0
 51
191.2500000000001
  0
CIRCLE
  8
4
  6
CONTINUOUS
 10
130.0
 20
-76.76756886326986
 40
8.699999999999999
  0
LINE
  8
4
  6
CONTINUOUS
 10
120.192147195967
 20
-78.71847208343115
 11
118.966165595463
 21
-78.96233498595136
  0
LINE
  8
1
  6
CONTINUOUS
 10
130.0
 20
-91.26756886326986
 11
130.0
 21
-87.26756886326976
  0
LINE
  8
4
  6
CONTINUOUS
 10
122.75
 20
-89.32493721814426
 11
124.25
 21
-86.72686100679096
  0
LINE
  8
4
  6
CONTINUOUS
 10
117.442631645125
 20
-84.01756886326986
 11
120.040707856479
 21
-82.51756886326986
  0
LINE
  8
4
  6
CONTINUOUS
 10
117.442631645125
 20
-69.51756886326986
 11
120.040707856479
 21
-71.01756886326986
  0
LINE
  8
4
  6
CONTINUOUS
 10
122.75
 20
-64.21020050839556
 11
124.375
 21
-67.02478307069495
  0
LINE
  8
4
  6
CONTINUOUS
 10
142.557368354874
 20
-84.01756886326986
 11
139.742785792575
 21
-82.39256886326986
  0
LINE
  8
4
  6
CONTINUOUS
 10
142.557368354874
 20
-69.51756886326986
 11
140.825317547305
 21
-70.51756886326986
  0
LINE
  8
4
  6
CONTINUOUS
 10
137.25
 20
-64.21020050839556
 11
135.625
 21
-67.02478307069495
  0
LINE
  8
1
  6
CONTINUOUS
 10
130.0
 20
-62.26756886326986
 11
130.0
 21
-65.51756886326986
  0
LINE
  8
3
  6
CONTINUOUS
 10
118.546966552734
 20
-76.76756886326986
 11
120.276870727539
 21
-76.76756886326986
  0
CIRCLE
  8
4
  6
CONTINUOUS
 10
87.49999999999969
 20
-76.76756886326986
 40
11.5
  0
ARC
  8
4
  6
CONTINUOUS
 10
87.49999999999969
 20
-76.76756886326986
 40
9.99999999999992
 50
146.2500000000004
 51
168.7500000000003
  0
LINE
  8
4
  6
CONTINUOUS
 10
77.69214719596749
 20
-74.81666564310865
 11
76.4661655954633
 21
-74.57280274058846
  0
ARC
  8
4
  6
CONTINUOUS
 10
87.49999999999969
 20
-76.76756886326986
 40
10.5
 50
134.9999999999999
 51
146.25
  0
ARC
  8
4
  6
CONTINUOUS
 10
87.49999999999969
 20
-76.76756886326986
 40
11.25
 50
146.25
 51
168.7500000000003
  0
LINE
  8
4
  6
CONTINUOUS
 10
79.18530387697439
 20
-71.21186653307396
 11
78.14596686159609
 21
-70.51740374179936
  0
ARC
  8
4
  6
CONTINUOUS
 10
87.49999999999969
 20
-76.76756886326986
 40
9.99999999999992
 50
101.2500000000002
 51
123.7500000000004
  0
ARC
  8
4
  6
CONTINUOUS
 10
87.49999999999969
 20
-76.76756886326986
 40
10.4999999999999
 50
123.7500000000003
 51
135.0000000000004
  0
LINE
  8
4
  6
CONTINUOUS
 10
81.94429766980369
 20
-68.45287274024456
 11
81.24983487852919
 21
-67.41353572486625
  0
ARC
  8
4
  6
CONTINUOUS
 10
87.49999999999969
 20
-76.76756886326986
 40
11.25
 50
101.2499999999998
 51
123.75
  0
LINE
  8
4
  6
CONTINUOUS
 10
85.54909677983849
 20
-66.95971605923776
 11
85.30523387731829
 21
-65.73373445873355
  0
ARC
  8
4
  6
CONTINUOUS
 10
87.49999999999969
 20
-76.76756886326986
 40
10.5
 50
90.0
 51
101.2499999999997
  0
ARC
  8
4
  6
CONTINUOUS
 10
87.49999999999969
 20
-76.76756886326986
 40
10.4999999999999
 50
168.7500000000001
 51
180.0
  0
CIRCLE
  8
4
  6
CONTINUOUS
 10
87.49999999999969
 20
-76.76756886326986
 40
8.699999999999999
  0
ARC
  8
4
  6
CONTINUOUS
 10
87.49999999999969
 20
-76.76756886326986
 40
10.5
 50
0.0
 51
11.24999999999982
  0
ARC
  8
4
  6
CONTINUOUS
 10
87.49999999999969
 20
-76.76756886326986
 40
9.99999999999992
 50
11.24999999999969
 51
33.75000000000006
  0
ARC
  8
4
  6
CONTINUOUS
 10
87.49999999999969
 20
-76.76756886326986
 40
10.5
 50
44.99999999999962
 51
56.25000000000004
  0
ARC
  8
4
  6
CONTINUOUS
 10
87.49999999999969
 20
-76.76756886326986
 40
9.99999999999992
 50
56.24999999999963
 51
78.74999999999976
  0
ARC
  8
4
  6
CONTINUOUS
 10
87.49999999999969
 20
-76.76756886326986
 40
10.4999999999999
 50
33.75000000000027
 51
44.99999999999956
  0
LINE
  8
4
  6
CONTINUOUS
 10
89.450903220161
 20
-66.95971605923765
 11
89.69476612268109
 21
-65.73373445873355
  0
ARC
  8
4
  6
CONTINUOUS
 10
87.49999999999969
 20
-76.76756886326986
 40
11.25
 50
56.2499999999996
 51
78.75000000000019
  0
LINE
  8
4
  6
CONTINUOUS
 10
93.05570233019559
 20
-68.45287274024456
 11
93.75016512147029
 21
-67.41353572486625
  0
LINE
  8
4
  6
CONTINUOUS
 10
95.81469612302499
 20
-71.21186653307396
 11
96.8540331384033
 21
-70.51740374179936
  0
ARC
  8
4
  6
CONTINUOUS
 10
87.49999999999969
 20
-76.76756886326986
 40
11.25
 50
11.24999999999973
 51
33.74999999999998
  0
LINE
  8
4
  6
CONTINUOUS
 10
97.3078528040318
 20
-74.81666564310865
 11
98.53383440453609
 21
-74.57280274058846
  0
ARC
  8
4
  6
CONTINUOUS
 10
87.49999999999969
 20
-76.76756886326986
 40
10.4999999999999
 50
78.75000000000009
 51
90.0
  0
ARC
  8
4
  6
CONTINUOUS
 10
87.49999999999969
 20
-76.76756886326986
 40
10.4999999999999
 50
348.7500000000001
 51
0.0
  0
ARC
  8
4
  6
CONTINUOUS
 10
87.49999999999969
 20
-76.76756886326986
 40
9.99999999999992
 50
326.2499999999999
 51
348.7499999999998
  0
LINE
  8
4
  6
CONTINUOUS
 10
97.3078528040319
 20
-78.71847208343115
 11
98.53383440453609
 21
-78.96233498595136
  0
ARC
  8
4
  6
CONTINUOUS
 10
87.49999999999969
 20
-76.76756886326986
 40
11.25
 50
326.2499999999996
 51
348.7499999999998
  0
LINE
  8
4
  6
CONTINUOUS
 10
95.81469612302499
 20
-82.32327119346576
 11
96.8540331384033
 21
-83.01773398474046
  0
ARC
  8
4
  6
CONTINUOUS
 10
87.49999999999969
 20
-76.76756886326986
 40
9.99999999999992
 50
281.2500000000002
 51
303.7500000000001
  0
ARC
  8
4
  6
CONTINUOUS
 10
87.49999999999969
 20
-76.76756886326986
 40
10.4999999999999
 50
303.7499999999999
 51
315.0000000000001
  0
LINE
  8
4
  6
CONTINUOUS
 10
93.05570233019569
 20
-85.08226498629526
 11
93.75016512147029
 21
-86.12160200167355
  0
ARC
  8
4
  6
CONTINUOUS
 10
87.49999999999969
 20
-76.76756886326986
 40
11.25
 50
281.2499999999997
 51
303.7500000000002
  0
LINE
  8
4
  6
CONTINUOUS
 10
89.450903220161
 20
-86.57542166730195
 11
89.69476612268109
 21
-87.80140326780625
  0
ARC
  8
4
  6
CONTINUOUS
 10
87.49999999999969
 20
-76.76756886326986
 40
10.5
 50
270.0
 51
281.2500000000003
  0
ARC
  8
4
  6
CONTINUOUS
 10
87.49999999999969
 20
-76.76756886326986
 40
10.5
 50
315.0000000000001
 51
326.2499999999999
  0
ARC
  8
4
  6
CONTINUOUS
 10
87.49999999999969
 20
-76.76756886326986
 40
10.4999999999999
 50
258.7500000000002
 51
270.0
  0
ARC
  8
4
  6
CONTINUOUS
 10
87.49999999999969
 20
-76.76756886326986
 40
9.99999999999992
 50
236.2499999999999
 51
258.7500000000005
  0
LINE
  8
4
  6
CONTINUOUS
 10
85.54909677983849
 20
-86.57542166730207
 11
85.30523387731829
 21
-87.80140326780625
  0
ARC
  8
4
  6
CONTINUOUS
 10
87.49999999999969
 20
-76.76756886326986
 40
11.25
 50
236.2500000000003
 51
258.7500000000002
  0
LINE
  8
4
  6
CONTINUOUS
 10
81.94429766980379
 20
-85.08226498629516
 11
81.24983487852919
 21
-86.12160200167355
  0
ARC
  8
4
  6
CONTINUOUS
 10
87.49999999999969
 20
-76.76756886326986
 40
9.99999999999992
 50
191.2500000000002
 51
213.7500000000001
  0
ARC
  8
4
  6
CONTINUOUS
 10
87.49999999999969
 20
-76.76756886326986
 40
10.4999999999999
 50
213.7500000000003
 51
225.0
  0
LINE
  8
4
  6
CONTINUOUS
 10
79.18530387697439
 20
-82.32327119346586
 11
78.14596686159609
 21
-83.01773398474046
  0
ARC
  8
4
  6
CONTINUOUS
 10
87.49999999999969
 20
-76.76756886326986
 40
11.25
 50
191.2500000000002
 51
213.7500000000004
  0
ARC
  8
4
  6
CONTINUOUS
 10
87.49999999999969
 20
-76.76756886326986
 40
10.5
 50
225.0000000000004
 51
236.2500000000003
  0
ARC
  8
4
  6
CONTINUOUS
 10
87.49999999999969
 20
-76.76756886326986
 40
10.5
 50
180.0
 51
191.2500000000003
  0
LINE
  8
4
  6
CONTINUOUS
 10
77.69214719596749
 20
-78.71847208343115
 11
76.46616559546339
 21
-78.96233498595136
  0
LINE
  8
3
  6
CONTINUOUS
 10
76.00025939941379
 20
-76.76756886326986
 11
77.8143348693845
 21
-76.76756886326986
  0
ARC
  8
3
  6
CONTINUOUS
 10
34.40148655407899
 20
-83.76019373406815
 40
2.99417679752508
 50
91.84481693380505
 51
268.1551830661949
  0
ARC
  8
3
  6
CONTINUOUS
 10
34.20870608289599
 20
-83.76019373406815
 40
2.99417679752511
 50
271.8448169338051
 51
88.15518306619497
  0
LINE
  8
3
  6
CONTINUOUS
 10
34.30509631848749
 20
-80.76756886326986
 11
37.20287379735458
 21
-80.76756886326986
  0
LINE
  8
3
  6
CONTINUOUS
 10
34.30509631848749
 20
-86.75281860486636
 11
37.20287379735458
 21
-86.75281860486636
  0
ARC
  8
3
  6
CONTINUOUS
 10
37.20287379735458
 20
-83.76756886326986
 40
3.0
 50
270.0
 51
0.0
  0
ARC
  8
3
  6
CONTINUOUS
 10
37.20287379735458
 20
-83.76756886326986
 40
3.0
 50
0.0
 51
90.0
  0
ARC
  8
3
  6
CONTINUOUS
 10
37.20287379735458
 20
-83.76756886326986
 40
3.5
 50
270.0
 51
0.0
  0
ARC
  8
3
  6
CONTINUOUS
 10
37.20287379735458
 20
-83.76756886326986
 40
3.5
 50
0.0
 51
90.0
  0
ARC
  8
1
  6
CONTINUOUS
 10
38.99999999999968
 20
-83.76756886326986
 40
3.5
 50
270.0
 51
90.0
  0
LINE
  8
1
  6
CONTINUOUS
 10
35.99999999999968
 20
-87.26756886326986
 11
38.99999999999968
 21
-87.26756886326986
  0
LINE
  8
1
  6
CONTINUOUS
 10
35.99999999999968
 20
-80.26756886326986
 11
38.99999999999968
 21
-80.26756886326986
  0
ARC
  8
1
  6
CONTINUOUS
 10
35.99999999999968
 20
-83.76756886326986
 40
3.5
 50
90.0
 51
121.197202630408
  0
ARC
  8
1
  6
CONTINUOUS
 10
35.99999999999968
 20
-83.76756886326986
 40
3.49999999999999
 50
238.2741051907137
 51
270.0
  0
LINE
  8
2
  6
CONTINUOUS
 10
11.18828678131104
 20
-62.78237533569336
 11
11.18828678131104
 21
-62.14239501953125
  0
LINE
  8
2
  6
CONTINUOUS
 10
20.14824676513672
 20
-62.78237533569336
 11
20.14824676513672
 21
-62.14239501953125
  0
LINE
  8
2
  6
CONTINUOUS
 10
20.14824676513672
 20
-59.42239379882813
 11
20.14824676513672
 21
-58.78237533569336
  0
LINE
  8
2
  6
CONTINUOUS
 10
19.74834632873535
 20
-62.14239501953125
 11
19.74834632873535
 21
-59.42239379882813
  0
LINE
  8
2
  6
CONTINUOUS
 10
18.22832679748535
 20
-62.14239501953125
 11
18.62822532653809
 21
-62.14239501953125
  0
LINE
  8
2
  6
CONTINUOUS
 10
19.74834632873535
 20
-62.14239501953125
 11
20.14824676513672
 21
-62.14239501953125
  0
LINE
  8
2
  6
CONTINUOUS
 10
20.14824676513672
 20
-59.42239379882813
 11
19.74834632873535
 21
-59.42239379882813
  0
LINE
  8
2
  6
CONTINUOUS
 10
18.24907684326172
 20
-58.78237533569336
 11
20.14824676513672
 21
-58.78237533569336
  0
LINE
  8
2
  6
CONTINUOUS
 10
18.22832679748535
 20
-62.78237533569336
 11
20.14824676513672
 21
-62.78237533569336
  0
POLYLINE
  8
2
  6
CONTINUOUS
 66
     1
 70
     0
 40
0.0
 41
0.0
  0
VERTEX
  8
2
 10
18.22832679748535
 20
-62.78237533569336
  0
VERTEX
  8
2
 10
20.14824676513672
 20
-62.78237533569336
  0
VERTEX
  8
2
 10
20.14824676513672
 20
-62.14239501953125
  0
VERTEX
  8
2
 10
19.74834632873535
 20
-62.14239501953125
  0
VERTEX
  8
2
 10
19.74834632873535
 20
-59.42239379882813
  0
VERTEX
  8
2
 10
20.14824676513672
 20
-59.42239379882813
  0
VERTEX
  8
2
 10
20.14824676513672
 20
-58.78237533569336
  0
VERTEX
  8
2
 10
18.24907684326172
 20
-58.78237533569336
  0
VERTEX
  8
2
 10
16.78838539123535
 20
-61.44949340820313
  0
VERTEX
  8
2
 10
15.32744598388672
 20
-58.78237533569336
  0
VERTEX
  8
2
 10
13.42827701568604
 20
-58.78237533569336
  0
VERTEX
  8
2
 10
13.42827701568604
 20
-59.42239379882813
  0
VERTEX
  8
2
 10
13.82830715179443
 20
-59.42239379882813
  0
VERTEX
  8
2
 10
13.82830715179443
 20
-62.14239501953125
  0
VERTEX
  8
2
 10
13.42827701568604
 20
-62.14239501953125
  0
VERTEX
  8
2
 10
13.42827701568604
 20
-62.78237533569336
  0
VERTEX
  8
2
 10
15.34832572937012
 20
-62.78237533569336
  0
VERTEX
  8
2
 10
15.34832572937012
 20
-62.14239501953125
  0
VERTEX
  8
2
 10
14.94829559326172
 20
-62.14239501953125
  0
VERTEX
  8
2
 10
14.94829559326172
 20
-59.42233657836914
  0
VERTEX
  8
2
 10
16.78838539123535
 20
-62.78176498413086
  0
VERTEX
  8
2
 10
18.62822532653809
 20
-59.42233657836914
  0
VERTEX
  8
2
 10
18.62822532653809
 20
-62.14239501953125
  0
VERTEX
  8
2
 10
18.22832679748535
 20
-62.14239501953125
  0
VERTEX
  8
2
 10
18.22832679748535
 20
-62.78237533569336
  0
SEQEND
  8
2
  0
POLYLINE
  8
2
  6
CONTINUOUS
 66
     1
 70
     0
 40
0.0
 41
0.0
  0
VERTEX
  8
2
 10
25.38823509216309
 20
-62.78237533569336
  0
VERTEX
  8
2
 10
20.46831512451172
 20
-62.78237533569336
  0
VERTEX
  8
2
 10
20.46831512451172
 20
-62.14239501953125
  0
VERTEX
  8
2
 10
20.86821556091309
 20
-62.14239501953125
  0
VERTEX
  8
2
 10
20.86821556091309
 20
-59.42239379882813
  0
VERTEX
  8
2
 10
20.46831512451172
 20
-59.42239379882813
  0
VERTEX
  8
2
 10
20.46831512451172
 20
-58.78237533569336
  0
VERTEX
  8
2
 10
25.38823509216309
 20
-58.78237533569336
 42
-0.6771388312021767
  0
VERTEX
  8
2
 10
26.18828582763672
 20
-60.78237533569336
  0
SEQEND
  8
2
  0
POLYLINE
  8
2
  6
CONTINUOUS
 66
     1
 70
     0
 40
0.0
 41
0.0
  0
VERTEX
  8
2
 10
24.90825653076172
 20
-62.14239501953125
  0
VERTEX
  8
2
 10
21.98833656311035
 20
-62.14239501953125
  0
VERTEX
  8
2
 10
21.98833656311035
 20
-61.10238647460938
  0
SEQEND
  8
2
  0
POLYLINE
  8
2
  6
CONTINUOUS
 66
     1
 70
     0
 40
0.0
 41
0.0
  0
VERTEX
  8
2
 10
21.98833656311035
 20
-60.46237564086914
  0
VERTEX
  8
2
 10
24.90862655639648
 20
-60.46237564086914
 42
0.414181321955879
  0
VERTEX
  8
2
 10
25.42824558201454
 20
-59.94207384035599
 42
0.4142070870947531
  0
VERTEX
  8
2
 10
24.90801619247486
 20
-59.42236705740584
  0
VERTEX
  8
2
 10
21.98833656311035
 20
-59.42239379882813
  0
VERTEX
  8
2
 10
21.98833656311035
 20
-60.46237564086914
  0
SEQEND
  8
2
  0
POLYLINE
  8
2
  6
CONTINUOUS
 66
     1
 70
     0
 40
0.0
 41
0.0
  0
VERTEX
  8
2
 10
21.98833656311035
 20
-62.14239501953125
  0
VERTEX
  8
2
 10
24.90825653076172
 20
-62.14239501953125
 42
0.4143145488187793
  0
VERTEX
  8
2
 10
25.42827603110406
 20
-61.62219619752042
 42
0.4142479826812997
  0
VERTEX
  8
2
 10
24.90801619074091
 20
-61.10235598166316
  0
VERTEX
  8
2
 10
21.98833656311035
 20
-61.10238647460938
  0
VERTEX
  8
2
 10
21.98833656311035
 20
-62.14239501953125
  0
SEQEND
  8
2
  0
POLYLINE
  8
2
  6
CONTINUOUS
 66
     1
 70
     0
 40
0.0
 41
0.0
  0
VERTEX
  8
2
 10
18.62822532653809
 20
-62.14239501953125
  0
VERTEX
  8
2
 10
18.62822532653809
 20
-59.42233657836914
  0
VERTEX
  8
2
 10
16.78838539123535
 20
-62.78176498413086
  0
VERTEX
  8
2
 10
14.94829559326172
 20
-59.42233657836914
  0
VERTEX
  8
2
 10
14.94829559326172
 20
-62.14239501953125
  0
VERTEX
  8
2
 10
15.34832572937012
 20
-62.14239501953125
  0
VERTEX
  8
2
 10
15.34832572937012
 20
-62.78237533569336
  0
VERTEX
  8
2
 10
13.42827701568604
 20
-62.78237533569336
  0
VERTEX
  8
2
 10
13.42827701568604
 20
-62.14239501953125
  0
VERTEX
  8
2
 10
13.82830715179443
 20
-62.14239501953125
  0
VERTEX
  8
2
 10
13.82830715179443
 20
-59.42239379882813
  0
VERTEX
  8
2
 10
13.42827701568604
 20
-59.42239379882813
  0
VERTEX
  8
2
 10
13.42827701568604
 20
-58.78237533569336
  0
VERTEX
  8
2
 10
15.32744598388672
 20
-58.78237533569336
  0
VERTEX
  8
2
 10
16.78838539123535
 20
-61.44949340820313
  0
VERTEX
  8
2
 10
18.24907684326172
 20
-58.78237533569336
  0
VERTEX
  8
2
 10
20.14824676513672
 20
-58.78237533569336
  0
VERTEX
  8
2
 10
20.14824676513672
 20
-59.42239379882813
  0
VERTEX
  8
2
 10
19.74834632873535
 20
-59.42239379882813
  0
VERTEX
  8
2
 10
19.74834632873535
 20
-62.14239501953125
  0
VERTEX
  8
2
 10
20.14824676513672
 20
-62.14239501953125
  0
VERTEX
  8
2
 10
20.14824676513672
 20
-62.78237533569336
  0
VERTEX
  8
2
 10
18.22832679748535
 20
-62.78237533569336
  0
VERTEX
  8
2
 10
18.22832679748535
 20
-62.14239501953125
  0
VERTEX
  8
2
 10
18.62822532653809
 20
-62.14239501953125
  0
SEQEND
  8
2
  0
POLYLINE
  8
2
  6
CONTINUOUS
 66
     1
 70
     0
 40
0.0
 41
0.0
  0
VERTEX
  8
2
 10
21.98833656311035
 20
-59.42239379882813
  0
VERTEX
  8
2
 10
21.98833656311035
 20
-60.46237564086914
  0
VERTEX
  8
2
 10
24.90862655639648
 20
-60.46237564086914
  0
VERTEX
  8
2
 10
21.98833656311035
 20
-60.46237564086914
  0
VERTEX
  8
2
 10
21.98833656311035
 20
-59.42239379882813
  0
SEQEND
  8
2
  0
POLYLINE
  8
2
  6
CONTINUOUS
 66
     1
 70
     0
 40
0.0
 41
0.0
  0
VERTEX
  8
2
 10
24.90825653076172
 20
-60.46237564086914
  0
VERTEX
  8
2
 10
21.98833656311035
 20
-60.46237564086914
  0
VERTEX
  8
2
 10
21.98833656311035
 20
-59.42239379882813
  0
VERTEX
  8
2
 10
24.90825653076172
 20
-59.42239379882813
  0
VERTEX
  8
2
 10
21.98833656311035
 20
-59.42239379882813
  0
VERTEX
  8
2
 10
21.98833656311035
 20
-60.46237564086914
  0
VERTEX
  8
2
 10
24.90825653076172
 20
-60.46237564086914
  0
SEQEND
  8
2
  0
POLYLINE
  8
2
  6
CONTINUOUS
 66
     1
 70
     0
 40
0.0
 41
0.0
  0
VERTEX
  8
2
 10
21.98833656311035
 20
-61.10238647460938
  0
VERTEX
  8
2
 10
24.90801620483398
 20
-61.10238647460938
  0
VERTEX
  8
2
 10
21.98833656311035
 20
-61.10238647460938
  0
SEQEND
  8
2
  0
POLYLINE
  8
3
  6
CONTINUOUS
 66
     1
 70
     0
 40
0.0
 41
0.0
  0
VERTEX
  8
3
 10
8.228313961982094
 20
-59.42172184583346
  0
VERTEX
  8
3
 10
8.228313961982094
 20
-62.14239445325536
  0
VERTEX
  8
3
 10
8.628216305732094
 20
-62.14239445325536
  0
VERTEX
  8
3
 10
8.628216305732094
 20
-62.78237858411476
  0
VERTEX
  8
3
 10
6.708294430732096
 20
-62.78237858411476
  0
VERTEX
  8
3
 10
6.708294430732096
 20
-62.14239445325536
  0
VERTEX
  8
3
 10
7.108318844794596
 20
-62.14239445325536
  0
VERTEX
  8
3
 10
7.108318844794596
 20
-59.42239323255226
  0
VERTEX
  8
3
 10
6.708294430732096
 20
-59.42239323255226
  0
VERTEX
  8
3
 10
6.708294430732096
 20
-58.78237858411476
  0
VERTEX
  8
3
 10
8.455608883857094
 20
-58.78237858411476
  0
VERTEX
  8
3
 10
11.58829931354459
 20
-61.31823673841156
  0
VERTEX
  8
3
 10
11.58829931354459
 20
-59.42239323255226
  0
VERTEX
  8
3
 10
11.18827489948209
 20
-59.42239323255226
  0
VERTEX
  8
3
 10
11.18827489948209
 20
-58.78237858411476
  0
VERTEX
  8
3
 10
13.10831884479459
 20
-58.78237858411476
  0
VERTEX
  8
3
 10
13.10831884479459
 20
-59.42239323255226
  0
VERTEX
  8
3
 10
12.70829443073209
 20
-59.42239323255226
  0
VERTEX
  8
3
 10
12.70829443073209
 20
-62.14239445325536
  0
VERTEX
  8
3
 10
13.10831884479459
 20
-62.14239445325536
  0
VERTEX
  8
3
 10
13.10831884479459
 20
-62.78237858411476
  0
VERTEX
  8
3
 10
11.18827489948209
 20
-62.78237858411476
  0
VERTEX
  8
3
 10
11.18827489948209
 20
-62.14239445325536
  0
VERTEX
  8
3
 10
11.58915380573209
 20
-62.14239445325536
  0
VERTEX
  8
3
 10
8.228313961982094
 20
-59.42172184583346
  0
SEQEND
  8
3
  0
POLYLINE
  8
3
  6
CONTINUOUS
 66
     1
 70
     0
 40
0.0
 41
0.0
  0
VERTEX
  8
3
 10
13.82828954791959
 20
-62.14239445325536
  0
VERTEX
  8
3
 10
13.82828954791959
 20
-59.42239323255226
  0
VERTEX
  8
3
 10
13.42826513385709
 20
-59.42239323255226
  0
VERTEX
  8
3
 10
13.42826513385709
 20
-58.78237858411476
  0
VERTEX
  8
3
 10
15.32743505573209
 20
-58.78237858411476
  0
VERTEX
  8
3
 10
16.78837255573209
 20
-61.44949284192726
  0
VERTEX
  8
3
 10
18.24906591510709
 20
-58.78237858411476
  0
VERTEX
  8
3
 10
20.14823583698209
 20
-58.78237858411476
  0
VERTEX
  8
3
 10
20.14823583698209
 20
-59.42239323255226
  0
VERTEX
  8
3
 10
19.74833349323209
 20
-59.42239323255226
  0
VERTEX
  8
3
 10
19.74833349323209
 20
-62.14239445325536
  0
VERTEX
  8
3
 10
20.14823583698209
 20
-62.14239445325536
  0
VERTEX
  8
3
 10
20.14823583698209
 20
-62.78237858411476
  0
VERTEX
  8
3
 10
18.22831396198209
 20
-62.78237858411476
  0
VERTEX
  8
3
 10
18.22831396198209
 20
-62.14239445325536
  0
VERTEX
  8
3
 10
18.62821630573209
 20
-62.14239445325536
  0
VERTEX
  8
3
 10
18.62821630573209
 20
-59.42233219739596
  0
VERTEX
  8
3
 10
16.78837255573209
 20
-62.78176823255226
  0
VERTEX
  8
3
 10
14.94828466510709
 20
-59.42233219739596
  0
VERTEX
  8
3
 10
14.94828466510709
 20
-62.14239445325536
  0
VERTEX
  8
3
 10
15.34830907916959
 20
-62.14239445325536
  0
VERTEX
  8
3
 10
15.34830907916959
 20
-62.78237858411476
  0
VERTEX
  8
3
 10
13.42826513385709
 20
-62.78237858411476
  0
VERTEX
  8
3
 10
13.42826513385709
 20
-62.14239445325536
  0
VERTEX
  8
3
 10
13.82828954791959
 20
-62.14239445325536
  0
SEQEND
  8
3
  0
POLYLINE
  8
3
  6
CONTINUOUS
 66
     1
 70
     0
 40
0.0
 41
0.0
  0
VERTEX
  8
3
 10
20.46831512451172
 20
-58.78237533569336
  0
VERTEX
  8
3
 10
25.38823509216309
 20
-58.78237533569336
  0
SEQEND
  8
3
  0
POLYLINE
  8
3
  6
CONTINUOUS
 66
     1
 70
     0
 40
0.0
 41
0.0
  0
VERTEX
  8
3
 10
26.18828582763672
 20
-60.78237533569336
 42
0.6770711284391526
  0
VERTEX
  8
3
 10
25.38823509216309
 20
-58.78237533569336
  0
SEQEND
  8
3
  0
POLYLINE
  8
3
  6
CONTINUOUS
 66
     1
 70
     0
 40
0.0
 41
0.0
  0
VERTEX
  8
3
 10
25.38823509216309
 20
-62.78237533569336
 42
0.6771360972507153
  0
VERTEX
  8
3
 10
26.18828582763672
 20
-60.78237533569336
  0
SEQEND
  8
3
  0
POLYLINE
  8
3
  6
CONTINUOUS
 66
     1
 70
     0
 40
0.0
 41
0.0
  0
VERTEX
  8
3
 10
20.46831512451172
 20
-62.78237533569336
  0
VERTEX
  8
3
 10
25.38823509216309
 20
-62.78237533569336
  0
SEQEND
  8
3
  0
POLYLINE
  8
3
  6
CONTINUOUS
 66
     1
 70
     0
 40
0.0
 41
0.0
  0
VERTEX
  8
3
 10
20.46831512451172
 20
-62.78237533569336
  0
VERTEX
  8
3
 10
20.46831512451172
 20
-62.14239501953125
  0
SEQEND
  8
3
  0
POLYLINE
  8
3
  6
CONTINUOUS
 66
     1
 70
     0
 40
0.0
 41
0.0
  0
VERTEX
  8
3
 10
20.46831512451172
 20
-62.14239501953125
  0
VERTEX
  8
3
 10
20.86821556091309
 20
-62.14239501953125
  0
SEQEND
  8
3
  0
POLYLINE
  8
3
  6
CONTINUOUS
 66
     1
 70
     0
 40
0.0
 41
0.0
  0
VERTEX
  8
3
 10
20.86821556091309
 20
-62.14239501953125
  0
VERTEX
  8
3
 10
20.86821556091309
 20
-59.42239379882813
  0
SEQEND
  8
3
  0
POLYLINE
  8
3
  6
CONTINUOUS
 66
     1
 70
     0
 40
0.0
 41
0.0
  0
VERTEX
  8
3
 10
20.46831512451172
 20
-59.42239379882813
  0
VERTEX
  8
3
 10
20.86821556091309
 20
-59.42239379882813
  0
SEQEND
  8
3
  0
POLYLINE
  8
3
  6
CONTINUOUS
 66
     1
 70
     0
 40
0.0
 41
0.0
  0
VERTEX
  8
3
 10
20.46831512451172
 20
-59.42239379882813
  0
VERTEX
  8
3
 10
20.46831512451172
 20
-58.78237533569336
  0
SEQEND
  8
3
  0
POLYLINE
  8
3
  6
CONTINUOUS
 66
     1
 70
     0
 40
0.0
 41
0.0
  0
VERTEX
  8
3
 10
21.98833656311035
 20
-59.42239379882813
  0
VERTEX
  8
3
 10
24.90825653076172
 20
-59.42239379882813
  0
SEQEND
  8
3
  0
POLYLINE
  8
3
  6
CONTINUOUS
 66
     1
 70
     0
 40
0.0
 41
0.0
  0
VERTEX
  8
3
 10
24.90825653076172
 20
-60.46237564086914
 42
0.4142135623730974
  0
VERTEX
  8
3
 10
25.42824554443359
 20
-59.94238662719727
 42
0.4142479409380595
  0
VERTEX
  8
3
 10
24.90825653076172
 20
-59.42236709594727
  0
SEQEND
  8
3
  0
POLYLINE
  8
3
  6
CONTINUOUS
 66
     1
 70
     0
 40
0.0
 41
0.0
  0
VERTEX
  8
3
 10
21.98833656311035
 20
-60.46237564086914
  0
VERTEX
  8
3
 10
24.90825653076172
 20
-60.46237564086914
  0
SEQEND
  8
3
  0
POLYLINE
  8
3
  6
CONTINUOUS
 66
     1
 70
     0
 40
0.0
 41
0.0
  0
VERTEX
  8
3
 10
21.98833656311035
 20
-60.46237564086914
  0
VERTEX
  8
3
 10
21.98833656311035
 20
-59.42239379882813
  0
SEQEND
  8
3
  0
POLYLINE
  8
3
  6
CONTINUOUS
 66
     1
 70
     0
 40
0.0
 41
0.0
  0
VERTEX
  8
3
 10
21.98833656311035
 20
-61.10238647460938
  0
VERTEX
  8
3
 10
24.90801620483398
 20
-61.10238647460938
  0
SEQEND
  8
3
  0
POLYLINE
  8
3
  6
CONTINUOUS
 66
     1
 70
     0
 40
0.0
 41
0.0
  0
VERTEX
  8
3
 10
24.90825653076172
 20
-62.14239501953125
 42
0.4142995078281532
  0
VERTEX
  8
3
 10
25.428276039625
 20
-61.62222290039719
 42
0.4142630135247292
  0
VERTEX
  8
3
 10
24.90801619074485
 20
-61.1023559901841
  0
SEQEND
  8
3
  0
POLYLINE
  8
3
  6
CONTINUOUS
 66
     1
 70
     0
 40
0.0
 41
0.0
  0
VERTEX
  8
3
 10
21.98833656311035
 20
-62.14239501953125
  0
VERTEX
  8
3
 10
24.90825653076172
 20
-62.14239501953125
  0
SEQEND
  8
3
  0
POLYLINE
  8
3
  6
CONTINUOUS
 66
     1
 70
     0
 40
0.0
 41
0.0
  0
VERTEX
  8
3
 10
21.98833656311035
 20
-62.14239501953125
  0
VERTEX
  8
3
 10
21.98833656311035
 20
-61.10238647460938
  0
SEQEND
  8
3
  0
LINE
  8
3
  6
CONTINUOUS
 10
2.999999999999695
 20
-53.16756886326986
 11
182.0
 21
-53.16756886326986
  0
LINE
  8
3
  6
CONTINUOUS
 10
2.999999999999695
 20
-100.3675688632699
 11
182.0
 21
-100.3675688632699
  0
LINE
  8
3
  6
CONTINUOUS
 10
-2.995381720438672E-013
 20
-97.3675688632699
 11
-2.995381720438672E-013
 21
-56.16756886326986
  0
LINE
  8
3
  6
CONTINUOUS
 10
185.0
 20
-97.76756886326989
 11
185.0
 21
-56.16756886326986
  0
LINE
  8
1
  6
CONTINUOUS
 10
117.5
 20
-76.76756886326986
 11
115.5
 21
-76.76756886326986
  0
LINE
  8
3
  6
CONTINUOUS
 10
139.742785792575
 20
-71.14256886326996
 11
142.557368354874
 21
-69.51756886326996
  0
LINE
  8
3
  6
CONTINUOUS
 10
117.5
 20
-76.76756886326986
 11
115.5
 21
-76.76756886326986
  0
LINE
  8
3
  6
CONTINUOUS
 10
75.99999999999969
 20
-76.76756886326986
 11
72.99999999999969
 21
-76.76756886326986
  0
LINE
  8
4
  6
CONTINUOUS
 10
74.94263164512529
 20
-69.51756886326986
 11
77.54070785647869
 21
-71.01756886326986
  0
LINE
  8
4
  6
CONTINUOUS
 10
80.24999999999969
 20
-64.21020050839556
 11
81.74999999999969
 21
-66.80827671974886
  0
LINE
  8
4
  6
CONTINUOUS
 10
74.94263164512529
 20
-84.01756886326986
 11
77.54070785647869
 21
-82.51756886326986
  0
ARC
  8
3
  6
CONTINUOUS
 10
2.999999999999695
 20
-97.3675688632699
 40
3.0
 50
180.0
 51
270.0
  0
ARC
  8
3
  6
CONTINUOUS
 10
2.999999999999695
 20
-56.16756886326986
 40
3.0
 50
90.0
 51
180.0
  0
ARC
  8
3
  6
CONTINUOUS
 10
182.0
 20
-56.16756886326986
 40
3.0
 50
0.0
 51
90.0
  0
ARC
  8
3
  6
CONTINUOUS
 10
182.0
 20
-97.3675688632699
 40
3.0
 50
270.0
 51
0.0
  0
LINE
  8
3
  6
CONTINUOUS
 10
4.799999999999716
 20
-56.96756886326986
 11
59.08512401193598
 21
-56.96756886326986
  0
LINE
  8
3
  6
CONTINUOUS
 10
3.799999999999716
 20
-70.12241845420076
 11
51.49016805946298
 21
-70.12241845420076
  0
LINE
  8
3
  6
CONTINUOUS
 10
3.799999999999716
 20
-70.12241845420076
 11
3.799999999999716
 21
-57.96756886326986
  0
LINE
  8
3
  6
CONTINUOUS
 10
51.49016805946298
 20
-70.12241845420076
 11
59.08512401193598
 21
-56.96756886326986
  0
LINE
  8
20
  6
CONTINUOUS
 10
2.999999999999695
 20
-54.16756886326986
 11
182.0
 21
-54.16756886326986
  0
ARC
  8
20
  6
CONTINUOUS
 10
182.0
 20
-56.16756886326986
 40
2.0
 50
0.0
 51
90.0
  0
LINE
  8
20
  6
CONTINUOUS
 10
184.0
 20
-97.76756886326989
 11
184.0
 21
-56.16756886326986
  0
ARC
  8
20
  6
CONTINUOUS
 10
182.0
 20
-97.3675688632699
 40
2.0
 50
270.0
 51
0.0
  0
LINE
  8
20
  6
CONTINUOUS
 10
2.999999999999695
 20
-99.3675688632699
 11
182.0
 21
-99.3675688632699
  0
ARC
  8
20
  6
CONTINUOUS
 10
2.999999999999695
 20
-97.3675688632699
 40
2.0
 50
180.0
 51
270.0
  0
LINE
  8
20
  6
CONTINUOUS
 10
0.9999999999996954
 20
-97.3675688632699
 11
0.9999999999996954
 21
-56.16756886326986
  0
ARC
  8
20
  6
CONTINUOUS
 10
2.999999999999695
 20
-56.16756886326986
 40
2.0
 50
90.0
 51
180.0
  0
LINE
  8
20
  6
CONTINUOUS
 10
27.99999999999969
 20
-79.26756886326986
 11
46.99999999999968
 21
-79.26756886326986
  0
LINE
  8
20
  6
CONTINUOUS
 10
27.99999999999969
 20
-88.26756886326986
 11
46.99999999999968
 21
-88.26756886326986
  0
ARC
  8
20
  6
CONTINUOUS
 10
46.99999999999968
 20
-83.76756886326986
 40
4.5
 50
270.0
 51
90.0
  0
ARC
  8
20
  6
CONTINUOUS
 10
27.99999999999969
 20
-83.76756886326986
 40
4.5
 50
90.0
 51
270.0
  0
LINE
  8
20
  6
CONTINUOUS
 10
3.999999999999706
 20
-55.16756886326986
 11
181.0
 21
-55.16756886326986
  0
LINE
  8
20
  6
CONTINUOUS
 10
183.0
 20
-96.7675688632699
 11
183.0
 21
-57.16756886326986
  0
LINE
  8
20
  6
CONTINUOUS
 10
3.999999999999706
 20
-98.3675688632699
 11
181.0
 21
-98.3675688632699
  0
LINE
  8
20
  6
CONTINUOUS
 10
1.999999999999696
 20
-96.3675688632699
 11
1.999999999999696
 21
-57.16756886326986
  0
LINE
  8
20
  6
CONTINUOUS
 10
3.799999999999716
 20
-55.96756886326986
 11
181.2
 21
-55.96756886326986
  0
LINE
  8
20
  6
CONTINUOUS
 10
2.799999999999716
 20
-96.56756886326988
 11
2.799999999999716
 21
-56.96756886326986
  0
LINE
  8
20
  6
CONTINUOUS
 10
3.799999999999716
 20
-97.56756886326988
 11
181.2
 21
-97.56756886326988
  0
LINE
  8
20
  6
CONTINUOUS
 10
182.2
 20
-96.96756886326988
 11
182.2
 21
-56.96756886326986
  0
ARC
  8
20
  6
CONTINUOUS
 10
3.799999999999716
 20
-56.96756886326986
 40
1.0
 50
90.0
 51
180.0
  0
ARC
  8
20
  6
CONTINUOUS
 10
3.799999999999716
 20
-96.56756886326988
 40
1.0
 50
180.0
 51
270.0
  0
ARC
  8
20
  6
CONTINUOUS
 10
3.999999999999706
 20
-57.16756886326986
 40
2.0
 50
90.0
 51
180.0
  0
ARC
  8
20
  6
CONTINUOUS
 10
3.999999999999706
 20
-96.3675688632699
 40
2.0
 50
180.0
 51
270.0
  0
ARC
  8
20
  6
CONTINUOUS
 10
181.0
 20
-96.3675688632699
 40
2.0
 50
270.0
 51
0.0
  0
ARC
  8
20
  6
CONTINUOUS
 10
181.0
 20
-57.16756886326986
 40
2.0
 50
0.0
 51
90.0
  0
ARC
  8
20
  6
CONTINUOUS
 10
181.2
 20
-56.96756886326986
 40
1.0
 50
0.0
 51
90.0
  0
ARC
  8
20
  6
CONTINUOUS
 10
181.2
 20
-96.56756886326988
 40
1.0
 50
270.0
 51
0.0
  0
POLYLINE
  8
20
  6
CONTINUOUS
 66
     1
 70
     0
 40
0.0
 41
0.0
  0
VERTEX
  8
20
 10
83.99999999999969
 20
-95.2675688632699
  0
VERTEX
  8
20
 10
90.99999999999969
 20
-95.2675688632699
 42
0.9999999999999999
  0
VERTEX
  8
20
 10
90.99999999999969
 20
-90.26756886326986
  0
VERTEX
  8
20
 10
83.99999999999969
 20
-90.26756886326986
 42
0.999999999999983
  0
VERTEX
  8
20
 10
83.99999999999969
 20
-95.2675688632699
  0
SEQEND
  8
20
  0
POLYLINE
  8
20
  6
CONTINUOUS
 66
     1
 70
     0
 40
0.0
 41
0.0
  0
VERTEX
  8
20
 10
137.5
 20
-95.2675688632699
  0
VERTEX
  8
20
 10
144.5
 20
-95.2675688632699
 42
0.9999999999999999
  0
VERTEX
  8
20
 10
144.5
 20
-90.26756886326986
  0
VERTEX
  8
20
 10
137.5
 20
-90.26756886326986
 42
0.999999999999983
  0
VERTEX
  8
20
 10
137.5
 20
-95.2675688632699
  0
SEQEND
  8
20
  0
ARC
  8
20
  6
CONTINUOUS
 10
4.799999999999716
 20
-57.96756886326986
 40
1.0
 50
90.0
 51
180.0
  0
LINE
  8
3
  6
CONTINUOUS
 10
141.274503967266
 20
-76.79080868721925
 11
144.524503967266
 21
-76.79080868721925
  0
LINE
  8
1
  6
CONTINUOUS
 10
2.499999999999696
 20
-105.3675688632699
 11
2.499999999999696
 21
-100.7675688632699
  0
LINE
  8
1
  6
CONTINUOUS
 10
12.49999999999969
 20
-105.3675688632699
 11
12.49999999999969
 21
-100.7675688632699
  0
LINE
  8
1
  6
CONTINUOUS
 10
172.5
 20
-105.3675688632699
 11
172.5
 21
-100.7675688632699
  0
LINE
  8
1
  6
CONTINUOUS
 10
182.5
 20
-105.3675688632699
 11
182.5
 21
-100.7675688632699
  0
ARC
  8
12
  6
CONTINUOUS
 10
87.49999999999969
 20
-76.76756886326986
 40
11.5
 50
110.0000000000001
 51
234.8254268987016
  0
ARC
  8
1
  6
CONTINUOUS
 10
87.53001492296149
 20
-76.77702163521556
 40
21.0
 50
110.0681322369445
 51
234.8225255325798
  0
LINE
  8
20
  6
CONTINUOUS
 10
83.56676835175449
 20
-65.96110372423196
 11
80.32413120960749
 21
-57.05203139669786
  0
LINE
  8
20
  6
CONTINUOUS
 10
80.87519932029049
 20
-86.16767609426066
 11
75.43168359878268
 21
-93.94182222160146
  0
ARC
  8
12
  6
CONTINUOUS
 10
130.0
 20
-76.76756886326986
 40
11.5
 50
319.9999999999989
 51
279.9999999999965
  0
ARC
  8
1
  6
CONTINUOUS
 10
130.0
 20
-76.76756886326986
 40
20.0
 50
319.9999999999989
 51
279.9999999999982
  0
LINE
  8
20
  6
CONTINUOUS
 10
131.996954043169
 20
-88.09285802291026
 11
133.472963553338
 21
-96.46372392351405
  0
POLYLINE
  8
6
  6
CONTINUOUS
 66
     1
 70
     0
 40
0.0
 41
0.0
  0
VERTEX
  8
6
 10
30.08164631261299
 20
-95.26518244084446
  0
VERTEX
  8
6
 10
45.08164631261298
 20
-95.26518244084446
 42
0.9999999999999999
  0
VERTEX
  8
6
 10
45.08164631261298
 20
-90.26518244084446
  0
VERTEX
  8
6
 10
30.08164631261299
 20
-90.26518244084446
 42
0.9999999999999999
  0
VERTEX
  8
6
 10
30.08164631261299
 20
-95.26518244084446
  0
SEQEND
  8
6
  0
LINE
  8
10
  6
CONTINUOUS
 10
184.918100876571
 20
-68.31756886326986
 11
184.918100876571
 21
-74.61756886326995
  0
LINE
  8
10
  6
CONTINUOUS
 10
186.218100876571
 20
-74.50383360068616
 11
184.918100876571
 21
-74.61756886326995
  0
LINE
  8
10
  6
CONTINUOUS
 10
186.218100876571
 20
-68.43130412585366
 11
186.218100876571
 21
-74.50383360068616
  0
LINE
  8
10
  6
CONTINUOUS
 10
186.218100876571
 20
-68.43130412585366
 11
184.918100876571
 21
-68.31756886326986
  0
ARC
  8
10
  6
CONTINUOUS
 10
178.835681246839
 20
-71.46756886326996
 40
7.98241962973139
 50
337.6434605857323
 51
22.35653941426839
  0
LINE
  8
10
  6
CONTINUOUS
 10
0.08189912342866856
 20
-68.31756886326986
 11
0.08189912342866856
 21
-74.61756886326995
  0
LINE
  8
10
  6
CONTINUOUS
 10
-1.218100876571342
 20
-74.50383360068616
 11
0.08189912342866856
 21
-74.61756886326995
  0
LINE
  8
10
  6
CONTINUOUS
 10
-1.218100876571342
 20
-68.43130412585366
 11
-1.218100876571342
 21
-74.50383360068616
  0
LINE
  8
10
  6
CONTINUOUS
 10
-1.218100876571342
 20
-68.43130412585366
 11
0.08189912342866856
 21
-68.31756886326986
  0
ARC
  8
10
  6
CONTINUOUS
 10
6.164318753160086
 20
-71.46756886326996
 40
7.98241962973139
 50
157.6434605857301
 51
202.3565394142693
  0
LINE
  8
1
  6
CONTINUOUS
 10
138.809511095868
 20
-84.15962637466507
 11
145.320888862379
 21
-89.62332105700065
  0
LINE
  8
1
  6
CONTINUOUS
 10
184.0
 20
-76.46756886326996
 11
185.0
 21
-76.46756886326996
  0
LINE
  8
1
  6
CONTINUOUS
 10
-2.995381720438672E-013
 20
-76.46756886326996
 11
0.9999999999996954
 21
-76.46756886326996
  0
LINE
  8
1
  6
CONTINUOUS
 10
2.499999999999696
 20
-105.3675688632699
 11
12.49999999999969
 21
-105.3675688632699
  0
LINE
  8
1
  6
CONTINUOUS
 10
172.5
 20
-105.3675688632699
 11
182.5
 21
-105.3675688632699
  0
INSERT
  8
4
  6
CONTINUOUS
  2
COMP1
 10
0.0
 20
0.0
 41
1.0
 42
1.0
 50
0.0
  0
INSERT
  8
4
  6
CONTINUOUS
  2
COMP2
 10
0.0
 20
0.0
 41
1.0
 42
1.0
 50
0.0
  0
INSERT
  8
3
  6
CONTINUOUS
  2
COMP3
 10
0.0
 20
0.0
 41
1.0
 42
1.0
 50
0.0
  0
INSERT
  8
3
  6
CONTINUOUS
  2
COMP4
 10
0.0
 20
0.0
 41
1.0
 42
1.0
 50
0.0
  0
INSERT
  8
3
  6
CONTINUOUS
  2
COMP5
 10
0.0
 20
0.0
 41
1.0
 42
1.0
 50
0.0
  0
INSERT
  8
3
  6
CONTINUOUS
  2
COMP6
 10
0.0
 20
0.0
 41
1.0
 42
1.0
 50
0.0
  0
INSERT
  8
3
  6
CONTINUOUS
  2
COMP7
 10
0.0
 20
0.0
 41
1.0
 42
1.0
 50
0.0
  0
INSERT
  8
3
  6
CONTINUOUS
  2
COMP8
 10
0.0
 20
0.0
 41
1.0
 42
1.0
 50
0.0
  0
INSERT
  8
3
  6
CONTINUOUS
  2
COMP9
 10
0.0
 20
0.0
 41
1.0
 42
1.0
 50
0.0
  0
INSERT
  8
3
  6
CONTINUOUS
  2
COMP10
 10
0.0
 20
0.0
 41
1.0
 42
1.0
 50
0.0
  0
INSERT
  8
4
  6
CONTINUOUS
  2
COMP11
 10
0.0
 20
0.0
 41
1.0
 42
1.0
 50
0.0
  0
INSERT
  8
4
  6
CONTINUOUS
  2
COMP12
 10
0.0
 20
0.0
 41
1.0
 42
1.0
 50
0.0
  0
INSERT
  8
4
  6
CONTINUOUS
  2
COMP13
 10
0.0
 20
0.0
 41
1.0
 42
1.0
 50
0.0
  0
INSERT
  8
4
  6
CONTINUOUS
  2
COMP14
 10
0.0
 20
0.0
 41
1.0
 42
1.0
 50
0.0
  0
INSERT
  8
4
  6
CONTINUOUS
  2
COMP15
 10
0.0
 20
0.0
 41
1.0
 42
1.0
 50
0.0
  0
INSERT
  8
4
  6
CONTINUOUS
  2
COMP16
 10
0.0
 20
0.0
 41
1.0
 42
1.0
 50
0.0
  0
INSERT
  8
4
  6
CONTINUOUS
  2
COMP17
 10
0.0
 20
0.0
 41
1.0
 42
1.0
 50
0.0
  0
INSERT
  8
4
  6
CONTINUOUS
  2
COMP18
 10
0.0
 20
0.0
 41
1.0
 42
1.0
 50
0.0
  0
INSERT
  8
4
  6
CONTINUOUS
  2
COMP19
 10
0.0
 20
0.0
 41
1.0
 42
1.0
 50
0.0
  0
INSERT
  8
4
  6
CONTINUOUS
  2
COMP20
 10
0.0
 20
0.0
 41
1.0
 42
1.0
 50
0.0
  0
INSERT
  8
4
  6
CONTINUOUS
  2
COMP21
 10
0.0
 20
0.0
 41
1.0
 42
1.0
 50
0.0
  0
INSERT
  8
4
  6
CONTINUOUS
  2
COMP22
 10
0.0
 20
0.0
 41
1.0
 42
1.0
 50
0.0
  0
INSERT
  8
4
  6
CONTINUOUS
  2
COMP23
 10
0.0
 20
0.0
 41
1.0
 42
1.0
 50
0.0
  0
INSERT
  8
4
  6
CONTINUOUS
  2
COMP24
 10
0.0
 20
0.0
 41
1.0
 42
1.0
 50
0.0
  0
INSERT
  8
4
  6
CONTINUOUS
  2
COMP25
 10
0.0
 20
0.0
 41
1.0
 42
1.0
 50
0.0
  0
INSERT
  8
4
  6
CONTINUOUS
  2
COMP26
 10
0.0
 20
0.0
 41
1.0
 42
1.0
 50
0.0
  0
INSERT
  8
4
  6
CONTINUOUS
  2
COMP27
 10
0.0
 20
0.0
 41
1.0
 42
1.0
 50
0.0
  0
INSERT
  8
4
  6
CONTINUOUS
  2
COMP28
 10
0.0
 20
0.0
 41
1.0
 42
1.0
 50
0.0
  0
INSERT
  8
4
  6
CONTINUOUS
  2
COMP29
 10
0.0
 20
0.0
 41
1.0
 42
1.0
 50
0.0
  0
INSERT
  8
4
  6
CONTINUOUS
  2
COMP30
 10
0.0
 20
0.0
 41
1.0
 42
1.0
 50
0.0
  0
INSERT
  8
4
  6
CONTINUOUS
  2
COMP31
 10
0.0
 20
0.0
 41
1.0
 42
1.0
 50
0.0
  0
INSERT
  8
4
  6
CONTINUOUS
  2
COMP32
 10
0.0
 20
0.0
 41
1.0
 42
1.0
 50
0.0
  0
INSERT
  8
4
  6
CONTINUOUS
  2
COMP33
 10
0.0
 20
0.0
 41
1.0
 42
1.0
 50
0.0
  0
INSERT
  8
4
  6
CONTINUOUS
  2
COMP34
 10
0.0
 20
0.0
 41
1.0
 42
1.0
 50
0.0
  0
INSERT
  8
4
  6
CONTINUOUS
  2
COMP35
 10
0.0
 20
0.0
 41
1.0
 42
1.0
 50
0.0
  0
INSERT
  8
4
  6
CONTINUOUS
  2
COMP36
 10
0.0
 20
0.0
 41
1.0
 42
1.0
 50
0.0
  0
INSERT
  8
4
  6
CONTINUOUS
  2
COMP37
 10
0.0
 20
0.0
 41
1.0
 42
1.0
 50
0.0
  0
INSERT
  8
4
  6
CONTINUOUS
  2
COMP38
 10
0.0
 20
0.0
 41
1.0
 42
1.0
 50
0.0
  0
INSERT
  8
4
  6
CONTINUOUS
  2
COMP39
 10
0.0
 20
0.0
 41
1.0
 42
1.0
 50
0.0
  0
INSERT
  8
4
  6
CONTINUOUS
  2
COMP40
 10
0.0
 20
0.0
 41
1.0
 42
1.0
 50
0.0
  0
INSERT
  8
4
  6
CONTINUOUS
  2
COMP41
 10
0.0
 20
0.0
 41
1.0
 42
1.0
 50
0.0
  0
INSERT
  8
4
  6
CONTINUOUS
  2
COMP42
 10
0.0
 20
0.0
 41
1.0
 42
1.0
 50
0.0
  0
INSERT
  8
4
  6
CONTINUOUS
  2
COMP43
 10
0.0
 20
0.0
 41
1.0
 42
1.0
 50
0.0
  0
INSERT
  8
4
  6
CONTINUOUS
  2
COMP44
 10
0.0
 20
0.0
 41
1.0
 42
1.0
 50
0.0
  0
INSERT
  8
4
  6
CONTINUOUS
  2
COMP45
 10
0.0
 20
0.0
 41
1.0
 42
1.0
 50
0.0
  0
INSERT
  8
4
  6
CONTINUOUS
  2
COMP46
 10
0.0
 20
0.0
 41
1.0
 42
1.0
 50
0.0
  0
INSERT
  8
4
  6
CONTINUOUS
  2
COMP47
 10
0.0
 20
0.0
 41
1.0
 42
1.0
 50
0.0
  0
INSERT
  8
4
  6
CONTINUOUS
  2
COMP48
 10
0.0
 20
0.0
 41
1.0
 42
1.0
 50
0.0
  0
INSERT
  8
4
  6
CONTINUOUS
  2
COMP49
 10
0.0
 20
0.0
 41
1.0
 42
1.0
 50
0.0
  0
INSERT
  8
4
  6
CONTINUOUS
  2
COMP50
 10
0.0
 20
0.0
 41
1.0
 42
1.0
 50
0.0
  0
INSERT
  8
4
  6
CONTINUOUS
  2
COMP51
 10
0.0
 20
0.0
 41
1.0
 42
1.0
 50
0.0
  0
INSERT
  8
4
  6
CONTINUOUS
  2
COMP52
 10
0.0
 20
0.0
 41
1.0
 42
1.0
 50
0.0
  0
INSERT
  8
4
  6
CONTINUOUS
  2
COMP53
 10
0.0
 20
0.0
 41
1.0
 42
1.0
 50
0.0
  0
INSERT
  8
4
  6
CONTINUOUS
  2
COMP54
 10
0.0
 20
0.0
 41
1.0
 42
1.0
 50
0.0
  0
INSERT
  8
4
  6
CONTINUOUS
  2
COMP55
 10
0.0
 20
0.0
 41
1.0
 42
1.0
 50
0.0
  0
INSERT
  8
4
  6
CONTINUOUS
  2
COMP56
 10
0.0
 20
0.0
 41
1.0
 42
1.0
 50
0.0
  0
INSERT
  8
4
  6
CONTINUOUS
  2
COMP57
 10
0.0
 20
0.0
 41
1.0
 42
1.0
 50
0.0
  0
INSERT
  8
4
  6
CONTINUOUS
  2
COMP58
 10
0.0
 20
0.0
 41
1.0
 42
1.0
 50
0.0
  0
INSERT
  8
4
  6
CONTINUOUS
  2
COMP59
 10
0.0
 20
0.0
 41
1.0
 42
1.0
 50
0.0
  0
INSERT
  8
4
  6
CONTINUOUS
  2
COMP60
 10
0.0
 20
0.0
 41
1.0
 42
1.0
 50
0.0
  0
INSERT
  8
4
  6
CONTINUOUS
  2
COMP61
 10
0.0
 20
0.0
 41
1.0
 42
1.0
 50
0.0
  0
INSERT
  8
4
  6
CONTINUOUS
  2
COMP62
 10
0.0
 20
0.0
 41
1.0
 42
1.0
 50
0.0
  0
INSERT
  8
4
  6
CONTINUOUS
  2
COMP63
 10
0.0
 20
0.0
 41
1.0
 42
1.0
 50
0.0
  0
INSERT
  8
4
  6
CONTINUOUS
  2
COMP64
 10
0.0
 20
0.0
 41
1.0
 42
1.0
 50
0.0
  0
INSERT
  8
4
  6
CONTINUOUS
  2
COMP65
 10
0.0
 20
0.0
 41
1.0
 42
1.0
 50
0.0
  0
INSERT
  8
2
  6
CONTINUOUS
  2
COMP66
 10
0.0
 20
0.0
 41
1.0
 42
1.0
 50
0.0
  0
INSERT
  8
4
  6
CONTINUOUS
  2
COMP67
 10
0.0
 20
0.0
 41
1.0
 42
1.0
 50
0.0
  0
INSERT
  8
4
  6
CONTINUOUS
  2
COMP68
 10
0.0
 20
0.0
 41
1.0
 42
1.0
 50
0.0
  0
INSERT
  8
4
  6
CONTINUOUS
  2
COMP69
 10
0.0
 20
0.0
 41
1.0
 42
1.0
 50
0.0
  0
INSERT
  8
4
  6
CONTINUOUS
  2
COMP70
 10
0.0
 20
0.0
 41
1.0
 42
1.0
 50
0.0
  0
INSERT
  8
4
  6
CONTINUOUS
  2
COMP71
 10
0.0
 20
0.0
 41
1.0
 42
1.0
 50
0.0
  0
INSERT
  8
4
  6
CONTINUOUS
  2
COMP72
 10
0.0
 20
0.0
 41
1.0
 42
1.0
 50
0.0
  0
INSERT
  8
4
  6
CONTINUOUS
  2
COMP73
 10
0.0
 20
0.0
 41
1.0
 42
1.0
 50
0.0
  0
INSERT
  8
4
  6
CONTINUOUS
  2
COMP74
 10
0.0
 20
0.0
 41
1.0
 42
1.0
 50
0.0
  0
INSERT
  8
4
  6
CONTINUOUS
  2
COMP75
 10
0.0
 20
0.0
 41
1.0
 42
1.0
 50
0.0
  0
INSERT
  8
4
  6
CONTINUOUS
  2
COMP76
 10
0.0
 20
0.0
 41
1.0
 42
1.0
 50
0.0
  0
INSERT
  8
4
  6
CONTINUOUS
  2
COMP77
 10
0.0
 20
0.0
 41
1.0
 42
1.0
 50
0.0
  0
INSERT
  8
2
  6
CONTINUOUS
  2
COMP78
 10
0.0
 20
0.0
 41
1.0
 42
1.0
 50
0.0
  0
INSERT
  8
4
  6
CONTINUOUS
  2
COMP79
 10
0.0
 20
0.0
 41
1.0
 42
1.0
 50
0.0
  0
INSERT
  8
4
  6
CONTINUOUS
  2
COMP80
 10
0.0
 20
0.0
 41
1.0
 42
1.0
 50
0.0
  0
INSERT
  8
4
  6
CONTINUOUS
  2
COMP81
 10
0.0
 20
0.0
 41
1.0
 42
1.0
 50
0.0
  0
INSERT
  8
4
  6
CONTINUOUS
  2
COMP82
 10
0.0
 20
0.0
 41
1.0
 42
1.0
 50
0.0
  0
INSERT
  8
2
  6
CONTINUOUS
  2
COMP83
 10
0.0
 20
0.0
 41
1.0
 42
1.0
 50
0.0
  0
INSERT
  8
2
  6
CONTINUOUS
  2
COMP84
 10
0.0
 20
0.0
 41
1.0
 42
1.0
 50
0.0
  0
INSERT
  8
2
  6
CONTINUOUS
  2
COMP85
 10
0.0
 20
0.0
 41
1.0
 42
1.0
 50
0.0
  0
INSERT
  8
2
  6
CONTINUOUS
  2
COMP86
 10
0.0
 20
0.0
 41
1.0
 42
1.0
 50
0.0
  0
INSERT
  8
2
  6
CONTINUOUS
  2
COMP87
 10
0.0
 20
0.0
 41
1.0
 42
1.0
 50
0.0
  0
ENDSEC
  0
EOF
