  0
SECTION
  2
HEADER
  9
$ACADVER
  1
AC1006
  9
$INSBASE
 10
0.0
 20
0.0
 30
0.0
  9
$EXTMIN
 10
19.1765009008
 20
137.0817181644
  9
$EXTMAX
 10
188.1097589805
 20
225.5817187009
  9
$LIMMIN
 10
19.1765009008
 20
137.0817181644
  9
$LIMMAX
 10
188.1097589805
 20
225.5817187009
  9
$ORTHOMODE
 70
     0
  9
$REGENMODE
 70
     1
  9
$FILLMODE
 70
     1
  9
$QTEXTMODE
 70
     0
  9
$MIRRTEXT
 70
     1
  9
$DRAGMODE
 70
     2
  9
$LTSCALE
 40
1.0
  9
$OSMODE
 70
     0
  9
$ATTMODE
 70
     1
  9
$TEXTSIZE
 40
3.0
  9
$TRACEWID
 40
0.5
  9
$TEXTSTYLE
  7
STANDARD
  9
$CLAYER
  8
0
  9
$CELTYPE
  6
BYLAYER
  9
$CECOLOR
 62
   256
  9
$DIMSCALE
 40
1.0
  9
$DIMASZ
 40
3.0
  9
$DIMEXO
 40
1.0
  9
$DIMDLI
 40
5.0
  9
$DIMRND
 40
0.0
  9
$DIMDLE
 40
5.0
  9
$DIMEXE
 40
2.0
  9
$DIMTP
 40
0.0
  9
$DIMTM
 40
0.0
  9
$DIMTXT
 40
3.0
  9
$DIMCEN
 40
2.0
  9
$DIMTSZ
 40
0.0
  9
$DIMTOL
 70
     0
  9
$DIMLIM
 70
     0
  9
$DIMTIH
 70
     0
  9
$DIMTOH
 70
     0
  9
$DIMSE1
 70
     0
  9
$DIMSE2
 70
     0
  9
$DIMTAD
 70
     1
  9
$DIMZIN
 70
     8
  9
$DIMBLK
  1

  9
$DIMASO
 70
     1
  9
$DIMSHO
 70
     0
  9
$DIMPOST
  1

  9
$DIMAPOST
  1

  9
$DIMALT
 70
     0
  9
$DIMALTD
 70
     4
  9
$DIMALTF
 40
25.4
  9
$DIMLFAC
 40
1.0
  9
$DIMTOFL
 70
     1
  9
$DIMTVP
 40
1.0
  9
$DIMTIX
 70
     0
  9
$DIMSOXD
 70
     0
  9
$DIMSAH
 70
     0
  9
$DIMBLK1
  1

  9
$DIMBLK2
  1

  9
$LUNITS
 70
     2
  9
$LUPREC
 70
     4
  9
$AXISMODE
 70
     0
  9
$AXISUNIT
 10
0.0
 20
0.0
  9
$SKETCHINC
 40
1.0
  9
$FILLETRAD
 40
0.0
  9
$AUNITS
 70
     0
  9
$AUPREC
 70
     0
  9
$MENU
  1
acad
  9
$ELEVATION
 40
0.0
  9
$THICKNESS
 40
0.0
  9
$LIMCHECK
 70
     0
  9
$BLIPMODE
 70
     1
  9
$CHAMFERA
 40
0.0
  9
$CHAMFERB
 40
0.0
  9
$SKPOLY
 70
     0
  9
$TDCREATE
 40
2454106.697025463
  9
$TDUPDATE
 40
2454106.697025463
  9
$TDINDWG
 40
0.0
  9
$TDUSRTIMER
 40
0.0
  9
$USRTIMER
 70
     1
  9
$ANGBASE
 50
0.0
  9
$ANGDIR
 70
     0
  9
$PDMODE
 70
     0
  9
$PDSIZE
 40
0.0
  9
$PLINEWID
 40
0.0
  9
$COORDS
 70
     0
  9
$SPLFRAME
 70
     0
  9
$SPLINETYPE
 70
     6
  9
$SPLINESEGS
 70
     8
  9
$ATTDIA
 70
     0
  9
$ATTREQ
 70
     1
  9
$HANDLING
 70
     0
  9
$HANDSEED
  5
0
  9
$SURFTAB1
 70
     6
  9
$SURFTAB2
 70
     6
  9
$SURFTYPE
 70
     6
  9
$SURFU
 70
     6
  9
$SURFV
 70
     6
  9
$FLATLAND
 70
     0
  9
$UCSNAME
  2

  9
$UCSORG
 10
0.0
 20
0.0
 30
0.0
  9
$UCSXDIR
 10
1.0
 20
0.0
 30
0.0
  9
$UCSYDIR
 10
0.0
 20
1.0
 30
0.0
  9
$USERI1
 70
     0
  9
$USERI2
 70
     0
  9
$USERI3
 70
     0
  9
$USERI4
 70
     0
  9
$USERI5
 70
     0
  9
$USERR1
 40
0.0
  9
$USERR2
 40
0.0
  9
$USERR3
 40
0.0
  9
$USERR4
 40
0.0
  9
$USERR5
 40
0.0
  9
$WORLDVIEW
 70
     1
  0
ENDSEC
  0
SECTION
  2
TABLES
  0
TABLE
  2
VPORT
 70
     1
  0
VPORT
  2
*ACTIVE
 70
     0
 10
0.0
 20
0.0
 11
1.0
 21
1.0
 12
103.64312994065
 22
181.33171843265
 13
0.0
 23
0.0
 14
0.0
 24
0.0
 15
0.0
 25
0.0
 16
0.0
 26
0.0
 36
1.0
 17
0.0
 27
0.0
 37
0.0
 40
168.9332580797
 41
1.5
 42
50.0
 43
0.0
 44
0.0
 50
0.0
 51
0.0
 71
     0
 72
   100
 73
     1
 74
     1
 75
     0
 76
     0
 77
     0
 78
     0
  0
ENDTAB
  0
TABLE
  2
LTYPE
 70
    20
  0
LTYPE
  2
CONTINUOUS
 70
    64
  3
solid line
 72
    65
 73
     0
 40
0.0
  0
ENDTAB
  0
TABLE
  2
LAYER
 70
    20
  0
LAYER
  2
0
 70
    64
 62
     7
  6
CONTINUOUS
  0
LAYER
  2
1
 70
    64
 62
     7
  6
CONTINUOUS
  0
LAYER
  2
3
 70
    64
 62
     7
  6
CONTINUOUS
  0
LAYER
  2
100
 70
    64
 62
     7
  6
CONTINUOUS
  0
LAYER
  2
4
 70
    64
 62
     7
  6
CONTINUOUS
  0
ENDTAB
  0
TABLE
  2
STYLE
 70
     4
  0
ENDTAB
  0
TABLE
  2
VIEW
 70
     0
  0
ENDTAB
  0
TABLE
  2
UCS
 70
     0
  0
ENDTAB
  0
TABLE
  2
DWGMGR
 70
     0
  0
ENDTAB
  0
ENDSEC
  0
SECTION
  2
BLOCKS
  0
BLOCK
  8
100
  2
NMB-WAKU_0001
 70
    64
 10
0.0
 20
0.0
  0
POLYLINE
  8
100
  6
CONTINUOUS
 66
     1
 70
     0
 40
0.0
 41
0.0
  0
VERTEX
  8
100
 10
4.320016893733509
 20
-5.880442074612802E-006
  0
VERTEX
  8
100
 10
5.039987596858509
 20
-5.880442074612802E-006
  0
VERTEX
  8
100
 10
5.039987596858509
 20
0.2399996127219879
  0
VERTEX
  8
100
 10
4.890024217952259
 20
0.2399996127219879
  0
VERTEX
  8
100
 10
4.890024217952259
 20
1.259988626393863
  0
VERTEX
  8
100
 10
5.039987596858509
 20
1.259988626393863
  0
VERTEX
  8
100
 10
5.039987596858509
 20
1.499994119557925
  0
VERTEX
  8
100
 10
4.327798876155384
 20
1.499994119557925
  0
VERTEX
  8
100
 10
3.780038866389759
 20
0.4998262728782379
  0
VERTEX
  8
100
 10
3.232187303889759
 20
1.499994119557925
  0
VERTEX
  8
100
 10
2.519998583186634
 20
1.499994119557925
  0
VERTEX
  8
100
 10
2.519998583186634
 20
1.259988626393863
  0
VERTEX
  8
100
 10
2.670007738460072
 20
1.259988626393863
  0
VERTEX
  8
100
 10
2.670007738460072
 20
0.2399996127219879
  0
VERTEX
  8
100
 10
2.519998583186634
 20
0.2399996127219879
  0
VERTEX
  8
100
 10
2.519998583186634
 20
-5.880442074612802E-006
  0
VERTEX
  8
100
 10
3.240015062678822
 20
-5.880442074612802E-006
  0
VERTEX
  8
100
 10
3.240015062678822
 20
0.2399996127219879
  0
VERTEX
  8
100
 10
3.090005907405384
 20
0.2399996127219879
  0
VERTEX
  8
100
 10
3.090005907405384
 20
1.260019143971988
  0
VERTEX
  8
100
 10
3.780038866389759
 20
0.0002230013938628872
  0
VERTEX
  8
100
 10
4.469980272639759
 20
1.260019143971988
  0
VERTEX
  8
100
 10
4.469980272639759
 20
0.2399996127219879
  0
VERTEX
  8
100
 10
4.320016893733509
 20
0.2399996127219879
  0
VERTEX
  8
100
 10
4.320016893733509
 20
-5.880442074612802E-006
  0
SEQEND
  8
100
  0
POLYLINE
  8
100
  6
CONTINUOUS
 66
     1
 70
     0
 40
0.0
 41
0.0
  0
VERTEX
  8
100
 10
6.824991258967884
 20
0.2399996127219879
  0
VERTEX
  8
100
 10
5.730020555842884
 20
0.2399996127219879
  0
VERTEX
  8
100
 10
5.730020555842884
 20
0.6299990023704254
  0
SEQEND
  8
100
  0
POLYLINE
  8
100
  6
CONTINUOUS
 66
     1
 70
     0
 40
0.0
 41
0.0
  0
VERTEX
  8
100
 10
5.730020555842884
 20
0.8700044955344879
  0
VERTEX
  8
100
 10
6.825128588069447
 20
0.8700044955344879
 42
0.4141906283362363
  0
VERTEX
  8
100
 10
7.01998333455299
 20
1.065118621731358
 42
0.4142135516000314
  0
VERTEX
  8
100
 10
6.824899699061355
 20
1.260003901894976
  0
VERTEX
  8
100
 10
5.730020555842884
 20
1.259988626393863
  0
VERTEX
  8
100
 10
5.730020555842884
 20
0.8700044955344879
  0
SEQEND
  8
100
  0
POLYLINE
  8
100
  6
CONTINUOUS
 66
     1
 70
     0
 40
0.0
 41
0.0
  0
VERTEX
  8
100
 10
5.730020555842884
 20
0.2399996127219879
  0
VERTEX
  8
100
 10
6.824991258967884
 20
0.2399996127219879
 42
0.4143052377105825
  0
VERTEX
  8
100
 10
7.019998573634965
 20
0.4350679720940036
 42
0.4142594387429299
  0
VERTEX
  8
100
 10
6.824899699074805
 20
0.6300142492165435
  0
VERTEX
  8
100
 10
5.730020555842884
 20
0.6299990023704254
  0
VERTEX
  8
100
 10
5.730020555842884
 20
0.2399996127219879
  0
SEQEND
  8
100
  0
POLYLINE
  8
100
  6
CONTINUOUS
 66
     1
 70
     0
 40
0.0
 41
0.0
  0
VERTEX
  8
100
 10
4.469980272639759
 20
0.2399996127219879
  0
VERTEX
  8
100
 10
4.469980272639759
 20
1.260019143971988
  0
VERTEX
  8
100
 10
3.780038866389759
 20
0.0002230013938628872
  0
VERTEX
  8
100
 10
3.090005907405384
 20
1.260019143971988
  0
VERTEX
  8
100
 10
3.090005907405384
 20
0.2399996127219879
  0
VERTEX
  8
100
 10
3.240015062678822
 20
0.2399996127219879
  0
VERTEX
  8
100
 10
3.240015062678822
 20
-5.880442074612802E-006
  0
VERTEX
  8
100
 10
2.519998583186634
 20
-5.880442074612802E-006
  0
VERTEX
  8
100
 10
2.519998583186634
 20
0.2399996127219879
  0
VERTEX
  8
100
 10
2.670007738460072
 20
0.2399996127219879
  0
VERTEX
  8
100
 10
2.670007738460072
 20
1.259988626393863
  0
VERTEX
  8
100
 10
2.519998583186634
 20
1.259988626393863
  0
VERTEX
  8
100
 10
2.519998583186634
 20
1.499994119557925
  0
VERTEX
  8
100
 10
3.232187303889759
 20
1.499994119557925
  0
VERTEX
  8
100
 10
3.780038866389759
 20
0.4998262728782379
  0
VERTEX
  8
100
 10
4.327798876155384
 20
1.499994119557925
  0
VERTEX
  8
100
 10
5.039987596858509
 20
1.499994119557925
  0
VERTEX
  8
100
 10
5.039987596858509
 20
1.259988626393863
  0
VERTEX
  8
100
 10
4.890024217952259
 20
1.259988626393863
  0
VERTEX
  8
100
 10
4.890024217952259
 20
0.2399996127219879
  0
VERTEX
  8
100
 10
5.039987596858509
 20
0.2399996127219879
  0
VERTEX
  8
100
 10
5.039987596858509
 20
-5.880442074612802E-006
  0
VERTEX
  8
100
 10
4.320016893733509
 20
-5.880442074612802E-006
  0
VERTEX
  8
100
 10
4.320016893733509
 20
0.2399996127219879
  0
VERTEX
  8
100
 10
4.469980272639759
 20
0.2399996127219879
  0
SEQEND
  8
100
  0
POLYLINE
  8
100
  6
CONTINUOUS
 66
     1
 70
     0
 40
0.0
 41
0.0
  0
VERTEX
  8
100
 10
5.730020555842884
 20
1.259988626393863
  0
VERTEX
  8
100
 10
5.730020555842884
 20
0.8700044955344879
  0
VERTEX
  8
100
 10
6.825128588069447
 20
0.8700044955344879
  0
VERTEX
  8
100
 10
5.730020555842884
 20
0.8700044955344879
  0
VERTEX
  8
100
 10
5.730020555842884
 20
1.259988626393863
  0
SEQEND
  8
100
  0
POLYLINE
  8
100
  6
CONTINUOUS
 66
     1
 70
     0
 40
0.0
 41
0.0
  0
VERTEX
  8
100
 10
6.824991258967884
 20
0.8700044955344879
  0
VERTEX
  8
100
 10
5.730020555842884
 20
0.8700044955344879
  0
VERTEX
  8
100
 10
5.730020555842884
 20
1.259988626393863
  0
VERTEX
  8
100
 10
6.824991258967884
 20
1.259988626393863
  0
VERTEX
  8
100
 10
5.730020555842884
 20
1.259988626393863
  0
VERTEX
  8
100
 10
5.730020555842884
 20
0.8700044955344879
  0
VERTEX
  8
100
 10
6.824991258967884
 20
0.8700044955344879
  0
SEQEND
  8
100
  0
POLYLINE
  8
100
  6
CONTINUOUS
 66
     1
 70
     0
 40
0.0
 41
0.0
  0
VERTEX
  8
100
 10
5.730020555842884
 20
0.6299990023704254
  0
VERTEX
  8
100
 10
6.824899706233509
 20
0.6299990023704254
  0
VERTEX
  8
100
 10
5.730020555842884
 20
0.6299990023704254
  0
SEQEND
  8
100
  0
LINE
  8
100
  6
CONTINUOUS
 10
1.680002245296009
 20
-5.880442074612802E-006
 11
1.680002245296009
 21
0.2399996127219879
  0
LINE
  8
100
  6
CONTINUOUS
 10
2.40000491653003
 20
1.499999770342498
 11
1.679988437037842
 21
1.499999770342498
  0
LINE
  8
100
  6
CONTINUOUS
 10
1.679988437037842
 20
1.499999770342498
 11
1.679988437037842
 21
1.259994277178436
  0
LINE
  8
100
  6
CONTINUOUS
 10
1.679988437037842
 20
1.259994277178436
 11
1.82999759231128
 21
1.259994277178436
  0
LINE
  8
100
  6
CONTINUOUS
 10
1.82999759231128
 20
1.259994277178436
 11
1.82999759231128
 21
0.54905296248117
  0
LINE
  8
100
  6
CONTINUOUS
 10
1.82999759231128
 20
0.54905296248117
 11
0.6552386811784672
 21
1.499999770342498
  0
LINE
  8
100
  6
CONTINUOUS
 10
0.6552386811784672
 20
1.499999770342498
 11
-4.238743407825041E-006
 21
1.499999770342498
  0
LINE
  8
100
  6
CONTINUOUS
 10
-4.238743407825041E-006
 20
1.499999770342498
 11
-4.238743407825041E-006
 21
1.259994277178436
  0
LINE
  8
100
  6
CONTINUOUS
 10
-4.238743407825041E-006
 20
1.259994277178436
 11
0.1500049165300297
 21
1.259994277178436
  0
LINE
  8
100
  6
CONTINUOUS
 10
0.1500049165300297
 20
1.259994277178436
 11
0.1500049165300297
 21
0.2399938194147637
  0
LINE
  8
100
  6
CONTINUOUS
 10
0.1500049165300297
 20
0.2399938194147637
 11
-4.238743407825041E-006
 21
0.2399938194147637
  0
LINE
  8
100
  6
CONTINUOUS
 10
-4.238743407825041E-006
 20
0.2399938194147637
 11
-4.238743407825041E-006
 21
-2.296575019045122E-007
  0
LINE
  8
100
  6
CONTINUOUS
 10
-4.238743407825041E-006
 20
-2.296575019045122E-007
 11
0.7199664643815922
 21
-2.296575019045122E-007
  0
LINE
  8
100
  6
CONTINUOUS
 10
0.7199664643815922
 20
-2.296575019045122E-007
 11
0.7199664643815922
 21
0.2399938194147637
  0
LINE
  8
100
  6
CONTINUOUS
 10
0.7199664643815922
 20
0.2399938194147637
 11
0.5700030854753422
 21
0.2399938194147637
  0
LINE
  8
100
  6
CONTINUOUS
 10
0.5700030854753422
 20
0.2399938194147637
 11
0.5700030854753422
 21
1.260246047197967
  0
LINE
  8
100
  6
CONTINUOUS
 10
0.5700030854753422
 20
1.260246047197967
 11
1.830318026881592
 21
0.2399938194147637
  0
LINE
  8
100
  6
CONTINUOUS
 10
1.830318026881592
 20
0.2399938194147637
 11
1.679999542236331
 21
0.2399946212768498
  0
LINE
  8
100
  6
CONTINUOUS
 10
1.679999542236331
 20
0.2399946212768498
 11
1.679999542236331
 21
-2.296575019045122E-007
  0
LINE
  8
100
  6
CONTINUOUS
 10
1.679999542236331
 20
-2.296575019045122E-007
 11
2.40000491653003
 21
-2.296575019045122E-007
  0
LINE
  8
100
  6
CONTINUOUS
 10
2.40000491653003
 20
-2.296575019045122E-007
 11
2.40000491653003
 21
0.2399938194147637
  0
LINE
  8
100
  6
CONTINUOUS
 10
2.40000491653003
 20
0.2399938194147637
 11
2.249995761256592
 21
0.2399938194147637
  0
LINE
  8
100
  6
CONTINUOUS
 10
2.249995761256592
 20
0.2399938194147637
 11
2.249995761256592
 21
1.259994277178436
  0
LINE
  8
100
  6
CONTINUOUS
 10
2.249995761256592
 20
1.259994277178436
 11
2.40000491653003
 21
1.259994277178436
  0
LINE
  8
100
  6
CONTINUOUS
 10
2.40000491653003
 20
1.259994277178436
 11
2.40000491653003
 21
1.499999770342498
  0
POLYLINE
  8
100
  6
CONTINUOUS
 66
     1
 70
     0
 40
0.0
 41
0.0
  0
VERTEX
  8
100
 10
5.309976610530384
 20
0.7499941195579254
  0
VERTEX
  8
100
 10
5.309976610530384
 20
1.259988626393863
  0
VERTEX
  8
100
 10
5.160013231624134
 20
1.259988626393863
  0
VERTEX
  8
100
 10
5.160013231624134
 20
1.499994119557925
  0
VERTEX
  8
100
 10
7.004983934749134
 20
1.499994119557925
 42
-0.6771318605228157
  0
VERTEX
  8
100
 10
7.305002245296009
 20
0.7499941195579254
  0
SEQEND
  8
100
  0
POLYLINE
  8
100
  6
CONTINUOUS
 66
     1
 70
     0
 40
0.0
 41
0.0
  0
VERTEX
  8
100
 10
5.309976610530384
 20
0.7499941195579254
  0
VERTEX
  8
100
 10
5.309976610530384
 20
0.2399996127219879
  0
VERTEX
  8
100
 10
5.160013231624134
 20
0.2399996127219879
  0
VERTEX
  8
100
 10
5.160013231624134
 20
-5.880442074612802E-006
  0
VERTEX
  8
100
 10
7.004983934749134
 20
-5.880442074612802E-006
 42
0.6771318605228157
  0
VERTEX
  8
100
 10
7.305002245296009
 20
0.7499941195579254
  0
SEQEND
  8
100
  0
ENDBLK
  8
100
  0
BLOCK
  8
4
  2
COMP1
 70
    64
 10
0.0
 20
0.0
  0
POLYLINE
  8
4
  6
CONTINUOUS
 66
     1
 70
     0
 40
0.0
 41
0.0
  0
VERTEX
  8
4
 10
118.8675689697266
 20
215.5916137695313
  0
VERTEX
  8
4
 10
119.3175659179688
 20
217.3916168212891
  0
VERTEX
  8
4
 10
119.7675704956055
 20
215.5916137695313
  0
SEQEND
  8
4
  0
POLYLINE
  8
4
  6
CONTINUOUS
 66
     1
 70
     0
 40
0.0
 41
0.0
  0
VERTEX
  8
4
 10
119.6269454956055
 20
216.1541137695313
  0
VERTEX
  8
4
 10
119.0081939697266
 20
216.1541137695313
  0
SEQEND
  8
4
  0
POLYLINE
  8
4
  6
CONTINUOUS
 66
     1
 70
     0
 40
0.0
 41
0.0
  0
VERTEX
  8
4
 10
120.1894454956055
 20
217.3916168212891
  0
VERTEX
  8
4
 10
120.1894454956055
 20
215.5916137695313
  0
VERTEX
  8
4
 10
121.0894470214844
 20
215.5916137695313
  0
SEQEND
  8
4
  0
POLYLINE
  8
4
  6
CONTINUOUS
 66
     1
 70
     0
 40
0.0
 41
0.0
  0
VERTEX
  8
4
 10
121.5113220214844
 20
217.3916168212891
  0
VERTEX
  8
4
 10
121.5113220214844
 20
215.5916137695313
  0
VERTEX
  8
4
 10
122.4113159179688
 20
215.5916137695313
  0
SEQEND
  8
4
  0
POLYLINE
  8
4
  6
CONTINUOUS
 66
     1
 70
     0
 40
0.0
 41
0.0
  0
VERTEX
  8
4
 10
123.7331924438477
 20
216.9978637695313
 42
0.8750127157437863
  0
VERTEX
  8
4
 10
122.8331909179688
 20
216.9978637695313
  0
VERTEX
  8
4
 10
122.8331909179688
 20
215.9291076660156
 42
0.7499788074529949
  0
VERTEX
  8
4
 10
123.7331924438477
 20
215.9291076660156
  0
SEQEND
  8
4
  0
POLYLINE
  8
4
  6
CONTINUOUS
 66
     1
 70
     0
 40
0.0
 41
0.0
  0
VERTEX
  8
4
 10
124.1550674438477
 20
217.3916168212891
  0
VERTEX
  8
4
 10
124.1550674438477
 20
215.5916137695313
  0
SEQEND
  8
4
  0
POLYLINE
  8
4
  6
CONTINUOUS
 66
     1
 70
     0
 40
0.0
 41
0.0
  0
VERTEX
  8
4
 10
125.0550689697266
 20
217.3916168212891
  0
VERTEX
  8
4
 10
125.0550689697266
 20
215.5916137695313
  0
SEQEND
  8
4
  0
POLYLINE
  8
4
  6
CONTINUOUS
 66
     1
 70
     0
 40
0.0
 41
0.0
  0
VERTEX
  8
4
 10
124.1550674438477
 20
216.4916076660156
  0
VERTEX
  8
4
 10
125.0550689697266
 20
216.4916076660156
  0
SEQEND
  8
4
  0
ENDBLK
  8
4
  0
BLOCK
  8
4
  2
COMP2
 70
    64
 10
0.0
 20
0.0
  0
POLYLINE
  8
4
  6
CONTINUOUS
 66
     1
 70
     0
 40
0.0
 41
0.0
  0
VERTEX
  8
4
 10
107.8938598632813
 20
216.9747772216797
 42
0.8749978807452995
  0
VERTEX
  8
4
 10
106.9938583374023
 20
216.9747772216797
  0
VERTEX
  8
4
 10
106.9938583374023
 20
215.9060211181641
 42
0.7499915228374759
  0
VERTEX
  8
4
 10
107.8938598632813
 20
215.9060211181641
  0
SEQEND
  8
4
  0
POLYLINE
  8
4
  6
CONTINUOUS
 66
     1
 70
     0
 40
0.0
 41
0.0
  0
VERTEX
  8
4
 10
108.3157348632813
 20
217.3685302734375
  0
VERTEX
  8
4
 10
108.3157348632813
 20
215.5685272216797
  0
SEQEND
  8
4
  0
POLYLINE
  8
4
  6
CONTINUOUS
 66
     1
 70
     0
 40
0.0
 41
0.0
  0
VERTEX
  8
4
 10
109.2157363891602
 20
217.3685302734375
  0
VERTEX
  8
4
 10
109.2157363891602
 20
215.5685272216797
  0
SEQEND
  8
4
  0
POLYLINE
  8
4
  6
CONTINUOUS
 66
     1
 70
     0
 40
0.0
 41
0.0
  0
VERTEX
  8
4
 10
108.3157348632813
 20
216.4685211181641
  0
VERTEX
  8
4
 10
109.2157363891602
 20
216.4685211181641
  0
SEQEND
  8
4
  0
POLYLINE
  8
4
  6
CONTINUOUS
 66
     1
 70
     0
 40
0.0
 41
0.0
  0
VERTEX
  8
4
 10
110.0876083374023
 20
217.3685302734375
  0
VERTEX
  8
4
 10
109.6376113891602
 20
216.1310272216797
  0
VERTEX
  8
4
 10
110.5376052856445
 20
216.1310272216797
  0
SEQEND
  8
4
  0
POLYLINE
  8
4
  6
CONTINUOUS
 66
     1
 70
     0
 40
0.0
 41
0.0
  0
VERTEX
  8
4
 10
110.2563552856445
 20
215.5685272216797
  0
VERTEX
  8
4
 10
110.2563552856445
 20
216.7497711181641
  0
SEQEND
  8
4
  0
ENDBLK
  8
4
  0
BLOCK
  8
4
  2
COMP3
 70
    64
 10
0.0
 20
0.0
  0
POLYLINE
  8
4
  6
CONTINUOUS
 66
     1
 70
     0
 40
0.0
 41
0.0
  0
VERTEX
  8
4
 10
95.86775207519531
 20
216.9978637695313
 42
0.8749978807452995
  0
VERTEX
  8
4
 10
94.96775054931641
 20
216.9978637695313
  0
VERTEX
  8
4
 10
94.96775054931641
 20
215.9291076660156
 42
0.7499915228374759
  0
VERTEX
  8
4
 10
95.86775207519531
 20
215.9291076660156
  0
SEQEND
  8
4
  0
POLYLINE
  8
4
  6
CONTINUOUS
 66
     1
 70
     0
 40
0.0
 41
0.0
  0
VERTEX
  8
4
 10
96.28962707519531
 20
217.3916168212891
  0
VERTEX
  8
4
 10
96.28962707519531
 20
215.5916137695313
  0
SEQEND
  8
4
  0
POLYLINE
  8
4
  6
CONTINUOUS
 66
     1
 70
     0
 40
0.0
 41
0.0
  0
VERTEX
  8
4
 10
97.18962860107422
 20
217.3916168212891
  0
VERTEX
  8
4
 10
97.18962860107422
 20
215.5916137695313
  0
SEQEND
  8
4
  0
POLYLINE
  8
4
  6
CONTINUOUS
 66
     1
 70
     0
 40
0.0
 41
0.0
  0
VERTEX
  8
4
 10
96.28962707519531
 20
216.4916076660156
  0
VERTEX
  8
4
 10
97.18962860107422
 20
216.4916076660156
  0
SEQEND
  8
4
  0
POLYLINE
  8
4
  6
CONTINUOUS
 66
     1
 70
     0
 40
0.0
 41
0.0
  0
VERTEX
  8
4
 10
97.61150360107422
 20
217.0541076660156
  0
VERTEX
  8
4
 10
97.89275360107422
 20
217.3916168212891
  0
VERTEX
  8
4
 10
98.23024749755859
 20
217.3916168212891
  0
VERTEX
  8
4
 10
98.51149749755859
 20
217.0541076660156
  0
VERTEX
  8
4
 10
98.51149749755859
 20
216.7728576660156
  0
VERTEX
  8
4
 10
98.17400360107422
 20
216.4916076660156
  0
VERTEX
  8
4
 10
97.83650207519531
 20
216.4916076660156
  0
SEQEND
  8
4
  0
POLYLINE
  8
4
  6
CONTINUOUS
 66
     1
 70
     0
 40
0.0
 41
0.0
  0
VERTEX
  8
4
 10
98.17400360107422
 20
216.4916076660156
  0
VERTEX
  8
4
 10
98.51149749755859
 20
216.1541137695313
  0
VERTEX
  8
4
 10
98.51149749755859
 20
215.8728637695313
  0
VERTEX
  8
4
 10
98.23024749755859
 20
215.5916137695313
  0
VERTEX
  8
4
 10
97.89275360107422
 20
215.5916137695313
  0
VERTEX
  8
4
 10
97.61150360107422
 20
215.8728637695313
  0
SEQEND
  8
4
  0
ENDBLK
  8
4
  0
BLOCK
  8
4
  2
COMP4
 70
    64
 10
0.0
 20
0.0
  0
POLYLINE
  8
4
  6
CONTINUOUS
 66
     1
 70
     0
 40
0.0
 41
0.0
  0
VERTEX
  8
4
 10
93.6053466796875
 20
213.1716156005859
  0
VERTEX
  8
4
 10
94.05534362792969
 20
214.9716186523438
  0
VERTEX
  8
4
 10
94.50534820556641
 20
213.1716156005859
  0
SEQEND
  8
4
  0
POLYLINE
  8
4
  6
CONTINUOUS
 66
     1
 70
     0
 40
0.0
 41
0.0
  0
VERTEX
  8
4
 10
94.36472320556641
 20
213.7341156005859
  0
VERTEX
  8
4
 10
93.7459716796875
 20
213.7341156005859
  0
SEQEND
  8
4
  0
POLYLINE
  8
4
  6
CONTINUOUS
 66
     1
 70
     0
 40
0.0
 41
0.0
  0
VERTEX
  8
4
 10
95.77097320556641
 20
214.0716094970703
  0
VERTEX
  8
4
 10
94.98347473144531
 20
214.0716094970703
  0
SEQEND
  8
4
  0
POLYLINE
  8
4
  6
CONTINUOUS
 66
     1
 70
     0
 40
0.0
 41
0.0
  0
VERTEX
  8
4
 10
96.24909973144531
 20
214.5778656005859
  0
VERTEX
  8
4
 10
96.24909973144531
 20
213.5091094970703
 42
0.7499915228374759
  0
VERTEX
  8
4
 10
97.14909362792969
 20
213.5091094970703
  0
VERTEX
  8
4
 10
97.14909362792969
 20
214.5778656005859
 42
0.8750127157437863
  0
VERTEX
  8
4
 10
96.24909973144531
 20
214.5778656005859
  0
SEQEND
  8
4
  0
POLYLINE
  8
4
  6
CONTINUOUS
 66
     1
 70
     0
 40
0.0
 41
0.0
  0
VERTEX
  8
4
 10
97.57096862792969
 20
214.9716186523438
  0
VERTEX
  8
4
 10
97.57096862792969
 20
213.5091094970703
 42
0.7499788074529949
  0
VERTEX
  8
4
 10
98.47097015380859
 20
213.5091094970703
  0
VERTEX
  8
4
 10
98.47097015380859
 20
214.9716186523438
  0
SEQEND
  8
4
  0
POLYLINE
  8
4
  6
CONTINUOUS
 66
     1
 70
     0
 40
0.0
 41
0.0
  0
VERTEX
  8
4
 10
98.89284515380859
 20
214.9716186523438
  0
VERTEX
  8
4
 10
99.7928466796875
 20
214.9716186523438
  0
SEQEND
  8
4
  0
POLYLINE
  8
4
  6
CONTINUOUS
 66
     1
 70
     0
 40
0.0
 41
0.0
  0
VERTEX
  8
4
 10
99.34284973144531
 20
214.9716186523438
  0
VERTEX
  8
4
 10
99.34284973144531
 20
213.1716156005859
  0
SEQEND
  8
4
  0
ENDBLK
  8
4
  0
BLOCK
  8
4
  2
COMP5
 70
    64
 10
0.0
 20
0.0
  0
POLYLINE
  8
4
  6
CONTINUOUS
 66
     1
 70
     0
 40
0.0
 41
0.0
  0
VERTEX
  8
4
 10
83.87764739990234
 20
216.9192352294922
 42
0.8750127157437863
  0
VERTEX
  8
4
 10
82.97764587402344
 20
216.9192352294922
  0
VERTEX
  8
4
 10
82.97764587402344
 20
215.8504791259766
 42
0.7499788074529949
  0
VERTEX
  8
4
 10
83.87764739990234
 20
215.8504791259766
  0
SEQEND
  8
4
  0
POLYLINE
  8
4
  6
CONTINUOUS
 66
     1
 70
     0
 40
0.0
 41
0.0
  0
VERTEX
  8
4
 10
84.29952239990234
 20
217.31298828125
  0
VERTEX
  8
4
 10
84.29952239990234
 20
215.5129852294922
  0
SEQEND
  8
4
  0
POLYLINE
  8
4
  6
CONTINUOUS
 66
     1
 70
     0
 40
0.0
 41
0.0
  0
VERTEX
  8
4
 10
85.19952392578125
 20
217.31298828125
  0
VERTEX
  8
4
 10
85.19952392578125
 20
215.5129852294922
  0
SEQEND
  8
4
  0
POLYLINE
  8
4
  6
CONTINUOUS
 66
     1
 70
     0
 40
0.0
 41
0.0
  0
VERTEX
  8
4
 10
84.29952239990234
 20
216.4129791259766
  0
VERTEX
  8
4
 10
85.19952392578125
 20
216.4129791259766
  0
SEQEND
  8
4
  0
POLYLINE
  8
4
  6
CONTINUOUS
 66
     1
 70
     0
 40
0.0
 41
0.0
  0
VERTEX
  8
4
 10
85.62139892578125
 20
216.9754791259766
  0
VERTEX
  8
4
 10
85.90264892578125
 20
217.31298828125
  0
VERTEX
  8
4
 10
86.24014282226563
 20
217.31298828125
  0
VERTEX
  8
4
 10
86.52139282226563
 20
216.9754791259766
  0
VERTEX
  8
4
 10
86.52139282226563
 20
216.5254821777344
  0
VERTEX
  8
4
 10
85.62139892578125
 20
215.7379913330078
  0
VERTEX
  8
4
 10
85.62139892578125
 20
215.5129852294922
  0
VERTEX
  8
4
 10
86.52139282226563
 20
215.5129852294922
  0
SEQEND
  8
4
  0
ENDBLK
  8
4
  0
BLOCK
  8
4
  2
COMP6
 70
    64
 10
0.0
 20
0.0
  0
POLYLINE
  8
4
  6
CONTINUOUS
 66
     1
 70
     0
 40
0.0
 41
0.0
  0
VERTEX
  8
4
 10
71.93833923339844
 20
216.9742584228516
 42
0.8749978807452995
  0
VERTEX
  8
4
 10
71.03833770751953
 20
216.9742584228516
  0
VERTEX
  8
4
 10
71.03833770751953
 20
215.9055023193359
 42
0.7499915228374759
  0
VERTEX
  8
4
 10
71.93833923339844
 20
215.9055023193359
  0
SEQEND
  8
4
  0
POLYLINE
  8
4
  6
CONTINUOUS
 66
     1
 70
     0
 40
0.0
 41
0.0
  0
VERTEX
  8
4
 10
72.36021423339844
 20
217.3680114746094
  0
VERTEX
  8
4
 10
72.36021423339844
 20
215.5680084228516
  0
SEQEND
  8
4
  0
POLYLINE
  8
4
  6
CONTINUOUS
 66
     1
 70
     0
 40
0.0
 41
0.0
  0
VERTEX
  8
4
 10
73.26021575927734
 20
217.3680114746094
  0
VERTEX
  8
4
 10
73.26021575927734
 20
215.5680084228516
  0
SEQEND
  8
4
  0
POLYLINE
  8
4
  6
CONTINUOUS
 66
     1
 70
     0
 40
0.0
 41
0.0
  0
VERTEX
  8
4
 10
72.36021423339844
 20
216.4680023193359
  0
VERTEX
  8
4
 10
73.26021575927734
 20
216.4680023193359
  0
SEQEND
  8
4
  0
POLYLINE
  8
4
  6
CONTINUOUS
 66
     1
 70
     0
 40
0.0
 41
0.0
  0
VERTEX
  8
4
 10
74.13208770751953
 20
215.5680084228516
  0
VERTEX
  8
4
 10
74.13208770751953
 20
217.3680114746094
  0
VERTEX
  8
4
 10
73.82271575927734
 20
216.8336334228516
  0
SEQEND
  8
4
  0
ENDBLK
  8
4
  0
BLOCK
  8
4
  2
COMP7
 70
    64
 10
0.0
 20
0.0
  0
POLYLINE
  8
4
  6
CONTINUOUS
 66
     1
 70
     0
 40
0.0
 41
0.0
  0
VERTEX
  8
4
 10
49.85104751586914
 20
210.9627380371094
  0
VERTEX
  8
4
 10
50.16979598999023
 20
210.9627380371094
 42
0.4666883680555556
  0
VERTEX
  8
4
 10
50.45104598999023
 20
211.2439880371094
  0
VERTEX
  8
4
 10
50.45104598999023
 20
211.8814849853516
 42
0.4666883680555556
  0
VERTEX
  8
4
 10
50.16979598999023
 20
212.1627349853516
  0
VERTEX
  8
4
 10
49.85104751586914
 20
212.1627349853516
  0
VERTEX
  8
4
 10
49.85104751586914
 20
210.9627380371094
  0
SEQEND
  8
4
  0
POLYLINE
  8
4
  6
CONTINUOUS
 66
     1
 70
     0
 40
0.0
 41
0.0
  0
VERTEX
  8
4
 10
50.82604598999023
 20
212.1627349853516
  0
VERTEX
  8
4
 10
51.05104827880859
 20
212.1627349853516
  0
SEQEND
  8
4
  0
POLYLINE
  8
4
  6
CONTINUOUS
 66
     1
 70
     0
 40
0.0
 41
0.0
  0
VERTEX
  8
4
 10
50.82604598999023
 20
210.9627380371094
  0
VERTEX
  8
4
 10
51.05104827880859
 20
210.9627380371094
  0
SEQEND
  8
4
  0
POLYLINE
  8
4
  6
CONTINUOUS
 66
     1
 70
     0
 40
0.0
 41
0.0
  0
VERTEX
  8
4
 10
50.93854904174805
 20
210.9627380371094
  0
VERTEX
  8
4
 10
50.93854904174805
 20
212.1627349853516
  0
SEQEND
  8
4
  0
POLYLINE
  8
4
  6
CONTINUOUS
 66
     1
 70
     0
 40
0.0
 41
0.0
  0
VERTEX
  8
4
 10
52.02604675292969
 20
211.9002380371094
 42
0.874992052693819
  0
VERTEX
  8
4
 10
51.42604827880859
 20
211.9002380371094
  0
VERTEX
  8
4
 10
51.42604827880859
 20
211.187744140625
 42
0.750022252457307
  0
VERTEX
  8
4
 10
52.02604675292969
 20
211.187744140625
  0
SEQEND
  8
4
  0
POLYLINE
  8
4
  6
CONTINUOUS
 66
     1
 70
     0
 40
0.0
 41
0.0
  0
VERTEX
  8
4
 10
52.02604675292969
 20
210.9627380371094
  0
VERTEX
  8
4
 10
52.02604675292969
 20
211.5439910888672
  0
VERTEX
  8
4
 10
51.72604751586914
 20
211.5439910888672
  0
SEQEND
  8
4
  0
POLYLINE
  8
4
  6
CONTINUOUS
 66
     1
 70
     0
 40
0.0
 41
0.0
  0
VERTEX
  8
4
 10
52.40104675292969
 20
212.1627349853516
  0
VERTEX
  8
4
 10
52.62604904174805
 20
212.1627349853516
  0
SEQEND
  8
4
  0
POLYLINE
  8
4
  6
CONTINUOUS
 66
     1
 70
     0
 40
0.0
 41
0.0
  0
VERTEX
  8
4
 10
52.40104675292969
 20
210.9627380371094
  0
VERTEX
  8
4
 10
52.62604904174805
 20
210.9627380371094
  0
SEQEND
  8
4
  0
POLYLINE
  8
4
  6
CONTINUOUS
 66
     1
 70
     0
 40
0.0
 41
0.0
  0
VERTEX
  8
4
 10
52.51354598999023
 20
210.9627380371094
  0
VERTEX
  8
4
 10
52.51354598999023
 20
212.1627349853516
  0
SEQEND
  8
4
  0
POLYLINE
  8
4
  6
CONTINUOUS
 66
     1
 70
     0
 40
0.0
 41
0.0
  0
VERTEX
  8
4
 10
53.00104904174805
 20
212.1627349853516
  0
VERTEX
  8
4
 10
53.60104751586914
 20
212.1627349853516
  0
SEQEND
  8
4
  0
POLYLINE
  8
4
  6
CONTINUOUS
 66
     1
 70
     0
 40
0.0
 41
0.0
  0
VERTEX
  8
4
 10
53.30104827880859
 20
212.1627349853516
  0
VERTEX
  8
4
 10
53.30104827880859
 20
210.9627380371094
  0
SEQEND
  8
4
  0
POLYLINE
  8
4
  6
CONTINUOUS
 66
     1
 70
     0
 40
0.0
 41
0.0
  0
VERTEX
  8
4
 10
53.78854751586914
 20
210.9627380371094
  0
VERTEX
  8
4
 10
54.08854675292969
 20
212.1627349853516
  0
VERTEX
  8
4
 10
54.38854598999023
 20
210.9627380371094
  0
SEQEND
  8
4
  0
POLYLINE
  8
4
  6
CONTINUOUS
 66
     1
 70
     0
 40
0.0
 41
0.0
  0
VERTEX
  8
4
 10
54.29479598999023
 20
211.3377380371094
  0
VERTEX
  8
4
 10
53.88229751586914
 20
211.3377380371094
  0
SEQEND
  8
4
  0
POLYLINE
  8
4
  6
CONTINUOUS
 66
     1
 70
     0
 40
0.0
 41
0.0
  0
VERTEX
  8
4
 10
54.57604598999023
 20
212.1627349853516
  0
VERTEX
  8
4
 10
54.57604598999023
 20
210.9627380371094
  0
VERTEX
  8
4
 10
55.17604827880859
 20
210.9627380371094
  0
SEQEND
  8
4
  0
POLYLINE
  8
4
  6
CONTINUOUS
 66
     1
 70
     0
 40
0.0
 41
0.0
  0
VERTEX
  8
4
 10
56.75104522705078
 20
211.937744140625
 42
0.3601554263872859
  0
VERTEX
  8
4
 10
56.45104598999023
 20
212.1627349853516
 42
0.3984982482233873
  0
VERTEX
  8
4
 10
56.15104675292969
 20
211.9002380371094
 42
0.4142325750046184
  0
VERTEX
  8
4
 10
56.45104598999023
 20
211.562744140625
 42
-0.3749991058802913
  0
VERTEX
  8
4
 10
56.75104522705078
 20
211.2627410888672
 42
-0.4832372073926664
  0
VERTEX
  8
4
 10
56.46979522705078
 20
210.9627380371094
 42
-0.3194179291684021
  0
VERTEX
  8
4
 10
56.15104675292969
 20
211.187744140625
  0
SEQEND
  8
4
  0
POLYLINE
  8
4
  6
CONTINUOUS
 66
     1
 70
     0
 40
0.0
 41
0.0
  0
VERTEX
  8
4
 10
56.93854522705078
 20
212.1627349853516
  0
VERTEX
  8
4
 10
57.53854751586914
 20
212.1627349853516
  0
SEQEND
  8
4
  0
POLYLINE
  8
4
  6
CONTINUOUS
 66
     1
 70
     0
 40
0.0
 41
0.0
  0
VERTEX
  8
4
 10
57.23854827880859
 20
212.1627349853516
  0
VERTEX
  8
4
 10
57.23854827880859
 20
210.9627380371094
  0
SEQEND
  8
4
  0
POLYLINE
  8
4
  6
CONTINUOUS
 66
     1
 70
     0
 40
0.0
 41
0.0
  0
VERTEX
  8
4
 10
57.72604751586914
 20
211.562744140625
  0
VERTEX
  8
4
 10
58.02604675292969
 20
211.562744140625
 42
0.4142172868594822
  0
VERTEX
  8
4
 10
58.32603836061995
 20
211.8627319335938
 42
0.4142321842871093
  0
VERTEX
  8
4
 10
58.0260467530267
 20
212.1627273559328
  0
VERTEX
  8
4
 10
57.72604751586914
 20
212.1627349853516
  0
VERTEX
  8
4
 10
57.72604751586914
 20
210.9627380371094
  0
SEQEND
  8
4
  0
POLYLINE
  8
4
  6
CONTINUOUS
 66
     1
 70
     0
 40
0.0
 41
0.0
  0
VERTEX
  8
4
 10
58.32604598999023
 20
210.9627380371094
  0
VERTEX
  8
4
 10
58.02604675292969
 20
211.562744140625
  0
SEQEND
  8
4
  0
POLYLINE
  8
4
  6
CONTINUOUS
 66
     1
 70
     0
 40
0.0
 41
0.0
  0
VERTEX
  8
4
 10
58.51354598999023
 20
210.9627380371094
  0
VERTEX
  8
4
 10
58.81354522705078
 20
212.1627349853516
  0
VERTEX
  8
4
 10
59.11354827880859
 20
210.9627380371094
  0
SEQEND
  8
4
  0
POLYLINE
  8
4
  6
CONTINUOUS
 66
     1
 70
     0
 40
0.0
 41
0.0
  0
VERTEX
  8
4
 10
59.01979827880859
 20
211.3377380371094
  0
VERTEX
  8
4
 10
58.60729598999023
 20
211.3377380371094
  0
SEQEND
  8
4
  0
POLYLINE
  8
4
  6
CONTINUOUS
 66
     1
 70
     0
 40
0.0
 41
0.0
  0
VERTEX
  8
4
 10
59.48854827880859
 20
212.1627349853516
  0
VERTEX
  8
4
 10
59.71354675292969
 20
212.1627349853516
  0
SEQEND
  8
4
  0
POLYLINE
  8
4
  6
CONTINUOUS
 66
     1
 70
     0
 40
0.0
 41
0.0
  0
VERTEX
  8
4
 10
59.48854827880859
 20
210.9627380371094
  0
VERTEX
  8
4
 10
59.71354675292969
 20
210.9627380371094
  0
SEQEND
  8
4
  0
POLYLINE
  8
4
  6
CONTINUOUS
 66
     1
 70
     0
 40
0.0
 41
0.0
  0
VERTEX
  8
4
 10
59.60104751586914
 20
210.9627380371094
  0
VERTEX
  8
4
 10
59.60104751586914
 20
212.1627349853516
  0
SEQEND
  8
4
  0
POLYLINE
  8
4
  6
CONTINUOUS
 66
     1
 70
     0
 40
0.0
 41
0.0
  0
VERTEX
  8
4
 10
60.08854675292969
 20
210.9627380371094
  0
VERTEX
  8
4
 10
60.08854675292969
 20
212.1627349853516
  0
VERTEX
  8
4
 10
60.68854522705078
 20
210.9627380371094
  0
VERTEX
  8
4
 10
60.68854522705078
 20
212.1627349853516
  0
SEQEND
  8
4
  0
POLYLINE
  8
4
  6
CONTINUOUS
 66
     1
 70
     0
 40
0.0
 41
0.0
  0
VERTEX
  8
4
 10
61.85104751586914
 20
212.1627349853516
  0
VERTEX
  8
4
 10
62.07604598999023
 20
212.1627349853516
  0
SEQEND
  8
4
  0
POLYLINE
  8
4
  6
CONTINUOUS
 66
     1
 70
     0
 40
0.0
 41
0.0
  0
VERTEX
  8
4
 10
61.85104751586914
 20
210.9627380371094
  0
VERTEX
  8
4
 10
62.07604598999023
 20
210.9627380371094
  0
SEQEND
  8
4
  0
POLYLINE
  8
4
  6
CONTINUOUS
 66
     1
 70
     0
 40
0.0
 41
0.0
  0
VERTEX
  8
4
 10
61.96354675292969
 20
210.9627380371094
  0
VERTEX
  8
4
 10
61.96354675292969
 20
212.1627349853516
  0
SEQEND
  8
4
  0
POLYLINE
  8
4
  6
CONTINUOUS
 66
     1
 70
     0
 40
0.0
 41
0.0
  0
VERTEX
  8
4
 10
62.45104598999023
 20
210.9627380371094
  0
VERTEX
  8
4
 10
62.45104598999023
 20
212.1627349853516
  0
VERTEX
  8
4
 10
63.05104827880859
 20
210.9627380371094
  0
VERTEX
  8
4
 10
63.05104827880859
 20
212.1627349853516
  0
SEQEND
  8
4
  0
POLYLINE
  8
4
  6
CONTINUOUS
 66
     1
 70
     0
 40
0.0
 41
0.0
  0
VERTEX
  8
4
 10
63.23854827880859
 20
210.9627380371094
  0
VERTEX
  8
4
 10
63.55729675292969
 20
210.9627380371094
 42
0.4666883680555556
  0
VERTEX
  8
4
 10
63.83854675292969
 20
211.2439880371094
  0
VERTEX
  8
4
 10
63.83854675292969
 20
211.8814849853516
 42
0.4666883680555556
  0
VERTEX
  8
4
 10
63.55729675292969
 20
212.1627349853516
  0
VERTEX
  8
4
 10
63.23854827880859
 20
212.1627349853516
  0
VERTEX
  8
4
 10
63.23854827880859
 20
210.9627380371094
  0
SEQEND
  8
4
  0
POLYLINE
  8
4
  6
CONTINUOUS
 66
     1
 70
     0
 40
0.0
 41
0.0
  0
VERTEX
  8
4
 10
64.21354675292969
 20
212.1627349853516
  0
VERTEX
  8
4
 10
64.43854522705078
 20
212.1627349853516
  0
SEQEND
  8
4
  0
POLYLINE
  8
4
  6
CONTINUOUS
 66
     1
 70
     0
 40
0.0
 41
0.0
  0
VERTEX
  8
4
 10
64.21354675292969
 20
210.9627380371094
  0
VERTEX
  8
4
 10
64.43854522705078
 20
210.9627380371094
  0
SEQEND
  8
4
  0
POLYLINE
  8
4
  6
CONTINUOUS
 66
     1
 70
     0
 40
0.0
 41
0.0
  0
VERTEX
  8
4
 10
64.3260498046875
 20
210.9627380371094
  0
VERTEX
  8
4
 10
64.3260498046875
 20
212.1627349853516
  0
SEQEND
  8
4
  0
POLYLINE
  8
4
  6
CONTINUOUS
 66
     1
 70
     0
 40
0.0
 41
0.0
  0
VERTEX
  8
4
 10
65.41354370117188
 20
211.9002380371094
 42
0.8750031789628953
  0
VERTEX
  8
4
 10
64.81354522705078
 20
211.9002380371094
  0
VERTEX
  8
4
 10
64.81354522705078
 20
211.187744140625
 42
0.7500127155282031
  0
VERTEX
  8
4
 10
65.41354370117188
 20
211.187744140625
  0
SEQEND
  8
4
  0
POLYLINE
  8
4
  6
CONTINUOUS
 66
     1
 70
     0
 40
0.0
 41
0.0
  0
VERTEX
  8
4
 10
65.60104370117188
 20
210.9627380371094
  0
VERTEX
  8
4
 10
65.90104675292969
 20
212.1627349853516
  0
VERTEX
  8
4
 10
66.2010498046875
 20
210.9627380371094
  0
SEQEND
  8
4
  0
POLYLINE
  8
4
  6
CONTINUOUS
 66
     1
 70
     0
 40
0.0
 41
0.0
  0
VERTEX
  8
4
 10
66.1072998046875
 20
211.3377380371094
  0
VERTEX
  8
4
 10
65.69479370117188
 20
211.3377380371094
  0
SEQEND
  8
4
  0
POLYLINE
  8
4
  6
CONTINUOUS
 66
     1
 70
     0
 40
0.0
 41
0.0
  0
VERTEX
  8
4
 10
66.3885498046875
 20
212.1627349853516
  0
VERTEX
  8
4
 10
66.98854827880859
 20
212.1627349853516
  0
SEQEND
  8
4
  0
POLYLINE
  8
4
  6
CONTINUOUS
 66
     1
 70
     0
 40
0.0
 41
0.0
  0
VERTEX
  8
4
 10
66.68854522705078
 20
212.1627349853516
  0
VERTEX
  8
4
 10
66.68854522705078
 20
210.9627380371094
  0
SEQEND
  8
4
  0
POLYLINE
  8
4
  6
CONTINUOUS
 66
     1
 70
     0
 40
0.0
 41
0.0
  0
VERTEX
  8
4
 10
67.17604827880859
 20
211.9002380371094
  0
VERTEX
  8
4
 10
67.17604827880859
 20
211.187744140625
 42
0.7500127155282031
  0
VERTEX
  8
4
 10
67.77604675292969
 20
211.187744140625
  0
VERTEX
  8
4
 10
67.77604675292969
 20
211.9002380371094
 42
0.8750031789628953
  0
VERTEX
  8
4
 10
67.17604827880859
 20
211.9002380371094
  0
SEQEND
  8
4
  0
POLYLINE
  8
4
  6
CONTINUOUS
 66
     1
 70
     0
 40
0.0
 41
0.0
  0
VERTEX
  8
4
 10
67.96354675292969
 20
211.562744140625
  0
VERTEX
  8
4
 10
68.2635498046875
 20
211.562744140625
 42
0.4142135623730681
  0
VERTEX
  8
4
 10
68.56353759765625
 20
211.8627319335938
 42
0.4142284601877528
  0
VERTEX
  8
4
 10
68.2635498046875
 20
212.162727355957
  0
VERTEX
  8
4
 10
67.96354675292969
 20
212.1627349853516
  0
VERTEX
  8
4
 10
67.96354675292969
 20
210.9627380371094
  0
SEQEND
  8
4
  0
POLYLINE
  8
4
  6
CONTINUOUS
 66
     1
 70
     0
 40
0.0
 41
0.0
  0
VERTEX
  8
4
 10
68.56354522705078
 20
210.9627380371094
  0
VERTEX
  8
4
 10
68.2635498046875
 20
211.562744140625
  0
SEQEND
  8
4
  0
ENDBLK
  8
4
  0
BLOCK
  8
4
  2
COMP8
 70
    64
 10
0.0
 20
0.0
  0
POLYLINE
  8
4
  6
CONTINUOUS
 66
     1
 70
     0
 40
0.0
 41
0.0
  0
VERTEX
  8
4
 10
27.35397911071777
 20
206.4053344726563
 42
0.8750042385812622
  0
VERTEX
  8
4
 10
27.35397911071777
 20
205.5053405761719
  0
VERTEX
  8
4
 10
28.4227294921875
 20
205.5053405761719
 42
0.750004238581262
  0
VERTEX
  8
4
 10
28.4227294921875
 20
206.4053344726563
  0
SEQEND
  8
4
  0
POLYLINE
  8
4
  6
CONTINUOUS
 66
     1
 70
     0
 40
0.0
 41
0.0
  0
VERTEX
  8
4
 10
26.96022987365723
 20
206.6865844726563
  0
VERTEX
  8
4
 10
28.76022911071777
 20
206.6865844726563
  0
SEQEND
  8
4
  0
POLYLINE
  8
4
  6
CONTINUOUS
 66
     1
 70
     0
 40
0.0
 41
0.0
  0
VERTEX
  8
4
 10
26.96022987365723
 20
207.5865936279297
  0
VERTEX
  8
4
 10
28.76022911071777
 20
207.5865936279297
  0
SEQEND
  8
4
  0
POLYLINE
  8
4
  6
CONTINUOUS
 66
     1
 70
     0
 40
0.0
 41
0.0
  0
VERTEX
  8
4
 10
27.8602294921875
 20
206.6865844726563
  0
VERTEX
  8
4
 10
27.8602294921875
 20
207.5865936279297
  0
SEQEND
  8
4
  0
POLYLINE
  8
4
  6
CONTINUOUS
 66
     1
 70
     0
 40
0.0
 41
0.0
  0
VERTEX
  8
4
 10
28.76022911071777
 20
208.3178405761719
  0
VERTEX
  8
4
 10
26.96022987365723
 20
208.3178405761719
  0
VERTEX
  8
4
 10
27.49460411071777
 20
208.0084686279297
  0
SEQEND
  8
4
  0
ENDBLK
  8
4
  0
BLOCK
  8
4
  2
COMP9
 70
    64
 10
0.0
 20
0.0
  0
POLYLINE
  8
4
  6
CONTINUOUS
 66
     1
 70
     0
 40
0.0
 41
0.0
  0
VERTEX
  8
4
 10
27.40316581726074
 20
191.4727478027344
 42
0.8750042385812622
  0
VERTEX
  8
4
 10
27.40316581726074
 20
190.57275390625
  0
VERTEX
  8
4
 10
28.47191619873047
 20
190.57275390625
 42
0.750004238581262
  0
VERTEX
  8
4
 10
28.47191619873047
 20
191.4727478027344
  0
SEQEND
  8
4
  0
POLYLINE
  8
4
  6
CONTINUOUS
 66
     1
 70
     0
 40
0.0
 41
0.0
  0
VERTEX
  8
4
 10
27.0094165802002
 20
191.7539978027344
  0
VERTEX
  8
4
 10
28.80941581726074
 20
191.7539978027344
  0
SEQEND
  8
4
  0
POLYLINE
  8
4
  6
CONTINUOUS
 66
     1
 70
     0
 40
0.0
 41
0.0
  0
VERTEX
  8
4
 10
27.0094165802002
 20
192.6540069580078
  0
VERTEX
  8
4
 10
28.80941581726074
 20
192.6540069580078
  0
SEQEND
  8
4
  0
POLYLINE
  8
4
  6
CONTINUOUS
 66
     1
 70
     0
 40
0.0
 41
0.0
  0
VERTEX
  8
4
 10
27.90941619873047
 20
191.7539978027344
  0
VERTEX
  8
4
 10
27.90941619873047
 20
192.6540069580078
  0
SEQEND
  8
4
  0
POLYLINE
  8
4
  6
CONTINUOUS
 66
     1
 70
     0
 40
0.0
 41
0.0
  0
VERTEX
  8
4
 10
27.34691619873047
 20
192.9352569580078
  0
VERTEX
  8
4
 10
27.0094165802002
 20
193.2165069580078
  0
VERTEX
  8
4
 10
27.0094165802002
 20
193.5540008544922
  0
VERTEX
  8
4
 10
27.34691619873047
 20
193.8352508544922
  0
VERTEX
  8
4
 10
27.79691505432129
 20
193.8352508544922
  0
VERTEX
  8
4
 10
28.58441543579102
 20
192.9352569580078
  0
VERTEX
  8
4
 10
28.80941581726074
 20
192.9352569580078
  0
VERTEX
  8
4
 10
28.80941581726074
 20
193.8352508544922
  0
SEQEND
  8
4
  0
ENDBLK
  8
4
  0
BLOCK
  8
4
  2
COMP10
 70
    64
 10
0.0
 20
0.0
  0
POLYLINE
  8
4
  6
CONTINUOUS
 66
     1
 70
     0
 40
0.0
 41
0.0
  0
VERTEX
  8
4
 10
29.27205657958984
 20
181.7952575683594
  0
VERTEX
  8
4
 10
29.27205657958984
 20
182.1327514648438
  0
SEQEND
  8
4
  0
POLYLINE
  8
4
  6
CONTINUOUS
 66
     1
 70
     0
 40
0.0
 41
0.0
  0
VERTEX
  8
4
 10
31.07205581665039
 20
181.7952575683594
  0
VERTEX
  8
4
 10
31.07205581665039
 20
182.1327514648438
  0
SEQEND
  8
4
  0
POLYLINE
  8
4
  6
CONTINUOUS
 66
     1
 70
     0
 40
0.0
 41
0.0
  0
VERTEX
  8
4
 10
31.07205581665039
 20
181.9640045166016
  0
VERTEX
  8
4
 10
29.27205657958984
 20
181.9640045166016
  0
SEQEND
  8
4
  0
POLYLINE
  8
4
  6
CONTINUOUS
 66
     1
 70
     0
 40
0.0
 41
0.0
  0
VERTEX
  8
4
 10
31.07205581665039
 20
182.6952514648438
  0
VERTEX
  8
4
 10
29.27205657958984
 20
182.6952514648438
  0
VERTEX
  8
4
 10
31.07205581665039
 20
183.5952606201172
  0
VERTEX
  8
4
 10
29.27205657958984
 20
183.5952606201172
  0
SEQEND
  8
4
  0
POLYLINE
  8
4
  6
CONTINUOUS
 66
     1
 70
     0
 40
0.0
 41
0.0
  0
VERTEX
  8
4
 10
30.17205619812012
 20
183.8765106201172
  0
VERTEX
  8
4
 10
30.17205619812012
 20
184.3265075683594
 42
0.9999915229093375
  0
VERTEX
  8
4
 10
29.27205657958984
 20
184.3265075683594
  0
VERTEX
  8
4
 10
29.27205657958984
 20
183.8765106201172
  0
VERTEX
  8
4
 10
31.07205581665039
 20
183.8765106201172
  0
SEQEND
  8
4
  0
POLYLINE
  8
4
  6
CONTINUOUS
 66
     1
 70
     0
 40
0.0
 41
0.0
  0
VERTEX
  8
4
 10
29.27205657958984
 20
185.0577545166016
  0
VERTEX
  8
4
 10
30.73455619812012
 20
185.0577545166016
 42
0.7499788078122881
  0
VERTEX
  8
4
 10
30.73455619812012
 20
185.957763671875
  0
VERTEX
  8
4
 10
29.27205657958984
 20
185.957763671875
  0
SEQEND
  8
4
  0
POLYLINE
  8
4
  6
CONTINUOUS
 66
     1
 70
     0
 40
0.0
 41
0.0
  0
VERTEX
  8
4
 10
29.27205657958984
 20
186.239013671875
  0
VERTEX
  8
4
 10
29.27205657958984
 20
187.1390075683594
  0
SEQEND
  8
4
  0
POLYLINE
  8
4
  6
CONTINUOUS
 66
     1
 70
     0
 40
0.0
 41
0.0
  0
VERTEX
  8
4
 10
29.27205657958984
 20
186.6890106201172
  0
VERTEX
  8
4
 10
31.07205581665039
 20
186.6890106201172
  0
SEQEND
  8
4
  0
ENDBLK
  8
4
  0
BLOCK
  8
4
  2
COMP11
 70
    64
 10
0.0
 20
0.0
  0
POLYLINE
  8
4
  6
CONTINUOUS
 66
     1
 70
     0
 40
0.0
 41
0.0
  0
VERTEX
  8
4
 10
27.37857246398926
 20
176.6590270996094
 42
0.8750042385812622
  0
VERTEX
  8
4
 10
27.37857246398926
 20
175.759033203125
  0
VERTEX
  8
4
 10
28.44732284545898
 20
175.759033203125
 42
0.750004238581262
  0
VERTEX
  8
4
 10
28.44732284545898
 20
176.6590270996094
  0
SEQEND
  8
4
  0
POLYLINE
  8
4
  6
CONTINUOUS
 66
     1
 70
     0
 40
0.0
 41
0.0
  0
VERTEX
  8
4
 10
26.98482322692871
 20
176.9402770996094
  0
VERTEX
  8
4
 10
28.78482246398926
 20
176.9402770996094
  0
SEQEND
  8
4
  0
POLYLINE
  8
4
  6
CONTINUOUS
 66
     1
 70
     0
 40
0.0
 41
0.0
  0
VERTEX
  8
4
 10
26.98482322692871
 20
177.8402862548828
  0
VERTEX
  8
4
 10
28.78482246398926
 20
177.8402862548828
  0
SEQEND
  8
4
  0
POLYLINE
  8
4
  6
CONTINUOUS
 66
     1
 70
     0
 40
0.0
 41
0.0
  0
VERTEX
  8
4
 10
27.88482284545898
 20
176.9402770996094
  0
VERTEX
  8
4
 10
27.88482284545898
 20
177.8402862548828
  0
SEQEND
  8
4
  0
POLYLINE
  8
4
  6
CONTINUOUS
 66
     1
 70
     0
 40
0.0
 41
0.0
  0
VERTEX
  8
4
 10
27.32232284545898
 20
178.1215362548828
  0
VERTEX
  8
4
 10
26.98482322692871
 20
178.4027862548828
  0
VERTEX
  8
4
 10
26.98482322692871
 20
178.7402801513672
  0
VERTEX
  8
4
 10
27.32232284545898
 20
179.0215301513672
  0
VERTEX
  8
4
 10
27.60357284545898
 20
179.0215301513672
  0
VERTEX
  8
4
 10
27.88482284545898
 20
178.6840362548828
  0
VERTEX
  8
4
 10
27.88482284545898
 20
178.3465270996094
  0
SEQEND
  8
4
  0
POLYLINE
  8
4
  6
CONTINUOUS
 66
     1
 70
     0
 40
0.0
 41
0.0
  0
VERTEX
  8
4
 10
27.88482284545898
 20
178.6840362548828
  0
VERTEX
  8
4
 10
28.22232246398926
 20
179.0215301513672
  0
VERTEX
  8
4
 10
28.50357246398926
 20
179.0215301513672
  0
VERTEX
  8
4
 10
28.78482246398926
 20
178.7402801513672
  0
VERTEX
  8
4
 10
28.78482246398926
 20
178.4027862548828
  0
VERTEX
  8
4
 10
28.50357246398926
 20
178.1215362548828
  0
SEQEND
  8
4
  0
ENDBLK
  8
4
  0
BLOCK
  8
4
  2
COMP12
 70
    64
 10
0.0
 20
0.0
  0
POLYLINE
  8
4
  6
CONTINUOUS
 66
     1
 70
     0
 40
0.0
 41
0.0
  0
VERTEX
  8
4
 10
27.35397911071777
 20
161.8576049804688
 42
0.8750042385812622
  0
VERTEX
  8
4
 10
27.35397911071777
 20
160.9576110839844
  0
VERTEX
  8
4
 10
28.4227294921875
 20
160.9576110839844
 42
0.750004238581262
  0
VERTEX
  8
4
 10
28.4227294921875
 20
161.8576049804688
  0
SEQEND
  8
4
  0
POLYLINE
  8
4
  6
CONTINUOUS
 66
     1
 70
     0
 40
0.0
 41
0.0
  0
VERTEX
  8
4
 10
26.96022987365723
 20
162.1388549804688
  0
VERTEX
  8
4
 10
28.76022911071777
 20
162.1388549804688
  0
SEQEND
  8
4
  0
POLYLINE
  8
4
  6
CONTINUOUS
 66
     1
 70
     0
 40
0.0
 41
0.0
  0
VERTEX
  8
4
 10
26.96022987365723
 20
163.0388641357422
  0
VERTEX
  8
4
 10
28.76022911071777
 20
163.0388641357422
  0
SEQEND
  8
4
  0
POLYLINE
  8
4
  6
CONTINUOUS
 66
     1
 70
     0
 40
0.0
 41
0.0
  0
VERTEX
  8
4
 10
27.8602294921875
 20
162.1388549804688
  0
VERTEX
  8
4
 10
27.8602294921875
 20
163.0388641357422
  0
SEQEND
  8
4
  0
POLYLINE
  8
4
  6
CONTINUOUS
 66
     1
 70
     0
 40
0.0
 41
0.0
  0
VERTEX
  8
4
 10
26.96022987365723
 20
163.7701110839844
  0
VERTEX
  8
4
 10
28.19772911071777
 20
163.3201141357422
  0
VERTEX
  8
4
 10
28.19772911071777
 20
164.2201080322266
  0
SEQEND
  8
4
  0
POLYLINE
  8
4
  6
CONTINUOUS
 66
     1
 70
     0
 40
0.0
 41
0.0
  0
VERTEX
  8
4
 10
28.76022911071777
 20
163.9388580322266
  0
VERTEX
  8
4
 10
27.5789794921875
 20
163.9388580322266
  0
SEQEND
  8
4
  0
ENDBLK
  8
4
  0
BLOCK
  8
4
  2
COMP13
 70
    64
 10
0.0
 20
0.0
  0
POLYLINE
  8
4
  6
CONTINUOUS
 66
     1
 70
     0
 40
0.0
 41
0.0
  0
VERTEX
  8
4
 10
62.96651840209961
 20
167.8957672119141
 42
0.875017339436815
  0
VERTEX
  8
4
 10
62.41651916503906
 20
167.8957672119141
  0
VERTEX
  8
4
 10
62.41651916503906
 20
167.2426452636719
 42
0.7500173396773433
  0
VERTEX
  8
4
 10
62.96651840209961
 20
167.2426452636719
  0
SEQEND
  8
4
  0
POLYLINE
  8
4
  6
CONTINUOUS
 66
     1
 70
     0
 40
0.0
 41
0.0
  0
VERTEX
  8
4
 10
63.13839340209961
 20
168.1363983154297
  0
VERTEX
  8
4
 10
63.13839340209961
 20
167.0363922119141
  0
SEQEND
  8
4
  0
POLYLINE
  8
4
  6
CONTINUOUS
 66
     1
 70
     0
 40
0.0
 41
0.0
  0
VERTEX
  8
4
 10
63.68839263916016
 20
168.1363983154297
  0
VERTEX
  8
4
 10
63.68839263916016
 20
167.0363922119141
  0
SEQEND
  8
4
  0
POLYLINE
  8
4
  6
CONTINUOUS
 66
     1
 70
     0
 40
0.0
 41
0.0
  0
VERTEX
  8
4
 10
63.13839340209961
 20
167.5863952636719
  0
VERTEX
  8
4
 10
63.68839263916016
 20
167.5863952636719
  0
SEQEND
  8
4
  0
POLYLINE
  8
4
  6
CONTINUOUS
 66
     1
 70
     0
 40
0.0
 41
0.0
  0
VERTEX
  8
4
 10
64.13526916503906
 20
167.0363922119141
  0
VERTEX
  8
4
 10
64.13526916503906
 20
168.1363983154297
  0
VERTEX
  8
4
 10
63.94620513916016
 20
167.8098297119141
  0
SEQEND
  8
4
  0
ENDBLK
  8
4
  0
BLOCK
  8
4
  2
COMP14
 70
    64
 10
0.0
 20
0.0
  0
POLYLINE
  8
4
  6
CONTINUOUS
 66
     1
 70
     0
 40
0.0
 41
0.0
  0
VERTEX
  8
4
 10
73.55359649658203
 20
167.9211273193359
 42
0.875017339436815
  0
VERTEX
  8
4
 10
73.00359344482422
 20
167.9211273193359
  0
VERTEX
  8
4
 10
73.00359344482422
 20
167.2680053710938
 42
0.750006935774726
  0
VERTEX
  8
4
 10
73.55359649658203
 20
167.2680053710938
  0
SEQEND
  8
4
  0
POLYLINE
  8
4
  6
CONTINUOUS
 66
     1
 70
     0
 40
0.0
 41
0.0
  0
VERTEX
  8
4
 10
73.72547149658203
 20
168.1617584228516
  0
VERTEX
  8
4
 10
73.72547149658203
 20
167.0617523193359
  0
SEQEND
  8
4
  0
POLYLINE
  8
4
  6
CONTINUOUS
 66
     1
 70
     0
 40
0.0
 41
0.0
  0
VERTEX
  8
4
 10
74.27546691894531
 20
168.1617584228516
  0
VERTEX
  8
4
 10
74.27546691894531
 20
167.0617523193359
  0
SEQEND
  8
4
  0
POLYLINE
  8
4
  6
CONTINUOUS
 66
     1
 70
     0
 40
0.0
 41
0.0
  0
VERTEX
  8
4
 10
73.72547149658203
 20
167.6117553710938
  0
VERTEX
  8
4
 10
74.27546691894531
 20
167.6117553710938
  0
SEQEND
  8
4
  0
POLYLINE
  8
4
  6
CONTINUOUS
 66
     1
 70
     0
 40
0.0
 41
0.0
  0
VERTEX
  8
4
 10
74.44734191894531
 20
167.9555053710938
  0
VERTEX
  8
4
 10
74.61921691894531
 20
168.1617584228516
  0
VERTEX
  8
4
 10
74.82546997070313
 20
168.1617584228516
  0
VERTEX
  8
4
 10
74.99734497070313
 20
167.9555053710938
  0
VERTEX
  8
4
 10
74.99734497070313
 20
167.7836303710938
  0
VERTEX
  8
4
 10
74.79109191894531
 20
167.6117553710938
  0
VERTEX
  8
4
 10
74.58484649658203
 20
167.6117553710938
  0
SEQEND
  8
4
  0
POLYLINE
  8
4
  6
CONTINUOUS
 66
     1
 70
     0
 40
0.0
 41
0.0
  0
VERTEX
  8
4
 10
74.79109191894531
 20
167.6117553710938
  0
VERTEX
  8
4
 10
74.99734497070313
 20
167.4055023193359
  0
VERTEX
  8
4
 10
74.99734497070313
 20
167.2336273193359
  0
VERTEX
  8
4
 10
74.82546997070313
 20
167.0617523193359
  0
VERTEX
  8
4
 10
74.61921691894531
 20
167.0617523193359
  0
VERTEX
  8
4
 10
74.44734191894531
 20
167.2336273193359
  0
SEQEND
  8
4
  0
ENDBLK
  8
4
  0
BLOCK
  8
4
  2
COMP15
 70
    64
 10
0.0
 20
0.0
  0
POLYLINE
  8
4
  6
CONTINUOUS
 66
     1
 70
     0
 40
0.0
 41
0.0
  0
VERTEX
  8
4
 10
66.20758056640625
 20
163.2706909179688
  0
VERTEX
  8
4
 10
66.48258209228516
 20
164.3706970214844
  0
VERTEX
  8
4
 10
66.75758361816406
 20
163.2706909179688
  0
SEQEND
  8
4
  0
POLYLINE
  8
4
  6
CONTINUOUS
 66
     1
 70
     0
 40
0.0
 41
0.0
  0
VERTEX
  8
4
 10
66.67164611816406
 20
163.6144409179688
  0
VERTEX
  8
4
 10
66.29351806640625
 20
163.6144409179688
  0
SEQEND
  8
4
  0
POLYLINE
  8
4
  6
CONTINUOUS
 66
     1
 70
     0
 40
0.0
 41
0.0
  0
VERTEX
  8
4
 10
67.47945404052734
 20
164.3706970214844
  0
VERTEX
  8
4
 10
67.20445251464844
 20
163.2706909179688
  0
VERTEX
  8
4
 10
66.92945861816406
 20
164.3706970214844
  0
SEQEND
  8
4
  0
POLYLINE
  8
4
  6
CONTINUOUS
 66
     1
 70
     0
 40
0.0
 41
0.0
  0
VERTEX
  8
4
 10
68.20133209228516
 20
164.3706970214844
  0
VERTEX
  8
4
 10
67.65132904052734
 20
164.3706970214844
  0
VERTEX
  8
4
 10
67.65132904052734
 20
163.2706909179688
  0
VERTEX
  8
4
 10
68.20133209228516
 20
163.2706909179688
  0
SEQEND
  8
4
  0
POLYLINE
  8
4
  6
CONTINUOUS
 66
     1
 70
     0
 40
0.0
 41
0.0
  0
VERTEX
  8
4
 10
67.65132904052734
 20
163.8206939697266
  0
VERTEX
  8
4
 10
68.20133209228516
 20
163.8206939697266
  0
SEQEND
  8
4
  0
POLYLINE
  8
4
  6
CONTINUOUS
 66
     1
 70
     0
 40
0.0
 41
0.0
  0
VERTEX
  8
4
 10
68.37320709228516
 20
163.8206939697266
  0
VERTEX
  8
4
 10
68.64820861816406
 20
163.8206939697266
 42
0.9999999999999999
  0
VERTEX
  8
4
 10
68.64820861816406
 20
164.3706970214844
  0
VERTEX
  8
4
 10
68.37320709228516
 20
164.3706970214844
  0
VERTEX
  8
4
 10
68.37320709228516
 20
163.2706909179688
  0
SEQEND
  8
4
  0
POLYLINE
  8
4
  6
CONTINUOUS
 66
     1
 70
     0
 40
0.0
 41
0.0
  0
VERTEX
  8
4
 10
68.92320251464844
 20
163.2706909179688
  0
VERTEX
  8
4
 10
68.64820861816406
 20
163.8206939697266
  0
SEQEND
  8
4
  0
POLYLINE
  8
4
  6
CONTINUOUS
 66
     1
 70
     0
 40
0.0
 41
0.0
  0
VERTEX
  8
4
 10
69.09507751464844
 20
163.2706909179688
  0
VERTEX
  8
4
 10
69.37007904052734
 20
164.3706970214844
  0
VERTEX
  8
4
 10
69.64508056640625
 20
163.2706909179688
  0
SEQEND
  8
4
  0
POLYLINE
  8
4
  6
CONTINUOUS
 66
     1
 70
     0
 40
0.0
 41
0.0
  0
VERTEX
  8
4
 10
69.55914306640625
 20
163.6144409179688
  0
VERTEX
  8
4
 10
69.18101501464844
 20
163.6144409179688
  0
SEQEND
  8
4
  0
POLYLINE
  8
4
  6
CONTINUOUS
 66
     1
 70
     0
 40
0.0
 41
0.0
  0
VERTEX
  8
4
 10
70.36695861816406
 20
164.1300659179688
 42
0.875017339436815
  0
VERTEX
  8
4
 10
69.81695556640625
 20
164.1300659179688
  0
VERTEX
  8
4
 10
69.81695556640625
 20
163.4769439697266
 42
0.750006935774726
  0
VERTEX
  8
4
 10
70.36695861816406
 20
163.4769439697266
  0
SEQEND
  8
4
  0
POLYLINE
  8
4
  6
CONTINUOUS
 66
     1
 70
     0
 40
0.0
 41
0.0
  0
VERTEX
  8
4
 10
70.36695861816406
 20
163.2706909179688
  0
VERTEX
  8
4
 10
70.36695861816406
 20
163.8034973144531
  0
VERTEX
  8
4
 10
70.09195709228516
 20
163.8034973144531
  0
SEQEND
  8
4
  0
POLYLINE
  8
4
  6
CONTINUOUS
 66
     1
 70
     0
 40
0.0
 41
0.0
  0
VERTEX
  8
4
 10
71.08882904052734
 20
164.3706970214844
  0
VERTEX
  8
4
 10
70.53883361816406
 20
164.3706970214844
  0
VERTEX
  8
4
 10
70.53883361816406
 20
163.2706909179688
  0
VERTEX
  8
4
 10
71.08882904052734
 20
163.2706909179688
  0
SEQEND
  8
4
  0
POLYLINE
  8
4
  6
CONTINUOUS
 66
     1
 70
     0
 40
0.0
 41
0.0
  0
VERTEX
  8
4
 10
70.53883361816406
 20
163.8206939697266
  0
VERTEX
  8
4
 10
71.08882904052734
 20
163.8206939697266
  0
SEQEND
  8
4
  0
ENDBLK
  8
4
  0
BLOCK
  8
4
  2
COMP16
 70
    64
 10
0.0
 20
0.0
  0
POLYLINE
  8
4
  6
CONTINUOUS
 66
     1
 70
     0
 40
0.0
 41
0.0
  0
VERTEX
  8
4
 10
62.96651840209961
 20
160.3136444091797
 42
0.875017339436815
  0
VERTEX
  8
4
 10
62.41651916503906
 20
160.3136444091797
  0
VERTEX
  8
4
 10
62.41651916503906
 20
159.6605224609375
 42
0.7500173396773433
  0
VERTEX
  8
4
 10
62.96651840209961
 20
159.6605224609375
  0
SEQEND
  8
4
  0
POLYLINE
  8
4
  6
CONTINUOUS
 66
     1
 70
     0
 40
0.0
 41
0.0
  0
VERTEX
  8
4
 10
63.13839340209961
 20
160.5542755126953
  0
VERTEX
  8
4
 10
63.13839340209961
 20
159.4542694091797
  0
SEQEND
  8
4
  0
POLYLINE
  8
4
  6
CONTINUOUS
 66
     1
 70
     0
 40
0.0
 41
0.0
  0
VERTEX
  8
4
 10
63.68839263916016
 20
160.5542755126953
  0
VERTEX
  8
4
 10
63.68839263916016
 20
159.4542694091797
  0
SEQEND
  8
4
  0
POLYLINE
  8
4
  6
CONTINUOUS
 66
     1
 70
     0
 40
0.0
 41
0.0
  0
VERTEX
  8
4
 10
63.13839340209961
 20
160.0042724609375
  0
VERTEX
  8
4
 10
63.68839263916016
 20
160.0042724609375
  0
SEQEND
  8
4
  0
POLYLINE
  8
4
  6
CONTINUOUS
 66
     1
 70
     0
 40
0.0
 41
0.0
  0
VERTEX
  8
4
 10
63.86026763916016
 20
160.3480224609375
  0
VERTEX
  8
4
 10
64.03214263916016
 20
160.5542755126953
  0
VERTEX
  8
4
 10
64.23839569091797
 20
160.5542755126953
  0
VERTEX
  8
4
 10
64.41027069091797
 20
160.3480224609375
  0
VERTEX
  8
4
 10
64.41027069091797
 20
160.0730133056641
  0
VERTEX
  8
4
 10
63.86026763916016
 20
159.5917663574219
  0
VERTEX
  8
4
 10
63.86026763916016
 20
159.4542694091797
  0
VERTEX
  8
4
 10
64.41027069091797
 20
159.4542694091797
  0
SEQEND
  8
4
  0
ENDBLK
  8
4
  0
BLOCK
  8
4
  2
COMP17
 70
    64
 10
0.0
 20
0.0
  0
POLYLINE
  8
4
  6
CONTINUOUS
 66
     1
 70
     0
 40
0.0
 41
0.0
  0
VERTEX
  8
4
 10
73.71842193603516
 20
160.3770446777344
 42
0.875017339436815
  0
VERTEX
  8
4
 10
73.16841888427734
 20
160.3770446777344
  0
VERTEX
  8
4
 10
73.16841888427734
 20
159.7239227294922
 42
0.750006935774726
  0
VERTEX
  8
4
 10
73.71842193603516
 20
159.7239227294922
  0
SEQEND
  8
4
  0
POLYLINE
  8
4
  6
CONTINUOUS
 66
     1
 70
     0
 40
0.0
 41
0.0
  0
VERTEX
  8
4
 10
73.89029693603516
 20
160.61767578125
  0
VERTEX
  8
4
 10
73.89029693603516
 20
159.5176696777344
  0
SEQEND
  8
4
  0
POLYLINE
  8
4
  6
CONTINUOUS
 66
     1
 70
     0
 40
0.0
 41
0.0
  0
VERTEX
  8
4
 10
74.44029235839844
 20
160.61767578125
  0
VERTEX
  8
4
 10
74.44029235839844
 20
159.5176696777344
  0
SEQEND
  8
4
  0
POLYLINE
  8
4
  6
CONTINUOUS
 66
     1
 70
     0
 40
0.0
 41
0.0
  0
VERTEX
  8
4
 10
73.89029693603516
 20
160.0676727294922
  0
VERTEX
  8
4
 10
74.44029235839844
 20
160.0676727294922
  0
SEQEND
  8
4
  0
POLYLINE
  8
4
  6
CONTINUOUS
 66
     1
 70
     0
 40
0.0
 41
0.0
  0
VERTEX
  8
4
 10
74.88716888427734
 20
160.61767578125
  0
VERTEX
  8
4
 10
74.61216735839844
 20
159.8614196777344
  0
VERTEX
  8
4
 10
75.16217041015625
 20
159.8614196777344
  0
SEQEND
  8
4
  0
POLYLINE
  8
4
  6
CONTINUOUS
 66
     1
 70
     0
 40
0.0
 41
0.0
  0
VERTEX
  8
4
 10
74.99029541015625
 20
159.5176696777344
  0
VERTEX
  8
4
 10
74.99029541015625
 20
160.2395477294922
  0
SEQEND
  8
4
  0
ENDBLK
  8
4
  0
BLOCK
  8
4
  2
COMP18
 70
    64
 10
0.0
 20
0.0
  0
POLYLINE
  8
4
  6
CONTINUOUS
 66
     1
 70
     0
 40
0.0
 41
0.0
  0
VERTEX
  8
4
 10
64.40150451660156
 20
157.54931640625
  0
VERTEX
  8
4
 10
64.60775756835938
 20
157.54931640625
  0
SEQEND
  8
4
  0
POLYLINE
  8
4
  6
CONTINUOUS
 66
     1
 70
     0
 40
0.0
 41
0.0
  0
VERTEX
  8
4
 10
64.40150451660156
 20
156.4493103027344
  0
VERTEX
  8
4
 10
64.60775756835938
 20
156.4493103027344
  0
SEQEND
  8
4
  0
POLYLINE
  8
4
  6
CONTINUOUS
 66
     1
 70
     0
 40
0.0
 41
0.0
  0
VERTEX
  8
4
 10
64.50463104248047
 20
156.4493103027344
  0
VERTEX
  8
4
 10
64.50463104248047
 20
157.54931640625
  0
SEQEND
  8
4
  0
POLYLINE
  8
4
  6
CONTINUOUS
 66
     1
 70
     0
 40
0.0
 41
0.0
  0
VERTEX
  8
4
 10
64.95150756835938
 20
156.4493103027344
  0
VERTEX
  8
4
 10
64.95150756835938
 20
157.54931640625
  0
VERTEX
  8
4
 10
65.50150299072266
 20
156.4493103027344
  0
VERTEX
  8
4
 10
65.50150299072266
 20
157.54931640625
  0
SEQEND
  8
4
  0
POLYLINE
  8
4
  6
CONTINUOUS
 66
     1
 70
     0
 40
0.0
 41
0.0
  0
VERTEX
  8
4
 10
65.67337799072266
 20
156.4493103027344
  0
VERTEX
  8
4
 10
65.96556854248047
 20
156.4493103027344
 42
0.466662720842828
  0
VERTEX
  8
4
 10
66.22338104248047
 20
156.7071228027344
  0
VERTEX
  8
4
 10
66.22338104248047
 20
157.29150390625
 42
0.4666351019441896
  0
VERTEX
  8
4
 10
65.96556854248047
 20
157.54931640625
  0
VERTEX
  8
4
 10
65.67337799072266
 20
157.54931640625
  0
VERTEX
  8
4
 10
65.67337799072266
 20
156.4493103027344
  0
SEQEND
  8
4
  0
POLYLINE
  8
4
  6
CONTINUOUS
 66
     1
 70
     0
 40
0.0
 41
0.0
  0
VERTEX
  8
4
 10
66.56713104248047
 20
157.54931640625
  0
VERTEX
  8
4
 10
66.77337646484375
 20
157.54931640625
  0
SEQEND
  8
4
  0
POLYLINE
  8
4
  6
CONTINUOUS
 66
     1
 70
     0
 40
0.0
 41
0.0
  0
VERTEX
  8
4
 10
66.56713104248047
 20
156.4493103027344
  0
VERTEX
  8
4
 10
66.77337646484375
 20
156.4493103027344
  0
SEQEND
  8
4
  0
POLYLINE
  8
4
  6
CONTINUOUS
 66
     1
 70
     0
 40
0.0
 41
0.0
  0
VERTEX
  8
4
 10
66.67025756835938
 20
156.4493103027344
  0
VERTEX
  8
4
 10
66.67025756835938
 20
157.54931640625
  0
SEQEND
  8
4
  0
POLYLINE
  8
4
  6
CONTINUOUS
 66
     1
 70
     0
 40
0.0
 41
0.0
  0
VERTEX
  8
4
 10
67.66712951660156
 20
157.3086853027344
 42
0.875017339436815
  0
VERTEX
  8
4
 10
67.11712646484375
 20
157.3086853027344
  0
VERTEX
  8
4
 10
67.11712646484375
 20
156.6555633544922
 42
0.750006935774726
  0
VERTEX
  8
4
 10
67.66712951660156
 20
156.6555633544922
  0
SEQEND
  8
4
  0
POLYLINE
  8
4
  6
CONTINUOUS
 66
     1
 70
     0
 40
0.0
 41
0.0
  0
VERTEX
  8
4
 10
67.83900451660156
 20
156.4493103027344
  0
VERTEX
  8
4
 10
68.11400604248047
 20
157.54931640625
  0
VERTEX
  8
4
 10
68.38900756835938
 20
156.4493103027344
  0
SEQEND
  8
4
  0
POLYLINE
  8
4
  6
CONTINUOUS
 66
     1
 70
     0
 40
0.0
 41
0.0
  0
VERTEX
  8
4
 10
68.30307006835938
 20
156.7930603027344
  0
VERTEX
  8
4
 10
67.92494201660156
 20
156.7930603027344
  0
SEQEND
  8
4
  0
POLYLINE
  8
4
  6
CONTINUOUS
 66
     1
 70
     0
 40
0.0
 41
0.0
  0
VERTEX
  8
4
 10
68.56088256835938
 20
157.54931640625
  0
VERTEX
  8
4
 10
69.11087799072266
 20
157.54931640625
  0
SEQEND
  8
4
  0
POLYLINE
  8
4
  6
CONTINUOUS
 66
     1
 70
     0
 40
0.0
 41
0.0
  0
VERTEX
  8
4
 10
68.83587646484375
 20
157.54931640625
  0
VERTEX
  8
4
 10
68.83587646484375
 20
156.4493103027344
  0
SEQEND
  8
4
  0
POLYLINE
  8
4
  6
CONTINUOUS
 66
     1
 70
     0
 40
0.0
 41
0.0
  0
VERTEX
  8
4
 10
69.45462799072266
 20
157.54931640625
  0
VERTEX
  8
4
 10
69.66088104248047
 20
157.54931640625
  0
SEQEND
  8
4
  0
POLYLINE
  8
4
  6
CONTINUOUS
 66
     1
 70
     0
 40
0.0
 41
0.0
  0
VERTEX
  8
4
 10
69.45462799072266
 20
156.4493103027344
  0
VERTEX
  8
4
 10
69.66088104248047
 20
156.4493103027344
  0
SEQEND
  8
4
  0
POLYLINE
  8
4
  6
CONTINUOUS
 66
     1
 70
     0
 40
0.0
 41
0.0
  0
VERTEX
  8
4
 10
69.55775451660156
 20
156.4493103027344
  0
VERTEX
  8
4
 10
69.55775451660156
 20
157.54931640625
  0
SEQEND
  8
4
  0
POLYLINE
  8
4
  6
CONTINUOUS
 66
     1
 70
     0
 40
0.0
 41
0.0
  0
VERTEX
  8
4
 10
70.00463104248047
 20
157.3086853027344
  0
VERTEX
  8
4
 10
70.00463104248047
 20
156.6555633544922
 42
0.7500277438686051
  0
VERTEX
  8
4
 10
70.55462646484375
 20
156.6555633544922
  0
VERTEX
  8
4
 10
70.55462646484375
 20
157.3086853027344
 42
0.875017339436815
  0
VERTEX
  8
4
 10
70.00463104248047
 20
157.3086853027344
  0
SEQEND
  8
4
  0
POLYLINE
  8
4
  6
CONTINUOUS
 66
     1
 70
     0
 40
0.0
 41
0.0
  0
VERTEX
  8
4
 10
70.72650146484375
 20
156.4493103027344
  0
VERTEX
  8
4
 10
70.72650146484375
 20
157.54931640625
  0
VERTEX
  8
4
 10
71.27650451660156
 20
156.4493103027344
  0
VERTEX
  8
4
 10
71.27650451660156
 20
157.54931640625
  0
SEQEND
  8
4
  0
POLYLINE
  8
4
  6
CONTINUOUS
 66
     1
 70
     0
 40
0.0
 41
0.0
  0
VERTEX
  8
4
 10
72.17025756835938
 20
156.4493103027344
  0
VERTEX
  8
4
 10
72.17025756835938
 20
157.54931640625
  0
VERTEX
  8
4
 10
72.44525146484375
 20
156.8274383544922
  0
VERTEX
  8
4
 10
72.72025299072266
 20
157.54931640625
  0
VERTEX
  8
4
 10
72.72025299072266
 20
156.4493103027344
  0
SEQEND
  8
4
  0
POLYLINE
  8
4
  6
CONTINUOUS
 66
     1
 70
     0
 40
0.0
 41
0.0
  0
VERTEX
  8
4
 10
72.89212799072266
 20
156.4493103027344
  0
VERTEX
  8
4
 10
73.16712951660156
 20
157.54931640625
  0
VERTEX
  8
4
 10
73.44213104248047
 20
156.4493103027344
  0
SEQEND
  8
4
  0
POLYLINE
  8
4
  6
CONTINUOUS
 66
     1
 70
     0
 40
0.0
 41
0.0
  0
VERTEX
  8
4
 10
73.35619354248047
 20
156.7930603027344
  0
VERTEX
  8
4
 10
72.97806549072266
 20
156.7930603027344
  0
SEQEND
  8
4
  0
POLYLINE
  8
4
  6
CONTINUOUS
 66
     1
 70
     0
 40
0.0
 41
0.0
  0
VERTEX
  8
4
 10
73.61400604248047
 20
156.9993133544922
  0
VERTEX
  8
4
 10
73.88900756835938
 20
156.9993133544922
 42
0.9999999999999999
  0
VERTEX
  8
4
 10
73.88900756835938
 20
157.54931640625
  0
VERTEX
  8
4
 10
73.61400604248047
 20
157.54931640625
  0
VERTEX
  8
4
 10
73.61400604248047
 20
156.4493103027344
  0
SEQEND
  8
4
  0
ENDBLK
  8
4
  0
BLOCK
  8
4
  2
COMP19
 70
    64
 10
0.0
 20
0.0
  0
POLYLINE
  8
4
  6
CONTINUOUS
 66
     1
 70
     0
 40
0.0
 41
0.0
  0
VERTEX
  8
4
 10
54.72979354858398
 20
188.0797729492188
  0
VERTEX
  8
4
 10
53.28604507446289
 20
188.0797729492188
  0
SEQEND
  8
4
  0
POLYLINE
  8
4
  6
CONTINUOUS
 66
     1
 70
     0
 40
0.0
 41
0.0
  0
VERTEX
  8
4
 10
56.17354202270508
 20
186.4297790527344
  0
VERTEX
  8
4
 10
56.17354202270508
 20
189.7297821044922
  0
VERTEX
  8
4
 10
55.60635757446289
 20
188.7500915527344
  0
SEQEND
  8
4
  0
POLYLINE
  8
4
  6
CONTINUOUS
 66
     1
 70
     0
 40
0.0
 41
0.0
  0
VERTEX
  8
4
 10
59.06104278564453
 20
189.6266479492188
  0
VERTEX
  8
4
 10
57.72041702270508
 20
189.6266479492188
  0
VERTEX
  8
4
 10
57.51416778564453
 20
188.1829071044922
  0
VERTEX
  8
4
 10
58.02979278564453
 20
188.38916015625
  0
VERTEX
  8
4
 10
58.64854431152344
 20
188.38916015625
  0
VERTEX
  8
4
 10
59.16416931152344
 20
187.9766540527344
  0
VERTEX
  8
4
 10
59.16416931152344
 20
186.9454040527344
  0
VERTEX
  8
4
 10
58.64854431152344
 20
186.4297790527344
  0
VERTEX
  8
4
 10
58.02979278564453
 20
186.4297790527344
  0
VERTEX
  8
4
 10
57.51416778564453
 20
186.9454040527344
  0
SEQEND
  8
4
  0
POLYLINE
  8
4
  6
CONTINUOUS
 66
     1
 70
     0
 40
0.0
 41
0.0
  0
VERTEX
  8
4
 10
59.78291702270508
 20
189.1110229492188
  0
VERTEX
  8
4
 10
59.78291702270508
 20
187.0485229492188
 42
0.9230699188472441
  0
VERTEX
  8
4
 10
61.12354278564453
 20
187.0485229492188
  0
VERTEX
  8
4
 10
61.12354278564453
 20
189.1110229492188
 42
0.9230874293616512
  0
VERTEX
  8
4
 10
59.78291702270508
 20
189.1110229492188
  0
SEQEND
  8
4
  0
POLYLINE
  8
4
  6
CONTINUOUS
 66
     1
 70
     0
 40
0.0
 41
0.0
  0
VERTEX
  8
4
 10
61.94854354858398
 20
189.1110229492188
  0
VERTEX
  8
4
 10
61.94854354858398
 20
187.0485229492188
 42
0.9230699188472441
  0
VERTEX
  8
4
 10
63.28916931152344
 20
187.0485229492188
  0
VERTEX
  8
4
 10
63.28916931152344
 20
189.1110229492188
 42
0.9230874293616512
  0
VERTEX
  8
4
 10
61.94854354858398
 20
189.1110229492188
  0
SEQEND
  8
4
  0
POLYLINE
  8
4
  6
CONTINUOUS
 66
     1
 70
     0
 40
0.0
 41
0.0
  0
VERTEX
  8
4
 10
64.11416625976563
 20
189.1110229492188
  0
VERTEX
  8
4
 10
64.11416625976563
 20
187.0485229492188
 42
0.9230699188472441
  0
VERTEX
  8
4
 10
65.45479583740234
 20
187.0485229492188
  0
VERTEX
  8
4
 10
65.45479583740234
 20
189.1110229492188
 42
0.9230821761893923
  0
VERTEX
  8
4
 10
64.11416625976563
 20
189.1110229492188
  0
SEQEND
  8
4
  0
ENDBLK
  8
4
  0
BLOCK
  8
4
  2
COMP20
 70
    64
 10
0.0
 20
0.0
  0
POLYLINE
  8
4
  6
CONTINUOUS
 66
     1
 70
     0
 40
0.0
 41
0.0
  0
VERTEX
  8
4
 10
63.8289794921875
 20
192.6293640136719
  0
VERTEX
  8
4
 10
62.38523101806641
 20
192.6293640136719
  0
SEQEND
  8
4
  0
POLYLINE
  8
4
  6
CONTINUOUS
 66
     1
 70
     0
 40
0.0
 41
0.0
  0
VERTEX
  8
4
 10
65.27272796630859
 20
190.9793701171875
  0
VERTEX
  8
4
 10
65.27272796630859
 20
194.2793731689453
  0
VERTEX
  8
4
 10
64.70554351806641
 20
193.2996826171875
  0
SEQEND
  8
4
  0
POLYLINE
  8
4
  6
CONTINUOUS
 66
     1
 70
     0
 40
0.0
 41
0.0
  0
VERTEX
  8
4
 10
68.16023254394531
 20
194.1762390136719
  0
VERTEX
  8
4
 10
66.81960296630859
 20
194.1762390136719
  0
VERTEX
  8
4
 10
66.61335754394531
 20
192.7324981689453
  0
VERTEX
  8
4
 10
67.12898254394531
 20
192.9387512207031
  0
VERTEX
  8
4
 10
67.74772644042969
 20
192.9387512207031
  0
VERTEX
  8
4
 10
68.26335144042969
 20
192.5262451171875
  0
VERTEX
  8
4
 10
68.26335144042969
 20
191.4949951171875
  0
VERTEX
  8
4
 10
67.74772644042969
 20
190.9793701171875
  0
VERTEX
  8
4
 10
67.12898254394531
 20
190.9793701171875
  0
VERTEX
  8
4
 10
66.61335754394531
 20
191.4949951171875
  0
SEQEND
  8
4
  0
POLYLINE
  8
4
  6
CONTINUOUS
 66
     1
 70
     0
 40
0.0
 41
0.0
  0
VERTEX
  8
4
 10
68.88210296630859
 20
193.6606140136719
  0
VERTEX
  8
4
 10
68.88210296630859
 20
191.5981140136719
 42
0.9230594127020261
  0
VERTEX
  8
4
 10
70.22273254394531
 20
191.5981140136719
  0
VERTEX
  8
4
 10
70.22273254394531
 20
193.6606140136719
 42
0.923092682593701
  0
VERTEX
  8
4
 10
68.88210296630859
 20
193.6606140136719
  0
SEQEND
  8
4
  0
POLYLINE
  8
4
  6
CONTINUOUS
 66
     1
 70
     0
 40
0.0
 41
0.0
  0
VERTEX
  8
4
 10
71.0477294921875
 20
193.6606140136719
  0
VERTEX
  8
4
 10
71.0477294921875
 20
191.5981140136719
 42
0.9230699188472441
  0
VERTEX
  8
4
 10
72.38835144042969
 20
191.5981140136719
  0
VERTEX
  8
4
 10
72.38835144042969
 20
193.6606140136719
 42
0.923092682593701
  0
VERTEX
  8
4
 10
71.0477294921875
 20
193.6606140136719
  0
SEQEND
  8
4
  0
POLYLINE
  8
4
  6
CONTINUOUS
 66
     1
 70
     0
 40
0.0
 41
0.0
  0
VERTEX
  8
4
 10
73.21335601806641
 20
193.6606140136719
  0
VERTEX
  8
4
 10
73.21335601806641
 20
191.5981140136719
 42
0.9230699188472441
  0
VERTEX
  8
4
 10
74.55397796630859
 20
191.5981140136719
  0
VERTEX
  8
4
 10
74.55397796630859
 20
193.6606140136719
 42
0.923092682593701
  0
VERTEX
  8
4
 10
73.21335601806641
 20
193.6606140136719
  0
SEQEND
  8
4
  0
ENDBLK
  8
4
  0
BLOCK
  8
4
  2
COMP21
 70
    64
 10
0.0
 20
0.0
  0
POLYLINE
  8
4
  6
CONTINUOUS
 66
     1
 70
     0
 40
0.0
 41
0.0
  0
VERTEX
  8
4
 10
54.55702209472656
 20
197.178955078125
  0
VERTEX
  8
4
 10
53.11327362060547
 20
197.178955078125
  0
SEQEND
  8
4
  0
POLYLINE
  8
4
  6
CONTINUOUS
 66
     1
 70
     0
 40
0.0
 41
0.0
  0
VERTEX
  8
4
 10
56.00077056884766
 20
195.5289611816406
  0
VERTEX
  8
4
 10
56.00077056884766
 20
198.8289642333984
  0
VERTEX
  8
4
 10
55.43358612060547
 20
197.8492736816406
  0
SEQEND
  8
4
  0
POLYLINE
  8
4
  6
CONTINUOUS
 66
     1
 70
     0
 40
0.0
 41
0.0
  0
VERTEX
  8
4
 10
58.88827133178711
 20
198.725830078125
  0
VERTEX
  8
4
 10
57.54764556884766
 20
198.725830078125
  0
VERTEX
  8
4
 10
57.34139633178711
 20
197.2820892333984
  0
VERTEX
  8
4
 10
57.85702133178711
 20
197.4883422851563
  0
VERTEX
  8
4
 10
58.47577285766602
 20
197.4883422851563
  0
VERTEX
  8
4
 10
58.99139785766602
 20
197.0758361816406
  0
VERTEX
  8
4
 10
58.99139785766602
 20
196.0445861816406
  0
VERTEX
  8
4
 10
58.47577285766602
 20
195.5289611816406
  0
VERTEX
  8
4
 10
57.85702133178711
 20
195.5289611816406
  0
VERTEX
  8
4
 10
57.34139633178711
 20
196.0445861816406
  0
SEQEND
  8
4
  0
POLYLINE
  8
4
  6
CONTINUOUS
 66
     1
 70
     0
 40
0.0
 41
0.0
  0
VERTEX
  8
4
 10
59.61014556884766
 20
198.210205078125
  0
VERTEX
  8
4
 10
59.61014556884766
 20
196.147705078125
 42
0.9230646657447401
  0
VERTEX
  8
4
 10
60.95077133178711
 20
196.147705078125
  0
VERTEX
  8
4
 10
60.95077133178711
 20
198.210205078125
 42
0.923092682593701
  0
VERTEX
  8
4
 10
59.61014556884766
 20
198.210205078125
  0
SEQEND
  8
4
  0
POLYLINE
  8
4
  6
CONTINUOUS
 66
     1
 70
     0
 40
0.0
 41
0.0
  0
VERTEX
  8
4
 10
61.77577209472656
 20
198.210205078125
  0
VERTEX
  8
4
 10
61.77577209472656
 20
196.147705078125
 42
0.9230646657447401
  0
VERTEX
  8
4
 10
63.11639785766602
 20
196.147705078125
  0
VERTEX
  8
4
 10
63.11639785766602
 20
198.210205078125
 42
0.923092682593701
  0
VERTEX
  8
4
 10
61.77577209472656
 20
198.210205078125
  0
SEQEND
  8
4
  0
POLYLINE
  8
4
  6
CONTINUOUS
 66
     1
 70
     0
 40
0.0
 41
0.0
  0
VERTEX
  8
4
 10
63.94139862060547
 20
198.210205078125
  0
VERTEX
  8
4
 10
63.94139862060547
 20
196.147705078125
 42
0.9230699188472441
  0
VERTEX
  8
4
 10
65.28202056884766
 20
196.147705078125
  0
VERTEX
  8
4
 10
65.28202056884766
 20
198.210205078125
 42
0.923092682593701
  0
VERTEX
  8
4
 10
63.94139862060547
 20
198.210205078125
  0
SEQEND
  8
4
  0
ENDBLK
  8
4
  0
BLOCK
  8
4
  2
COMP22
 70
    64
 10
0.0
 20
0.0
  0
POLYLINE
  8
4
  6
CONTINUOUS
 66
     1
 70
     0
 40
0.0
 41
0.0
  0
VERTEX
  8
4
 10
73.12013244628906
 20
197.2557373046875
  0
VERTEX
  8
4
 10
71.67638397216797
 20
197.2557373046875
  0
SEQEND
  8
4
  0
POLYLINE
  8
4
  6
CONTINUOUS
 66
     1
 70
     0
 40
0.0
 41
0.0
  0
VERTEX
  8
4
 10
74.56388092041016
 20
195.6057434082031
  0
VERTEX
  8
4
 10
74.56388092041016
 20
198.9057464599609
  0
VERTEX
  8
4
 10
73.99669647216797
 20
197.9260559082031
  0
SEQEND
  8
4
  0
POLYLINE
  8
4
  6
CONTINUOUS
 66
     1
 70
     0
 40
0.0
 41
0.0
  0
VERTEX
  8
4
 10
77.45138549804688
 20
198.8026123046875
  0
VERTEX
  8
4
 10
76.11075592041016
 20
198.8026123046875
  0
VERTEX
  8
4
 10
75.90451049804688
 20
197.3588714599609
  0
VERTEX
  8
4
 10
76.42013549804688
 20
197.5651245117188
  0
VERTEX
  8
4
 10
77.03887939453125
 20
197.5651245117188
  0
VERTEX
  8
4
 10
77.55450439453125
 20
197.1526184082031
  0
VERTEX
  8
4
 10
77.55450439453125
 20
196.1213684082031
  0
VERTEX
  8
4
 10
77.03887939453125
 20
195.6057434082031
  0
VERTEX
  8
4
 10
76.42013549804688
 20
195.6057434082031
  0
VERTEX
  8
4
 10
75.90451049804688
 20
196.1213684082031
  0
SEQEND
  8
4
  0
POLYLINE
  8
4
  6
CONTINUOUS
 66
     1
 70
     0
 40
0.0
 41
0.0
  0
VERTEX
  8
4
 10
78.17325592041016
 20
198.2869873046875
  0
VERTEX
  8
4
 10
78.17325592041016
 20
196.2244873046875
 42
0.9230594127020261
  0
VERTEX
  8
4
 10
79.51388549804688
 20
196.2244873046875
  0
VERTEX
  8
4
 10
79.51388549804688
 20
198.2869873046875
 42
0.923092682593701
  0
VERTEX
  8
4
 10
78.17325592041016
 20
198.2869873046875
  0
SEQEND
  8
4
  0
POLYLINE
  8
4
  6
CONTINUOUS
 66
     1
 70
     0
 40
0.0
 41
0.0
  0
VERTEX
  8
4
 10
80.33888244628906
 20
198.2869873046875
  0
VERTEX
  8
4
 10
80.33888244628906
 20
196.2244873046875
 42
0.9230699188472441
  0
VERTEX
  8
4
 10
81.67950439453125
 20
196.2244873046875
  0
VERTEX
  8
4
 10
81.67950439453125
 20
198.2869873046875
 42
0.923092682593701
  0
VERTEX
  8
4
 10
80.33888244628906
 20
198.2869873046875
  0
SEQEND
  8
4
  0
POLYLINE
  8
4
  6
CONTINUOUS
 66
     1
 70
     0
 40
0.0
 41
0.0
  0
VERTEX
  8
4
 10
82.50450897216797
 20
198.2869873046875
  0
VERTEX
  8
4
 10
82.50450897216797
 20
196.2244873046875
 42
0.9230699188472441
  0
VERTEX
  8
4
 10
83.84513092041016
 20
196.2244873046875
  0
VERTEX
  8
4
 10
83.84513092041016
 20
198.2869873046875
 42
0.923092682593701
  0
VERTEX
  8
4
 10
82.50450897216797
 20
198.2869873046875
  0
SEQEND
  8
4
  0
ENDBLK
  8
4
  0
BLOCK
  8
4
  2
COMP23
 70
    64
 10
0.0
 20
0.0
  0
POLYLINE
  8
4
  6
CONTINUOUS
 66
     1
 70
     0
 40
0.0
 41
0.0
  0
VERTEX
  8
4
 10
74.8536376953125
 20
185.1922454833984
  0
VERTEX
  8
4
 10
74.8536376953125
 20
184.2922515869141
  0
VERTEX
  8
4
 10
74.5723876953125
 20
184.0110015869141
  0
VERTEX
  8
4
 10
74.23488616943359
 20
184.0110015869141
  0
VERTEX
  8
4
 10
73.95363616943359
 20
184.2922515869141
  0
VERTEX
  8
4
 10
73.95363616943359
 20
185.1922454833984
  0
SEQEND
  8
4
  0
POLYLINE
  8
4
  6
CONTINUOUS
 66
     1
 70
     0
 40
0.0
 41
0.0
  0
VERTEX
  8
4
 10
75.1348876953125
 20
185.1922454833984
  0
VERTEX
  8
4
 10
75.1348876953125
 20
184.0110015869141
  0
SEQEND
  8
4
  0
POLYLINE
  8
4
  6
CONTINUOUS
 66
     1
 70
     0
 40
0.0
 41
0.0
  0
VERTEX
  8
4
 10
75.1348876953125
 20
184.7985076904297
  0
VERTEX
  8
4
 10
75.47238922119141
 20
185.1922454833984
  0
VERTEX
  8
4
 10
75.6973876953125
 20
185.1922454833984
  0
VERTEX
  8
4
 10
76.03488922119141
 20
184.7985076904297
  0
VERTEX
  8
4
 10
76.03488922119141
 20
184.0110015869141
  0
SEQEND
  8
4
  0
POLYLINE
  8
4
  6
CONTINUOUS
 66
     1
 70
     0
 40
0.0
 41
0.0
  0
VERTEX
  8
4
 10
76.70988464355469
 20
185.1922454833984
  0
VERTEX
  8
4
 10
76.70988464355469
 20
184.1235046386719
  0
VERTEX
  8
4
 10
76.8223876953125
 20
184.0110015869141
  0
VERTEX
  8
4
 10
76.93488311767578
 20
184.0110015869141
  0
SEQEND
  8
4
  0
POLYLINE
  8
4
  6
CONTINUOUS
 66
     1
 70
     0
 40
0.0
 41
0.0
  0
VERTEX
  8
4
 10
76.59738922119141
 20
185.8110046386719
  0
VERTEX
  8
4
 10
76.8223876953125
 20
185.8110046386719
  0
VERTEX
  8
4
 10
76.8223876953125
 20
185.5859985351563
  0
VERTEX
  8
4
 10
76.59738922119141
 20
185.5859985351563
  0
VERTEX
  8
4
 10
76.59738922119141
 20
185.8110046386719
  0
SEQEND
  8
4
  0
POLYLINE
  8
4
  6
CONTINUOUS
 66
     1
 70
     0
 40
0.0
 41
0.0
  0
VERTEX
  8
4
 10
77.49738311767578
 20
185.1360015869141
  0
VERTEX
  8
4
 10
78.17238616943359
 20
185.1360015869141
  0
SEQEND
  8
4
  0
POLYLINE
  8
4
  6
CONTINUOUS
 66
     1
 70
     0
 40
0.0
 41
0.0
  0
VERTEX
  8
4
 10
77.83488464355469
 20
185.8110046386719
  0
VERTEX
  8
4
 10
77.83488464355469
 20
184.1797485351563
  0
VERTEX
  8
4
 10
78.00363922119141
 20
184.0110015869141
  0
VERTEX
  8
4
 10
78.17238616943359
 20
184.0110015869141
  0
SEQEND
  8
4
  0
POLYLINE
  8
4
  6
CONTINUOUS
 66
     1
 70
     0
 40
0.0
 41
0.0
  0
VERTEX
  8
4
 10
80.1973876953125
 20
184.0110015869141
  0
VERTEX
  8
4
 10
80.1973876953125
 20
184.2360076904297
  0
VERTEX
  8
4
 10
80.42238616943359
 20
184.2360076904297
  0
VERTEX
  8
4
 10
80.42238616943359
 20
184.0110015869141
  0
VERTEX
  8
4
 10
80.1973876953125
 20
184.0110015869141
  0
SEQEND
  8
4
  0
POLYLINE
  8
4
  6
CONTINUOUS
 66
     1
 70
     0
 40
0.0
 41
0.0
  0
VERTEX
  8
4
 10
80.1973876953125
 20
185.3047485351563
  0
VERTEX
  8
4
 10
80.42238616943359
 20
185.3047485351563
  0
VERTEX
  8
4
 10
80.42238616943359
 20
185.0797576904297
  0
VERTEX
  8
4
 10
80.1973876953125
 20
185.0797576904297
  0
VERTEX
  8
4
 10
80.1973876953125
 20
185.3047485351563
  0
SEQEND
  8
4
  0
POLYLINE
  8
4
  6
CONTINUOUS
 66
     1
 70
     0
 40
0.0
 41
0.0
  0
VERTEX
  8
4
 10
81.77238464355469
 20
185.1922454833984
  0
VERTEX
  8
4
 10
81.49113464355469
 20
184.2922515869141
 42
-0.09903843439481173
  0
VERTEX
  8
4
 10
81.35050964355469
 20
184.1235046386719
  0
SEQEND
  8
4
  0
POLYLINE
  8
4
  6
CONTINUOUS
 66
     1
 70
     0
 40
0.0
 41
0.0
  0
VERTEX
  8
4
 10
81.57550811767578
 20
184.5453796386719
 42
0.3699218687200717
  0
VERTEX
  8
4
 10
81.77238464355469
 20
184.2922515869141
  0
VERTEX
  8
4
 10
81.91300964355469
 20
184.2922515869141
 42
0.2953674332099044
  0
VERTEX
  8
4
 10
82.19425964355469
 20
184.4891204833984
 42
0.1622620504594962
  0
VERTEX
  8
4
 10
82.22238922119141
 20
184.3203735351563
 42
0.2972581767826054
  0
VERTEX
  8
4
 10
82.50363922119141
 20
184.3484954833984
  0
SEQEND
  8
4
  0
POLYLINE
  8
4
  6
CONTINUOUS
 66
     1
 70
     0
 40
0.0
 41
0.0
  0
VERTEX
  8
4
 10
82.41925811767578
 20
185.1922454833984
  0
VERTEX
  8
4
 10
82.19425964355469
 20
184.4891204833984
  0
SEQEND
  8
4
  0
POLYLINE
  8
4
  6
CONTINUOUS
 66
     1
 70
     0
 40
0.0
 41
0.0
  0
VERTEX
  8
4
 10
84.02238464355469
 20
185.4734954833984
 42
0.3601436025475227
  0
VERTEX
  8
4
 10
83.5723876953125
 20
185.8110046386719
 42
0.3984635719413089
  0
VERTEX
  8
4
 10
83.12238311767578
 20
185.4172515869141
 42
0.4142048143377384
  0
VERTEX
  8
4
 10
83.5723876953125
 20
184.9109954833984
 42
-0.3749957614187379
  0
VERTEX
  8
4
 10
84.02238464355469
 20
184.4609985351563
 42
-0.4832474770101357
  0
VERTEX
  8
4
 10
83.60050964355469
 20
184.0110015869141
 42
-0.3193744493670119
  0
VERTEX
  8
4
 10
83.12238311767578
 20
184.3484954833984
  0
SEQEND
  8
4
  0
POLYLINE
  8
4
  6
CONTINUOUS
 66
     1
 70
     0
 40
0.0
 41
0.0
  0
VERTEX
  8
4
 10
84.30363464355469
 20
185.8110046386719
  0
VERTEX
  8
4
 10
85.20363616943359
 20
185.8110046386719
  0
SEQEND
  8
4
  0
POLYLINE
  8
4
  6
CONTINUOUS
 66
     1
 70
     0
 40
0.0
 41
0.0
  0
VERTEX
  8
4
 10
84.75363922119141
 20
185.8110046386719
  0
VERTEX
  8
4
 10
84.75363922119141
 20
184.0110015869141
  0
SEQEND
  8
4
  0
ENDBLK
  8
4
  0
BLOCK
  8
4
  2
COMP24
 70
    64
 10
0.0
 20
0.0
  0
POLYLINE
  8
4
  6
CONTINUOUS
 66
     1
 70
     0
 40
0.0
 41
0.0
  0
VERTEX
  8
4
 10
101.7508850097656
 20
200.0989074707031
 42
0.8750031789628953
  0
VERTEX
  8
4
 10
101.1508865356445
 20
200.0989074707031
  0
VERTEX
  8
4
 10
101.1508865356445
 20
199.3864135742188
 42
0.7500127155282031
  0
VERTEX
  8
4
 10
101.7508850097656
 20
199.3864135742188
  0
SEQEND
  8
4
  0
POLYLINE
  8
4
  6
CONTINUOUS
 66
     1
 70
     0
 40
0.0
 41
0.0
  0
VERTEX
  8
4
 10
101.9383850097656
 20
200.0989074707031
  0
VERTEX
  8
4
 10
101.9383850097656
 20
199.3864135742188
 42
0.7500317896289513
  0
VERTEX
  8
4
 10
102.5383834838867
 20
199.3864135742188
  0
VERTEX
  8
4
 10
102.5383834838867
 20
200.0989074707031
 42
0.8749809267076955
  0
VERTEX
  8
4
 10
101.9383850097656
 20
200.0989074707031
  0
SEQEND
  8
4
  0
POLYLINE
  8
4
  6
CONTINUOUS
 66
     1
 70
     0
 40
0.0
 41
0.0
  0
VERTEX
  8
4
 10
102.7258834838867
 20
199.1614074707031
  0
VERTEX
  8
4
 10
102.7258834838867
 20
200.3614044189453
  0
VERTEX
  8
4
 10
103.3258895874023
 20
199.1614074707031
  0
VERTEX
  8
4
 10
103.3258895874023
 20
200.3614044189453
  0
SEQEND
  8
4
  0
POLYLINE
  8
4
  6
CONTINUOUS
 66
     1
 70
     0
 40
0.0
 41
0.0
  0
VERTEX
  8
4
 10
103.5133895874023
 20
200.3614044189453
  0
VERTEX
  8
4
 10
104.1133880615234
 20
200.3614044189453
  0
SEQEND
  8
4
  0
POLYLINE
  8
4
  6
CONTINUOUS
 66
     1
 70
     0
 40
0.0
 41
0.0
  0
VERTEX
  8
4
 10
103.8133850097656
 20
200.3614044189453
  0
VERTEX
  8
4
 10
103.8133850097656
 20
199.1614074707031
  0
SEQEND
  8
4
  0
POLYLINE
  8
4
  6
CONTINUOUS
 66
     1
 70
     0
 40
0.0
 41
0.0
  0
VERTEX
  8
4
 10
104.3008880615234
 20
199.7614135742188
  0
VERTEX
  8
4
 10
104.6008834838867
 20
199.7614135742188
 42
0.4142210113555475
  0
VERTEX
  8
4
 10
104.900878906347
 20
200.0614013671875
 42
0.4142359083014618
  0
VERTEX
  8
4
 10
104.6008834840807
 20
200.3613967894538
  0
VERTEX
  8
4
 10
104.3008880615234
 20
200.3614044189453
  0
VERTEX
  8
4
 10
104.3008880615234
 20
199.1614074707031
  0
SEQEND
  8
4
  0
POLYLINE
  8
4
  6
CONTINUOUS
 66
     1
 70
     0
 40
0.0
 41
0.0
  0
VERTEX
  8
4
 10
104.9008865356445
 20
199.1614074707031
  0
VERTEX
  8
4
 10
104.6008834838867
 20
199.7614135742188
  0
SEQEND
  8
4
  0
POLYLINE
  8
4
  6
CONTINUOUS
 66
     1
 70
     0
 40
0.0
 41
0.0
  0
VERTEX
  8
4
 10
105.0883865356445
 20
199.1614074707031
  0
VERTEX
  8
4
 10
105.3883895874023
 20
200.3614044189453
  0
VERTEX
  8
4
 10
105.6883850097656
 20
199.1614074707031
  0
SEQEND
  8
4
  0
POLYLINE
  8
4
  6
CONTINUOUS
 66
     1
 70
     0
 40
0.0
 41
0.0
  0
VERTEX
  8
4
 10
105.5946350097656
 20
199.5364074707031
  0
VERTEX
  8
4
 10
105.1821365356445
 20
199.5364074707031
  0
SEQEND
  8
4
  0
POLYLINE
  8
4
  6
CONTINUOUS
 66
     1
 70
     0
 40
0.0
 41
0.0
  0
VERTEX
  8
4
 10
106.4758834838867
 20
200.1364135742188
 42
0.3601623216168624
  0
VERTEX
  8
4
 10
106.1758880615234
 20
200.3614044189453
 42
0.3984872077885505
  0
VERTEX
  8
4
 10
105.8758850097656
 20
200.0989074707031
 42
0.4142251776440697
  0
VERTEX
  8
4
 10
106.1758880615234
 20
199.7614135742188
 42
-0.374991853938849
  0
VERTEX
  8
4
 10
106.4758834838867
 20
199.4614105224609
 42
-0.4832372073926664
  0
VERTEX
  8
4
 10
106.1946334838867
 20
199.1614074707031
 42
-0.3194179291684021
  0
VERTEX
  8
4
 10
105.8758850097656
 20
199.3864135742188
  0
SEQEND
  8
4
  0
POLYLINE
  8
4
  6
CONTINUOUS
 66
     1
 70
     0
 40
0.0
 41
0.0
  0
VERTEX
  8
4
 10
106.6633834838867
 20
200.3614044189453
  0
VERTEX
  8
4
 10
107.2633895874023
 20
200.3614044189453
  0
SEQEND
  8
4
  0
POLYLINE
  8
4
  6
CONTINUOUS
 66
     1
 70
     0
 40
0.0
 41
0.0
  0
VERTEX
  8
4
 10
106.9633865356445
 20
200.3614044189453
  0
VERTEX
  8
4
 10
106.9633865356445
 20
199.1614074707031
  0
SEQEND
  8
4
  0
ENDBLK
  8
4
  0
BLOCK
  8
4
  2
COMP25
 70
    64
 10
0.0
 20
0.0
  0
POLYLINE
  8
4
  6
CONTINUOUS
 66
     1
 70
     0
 40
0.0
 41
0.0
  0
VERTEX
  8
4
 10
99.21185302734375
 20
197.2300109863281
  0
VERTEX
  8
4
 10
99.21185302734375
 20
195.7675018310547
 42
0.7499788074529949
  0
VERTEX
  8
4
 10
100.1118545532227
 20
195.7675018310547
  0
VERTEX
  8
4
 10
100.1118545532227
 20
197.2300109863281
  0
SEQEND
  8
4
  0
POLYLINE
  8
4
  6
CONTINUOUS
 66
     1
 70
     0
 40
0.0
 41
0.0
  0
VERTEX
  8
4
 10
100.3931045532227
 20
196.3300018310547
  0
VERTEX
  8
4
 10
100.8431015014648
 20
196.3300018310547
 42
0.4142135623730685
  0
VERTEX
  8
4
 10
101.293098449707
 20
196.7799987792969
 42
0.4142234939374099
  0
VERTEX
  8
4
 10
100.8431015014648
 20
197.2300033569336
  0
VERTEX
  8
4
 10
100.3931045532227
 20
197.2300109863281
  0
VERTEX
  8
4
 10
100.3931045532227
 20
195.4300079345703
  0
SEQEND
  8
4
  0
ENDBLK
  8
4
  0
BLOCK
  8
4
  2
COMP26
 70
    64
 10
0.0
 20
0.0
  0
POLYLINE
  8
4
  6
CONTINUOUS
 66
     1
 70
     0
 40
0.0
 41
0.0
  0
VERTEX
  8
4
 10
105.9577255249023
 20
195.4300079345703
  0
VERTEX
  8
4
 10
106.4358520507813
 20
195.4300079345703
 42
0.4666521990740741
  0
VERTEX
  8
4
 10
106.8577270507813
 20
195.8518829345703
  0
VERTEX
  8
4
 10
106.8577270507813
 20
196.8081359863281
 42
0.4666521990740741
  0
VERTEX
  8
4
 10
106.4358520507813
 20
197.2300109863281
  0
VERTEX
  8
4
 10
105.9577255249023
 20
197.2300109863281
  0
VERTEX
  8
4
 10
105.9577255249023
 20
195.4300079345703
  0
SEQEND
  8
4
  0
POLYLINE
  8
4
  6
CONTINUOUS
 66
     1
 70
     0
 40
0.0
 41
0.0
  0
VERTEX
  8
4
 10
107.1389770507813
 20
196.8362579345703
  0
VERTEX
  8
4
 10
107.1389770507813
 20
195.7675018310547
 42
0.7499788074529949
  0
VERTEX
  8
4
 10
108.0389785766602
 20
195.7675018310547
  0
VERTEX
  8
4
 10
108.0389785766602
 20
196.8362579345703
 42
0.8750127157437863
  0
VERTEX
  8
4
 10
107.1389770507813
 20
196.8362579345703
  0
SEQEND
  8
4
  0
POLYLINE
  8
4
  6
CONTINUOUS
 66
     1
 70
     0
 40
0.0
 41
0.0
  0
VERTEX
  8
4
 10
109.2202224731445
 20
197.2300109863281
  0
VERTEX
  8
4
 10
108.9952239990234
 20
195.4300079345703
  0
VERTEX
  8
4
 10
108.7702255249023
 20
197.1737518310547
  0
VERTEX
  8
4
 10
108.5452270507813
 20
195.4300079345703
  0
VERTEX
  8
4
 10
108.3202285766602
 20
197.2300109863281
  0
SEQEND
  8
4
  0
POLYLINE
  8
4
  6
CONTINUOUS
 66
     1
 70
     0
 40
0.0
 41
0.0
  0
VERTEX
  8
4
 10
109.5014724731445
 20
195.4300079345703
  0
VERTEX
  8
4
 10
109.5014724731445
 20
197.2300109863281
  0
VERTEX
  8
4
 10
110.4014739990234
 20
195.4300079345703
  0
VERTEX
  8
4
 10
110.4014739990234
 20
197.2300109863281
  0
SEQEND
  8
4
  0
ENDBLK
  8
4
  0
BLOCK
  8
4
  2
COMP27
 70
    64
 10
0.0
 20
0.0
  0
POLYLINE
  8
4
  6
CONTINUOUS
 66
     1
 70
     0
 40
0.0
 41
0.0
  0
VERTEX
  8
4
 10
97.46835327148438
 20
189.1968688964844
  0
VERTEX
  8
4
 10
97.46835327148438
 20
187.3968658447266
  0
VERTEX
  8
4
 10
98.36835479736328
 20
187.3968658447266
  0
SEQEND
  8
4
  0
POLYLINE
  8
4
  6
CONTINUOUS
 66
     1
 70
     0
 40
0.0
 41
0.0
  0
VERTEX
  8
4
 10
98.93085479736328
 20
189.1968688964844
  0
VERTEX
  8
4
 10
99.26835632324219
 20
189.1968688964844
  0
SEQEND
  8
4
  0
POLYLINE
  8
4
  6
CONTINUOUS
 66
     1
 70
     0
 40
0.0
 41
0.0
  0
VERTEX
  8
4
 10
98.93085479736328
 20
187.3968658447266
  0
VERTEX
  8
4
 10
99.26835632324219
 20
187.3968658447266
  0
SEQEND
  8
4
  0
POLYLINE
  8
4
  6
CONTINUOUS
 66
     1
 70
     0
 40
0.0
 41
0.0
  0
VERTEX
  8
4
 10
99.09960174560547
 20
187.3968658447266
  0
VERTEX
  8
4
 10
99.09960174560547
 20
189.1968688964844
  0
SEQEND
  8
4
  0
POLYLINE
  8
4
  6
CONTINUOUS
 66
     1
 70
     0
 40
0.0
 41
0.0
  0
VERTEX
  8
4
 10
100.7308502197266
 20
188.8031158447266
 42
0.8750127157437863
  0
VERTEX
  8
4
 10
99.83085632324219
 20
188.8031158447266
  0
VERTEX
  8
4
 10
99.83085632324219
 20
187.7343597412109
 42
0.7499915228374759
  0
VERTEX
  8
4
 10
100.7308502197266
 20
187.7343597412109
  0
SEQEND
  8
4
  0
POLYLINE
  8
4
  6
CONTINUOUS
 66
     1
 70
     0
 40
0.0
 41
0.0
  0
VERTEX
  8
4
 10
100.7308502197266
 20
187.3968658447266
  0
VERTEX
  8
4
 10
100.7308502197266
 20
188.2687377929688
  0
VERTEX
  8
4
 10
100.2808532714844
 20
188.2687377929688
  0
SEQEND
  8
4
  0
POLYLINE
  8
4
  6
CONTINUOUS
 66
     1
 70
     0
 40
0.0
 41
0.0
  0
VERTEX
  8
4
 10
101.0121002197266
 20
189.1968688964844
  0
VERTEX
  8
4
 10
101.0121002197266
 20
187.3968658447266
  0
SEQEND
  8
4
  0
POLYLINE
  8
4
  6
CONTINUOUS
 66
     1
 70
     0
 40
0.0
 41
0.0
  0
VERTEX
  8
4
 10
101.9121017456055
 20
189.1968688964844
  0
VERTEX
  8
4
 10
101.9121017456055
 20
187.3968658447266
  0
SEQEND
  8
4
  0
POLYLINE
  8
4
  6
CONTINUOUS
 66
     1
 70
     0
 40
0.0
 41
0.0
  0
VERTEX
  8
4
 10
101.0121002197266
 20
188.2968597412109
  0
VERTEX
  8
4
 10
101.9121017456055
 20
188.2968597412109
  0
SEQEND
  8
4
  0
POLYLINE
  8
4
  6
CONTINUOUS
 66
     1
 70
     0
 40
0.0
 41
0.0
  0
VERTEX
  8
4
 10
102.1933517456055
 20
189.1968688964844
  0
VERTEX
  8
4
 10
103.0933532714844
 20
189.1968688964844
  0
SEQEND
  8
4
  0
POLYLINE
  8
4
  6
CONTINUOUS
 66
     1
 70
     0
 40
0.0
 41
0.0
  0
VERTEX
  8
4
 10
102.6433563232422
 20
189.1968688964844
  0
VERTEX
  8
4
 10
102.6433563232422
 20
187.3968658447266
  0
SEQEND
  8
4
  0
ENDBLK
  8
4
  0
BLOCK
  8
4
  2
COMP28
 70
    64
 10
0.0
 20
0.0
  0
POLYLINE
  8
4
  6
CONTINUOUS
 66
     1
 70
     0
 40
0.0
 41
0.0
  0
VERTEX
  8
4
 10
117.3963851928711
 20
200.2732391357422
  0
VERTEX
  8
4
 10
117.8463821411133
 20
200.2732391357422
 42
0.4142135623730685
  0
VERTEX
  8
4
 10
118.2963790893555
 20
200.7232360839844
 42
0.4142234939374099
  0
VERTEX
  8
4
 10
117.8463821411133
 20
201.1732406616211
  0
VERTEX
  8
4
 10
117.3963851928711
 20
201.1732482910156
  0
VERTEX
  8
4
 10
117.3963851928711
 20
199.3732452392578
  0
SEQEND
  8
4
  0
POLYLINE
  8
4
  6
CONTINUOUS
 66
     1
 70
     0
 40
0.0
 41
0.0
  0
VERTEX
  8
4
 10
118.57763671875
 20
200.7794952392578
  0
VERTEX
  8
4
 10
118.57763671875
 20
199.7107391357422
 42
0.7499788074529949
  0
VERTEX
  8
4
 10
119.4776382446289
 20
199.7107391357422
  0
VERTEX
  8
4
 10
119.4776382446289
 20
200.7794952392578
 42
0.8750127157437863
  0
VERTEX
  8
4
 10
118.57763671875
 20
200.7794952392578
  0
SEQEND
  8
4
  0
POLYLINE
  8
4
  6
CONTINUOUS
 66
     1
 70
     0
 40
0.0
 41
0.0
  0
VERTEX
  8
4
 10
120.6588821411133
 20
201.1732482910156
  0
VERTEX
  8
4
 10
120.4338836669922
 20
199.3732452392578
  0
VERTEX
  8
4
 10
120.2088851928711
 20
201.1169891357422
  0
VERTEX
  8
4
 10
119.98388671875
 20
199.3732452392578
  0
VERTEX
  8
4
 10
119.7588882446289
 20
201.1732482910156
  0
SEQEND
  8
4
  0
POLYLINE
  8
4
  6
CONTINUOUS
 66
     1
 70
     0
 40
0.0
 41
0.0
  0
VERTEX
  8
4
 10
121.8401336669922
 20
201.1732482910156
  0
VERTEX
  8
4
 10
120.9401321411133
 20
201.1732482910156
  0
VERTEX
  8
4
 10
120.9401321411133
 20
199.3732452392578
  0
VERTEX
  8
4
 10
121.8401336669922
 20
199.3732452392578
  0
SEQEND
  8
4
  0
POLYLINE
  8
4
  6
CONTINUOUS
 66
     1
 70
     0
 40
0.0
 41
0.0
  0
VERTEX
  8
4
 10
120.9401321411133
 20
200.2732391357422
  0
VERTEX
  8
4
 10
121.8401336669922
 20
200.2732391357422
  0
SEQEND
  8
4
  0
POLYLINE
  8
4
  6
CONTINUOUS
 66
     1
 70
     0
 40
0.0
 41
0.0
  0
VERTEX
  8
4
 10
122.1213836669922
 20
200.2732391357422
  0
VERTEX
  8
4
 10
122.5713882446289
 20
200.2732391357422
 42
0.999966092499661
  0
VERTEX
  8
4
 10
122.5713882446289
 20
201.1732482910156
  0
VERTEX
  8
4
 10
122.1213836669922
 20
201.1732482910156
  0
VERTEX
  8
4
 10
122.1213836669922
 20
199.3732452392578
  0
SEQEND
  8
4
  0
POLYLINE
  8
4
  6
CONTINUOUS
 66
     1
 70
     0
 40
0.0
 41
0.0
  0
VERTEX
  8
4
 10
123.0213851928711
 20
199.3732452392578
  0
VERTEX
  8
4
 10
122.5713882446289
 20
200.2732391357422
  0
SEQEND
  8
4
  0
ENDBLK
  8
4
  0
BLOCK
  8
4
  2
COMP29
 70
    64
 10
0.0
 20
0.0
  0
POLYLINE
  8
4
  6
CONTINUOUS
 66
     1
 70
     0
 40
0.0
 41
0.0
  0
VERTEX
  8
4
 10
118.197151184082
 20
184.2899322509766
  0
VERTEX
  8
4
 10
118.478401184082
 20
184.2899322509766
 42
0.875
  0
VERTEX
  8
4
 10
118.478401184082
 20
184.7899322509766
 42
0.875
  0
VERTEX
  8
4
 10
118.478401184082
 20
185.2899322509766
  0
VERTEX
  8
4
 10
118.197151184082
 20
185.2899322509766
  0
VERTEX
  8
4
 10
118.197151184082
 20
184.2899322509766
  0
SEQEND
  8
4
  0
POLYLINE
  8
4
  6
CONTINUOUS
 66
     1
 70
     0
 40
0.0
 41
0.0
  0
VERTEX
  8
4
 10
118.197151184082
 20
184.7899322509766
  0
VERTEX
  8
4
 10
118.478401184082
 20
184.7899322509766
  0
SEQEND
  8
4
  0
POLYLINE
  8
4
  6
CONTINUOUS
 66
     1
 70
     0
 40
0.0
 41
0.0
  0
VERTEX
  8
4
 10
118.853401184082
 20
184.2899322509766
  0
VERTEX
  8
4
 10
119.103401184082
 20
185.2899322509766
  0
VERTEX
  8
4
 10
119.353401184082
 20
184.2899322509766
  0
SEQEND
  8
4
  0
POLYLINE
  8
4
  6
CONTINUOUS
 66
     1
 70
     0
 40
0.0
 41
0.0
  0
VERTEX
  8
4
 10
119.275276184082
 20
184.6024322509766
  0
VERTEX
  8
4
 10
118.931526184082
 20
184.6024322509766
  0
SEQEND
  8
4
  0
POLYLINE
  8
4
  6
CONTINUOUS
 66
     1
 70
     0
 40
0.0
 41
0.0
  0
VERTEX
  8
4
 10
119.509651184082
 20
185.2899322509766
  0
VERTEX
  8
4
 10
120.009651184082
 20
185.2899322509766
  0
SEQEND
  8
4
  0
POLYLINE
  8
4
  6
CONTINUOUS
 66
     1
 70
     0
 40
0.0
 41
0.0
  0
VERTEX
  8
4
 10
119.759651184082
 20
185.2899322509766
  0
VERTEX
  8
4
 10
119.759651184082
 20
184.2899322509766
  0
SEQEND
  8
4
  0
POLYLINE
  8
4
  6
CONTINUOUS
 66
     1
 70
     0
 40
0.0
 41
0.0
  0
VERTEX
  8
4
 10
120.165901184082
 20
185.2899322509766
  0
VERTEX
  8
4
 10
120.665901184082
 20
185.2899322509766
  0
SEQEND
  8
4
  0
POLYLINE
  8
4
  6
CONTINUOUS
 66
     1
 70
     0
 40
0.0
 41
0.0
  0
VERTEX
  8
4
 10
120.415901184082
 20
185.2899322509766
  0
VERTEX
  8
4
 10
120.415901184082
 20
184.2899322509766
  0
SEQEND
  8
4
  0
POLYLINE
  8
4
  6
CONTINUOUS
 66
     1
 70
     0
 40
0.0
 41
0.0
  0
VERTEX
  8
4
 10
121.322151184082
 20
185.2899322509766
  0
VERTEX
  8
4
 10
120.822151184082
 20
185.2899322509766
  0
VERTEX
  8
4
 10
120.822151184082
 20
184.2899322509766
  0
VERTEX
  8
4
 10
121.322151184082
 20
184.2899322509766
  0
SEQEND
  8
4
  0
POLYLINE
  8
4
  6
CONTINUOUS
 66
     1
 70
     0
 40
0.0
 41
0.0
  0
VERTEX
  8
4
 10
120.822151184082
 20
184.7899322509766
  0
VERTEX
  8
4
 10
121.322151184082
 20
184.7899322509766
  0
SEQEND
  8
4
  0
POLYLINE
  8
4
  6
CONTINUOUS
 66
     1
 70
     0
 40
0.0
 41
0.0
  0
VERTEX
  8
4
 10
121.478401184082
 20
184.7899322509766
  0
VERTEX
  8
4
 10
121.728401184082
 20
184.7899322509766
 42
0.4142135623731064
  0
VERTEX
  8
4
 10
121.978401184082
 20
185.0399322509766
 42
0.4142135623731064
  0
VERTEX
  8
4
 10
121.728401184082
 20
185.2899322509766
  0
VERTEX
  8
4
 10
121.478401184082
 20
185.2899322509766
  0
VERTEX
  8
4
 10
121.478401184082
 20
184.2899322509766
  0
SEQEND
  8
4
  0
POLYLINE
  8
4
  6
CONTINUOUS
 66
     1
 70
     0
 40
0.0
 41
0.0
  0
VERTEX
  8
4
 10
121.978401184082
 20
184.2899322509766
  0
VERTEX
  8
4
 10
121.728401184082
 20
184.7899322509766
  0
SEQEND
  8
4
  0
POLYLINE
  8
4
  6
CONTINUOUS
 66
     1
 70
     0
 40
0.0
 41
0.0
  0
VERTEX
  8
4
 10
122.134651184082
 20
185.2899322509766
  0
VERTEX
  8
4
 10
122.384651184082
 20
184.7899322509766
  0
VERTEX
  8
4
 10
122.384651184082
 20
184.2899322509766
  0
SEQEND
  8
4
  0
POLYLINE
  8
4
  6
CONTINUOUS
 66
     1
 70
     0
 40
0.0
 41
0.0
  0
VERTEX
  8
4
 10
122.384651184082
 20
184.7899322509766
  0
VERTEX
  8
4
 10
122.634651184082
 20
185.2899322509766
  0
SEQEND
  8
4
  0
ENDBLK
  8
4
  0
BLOCK
  8
4
  2
COMP30
 70
    64
 10
0.0
 20
0.0
  0
POLYLINE
  8
4
  6
CONTINUOUS
 66
     1
 70
     0
 40
0.0
 41
0.0
  0
VERTEX
  8
4
 10
118.7585067749023
 20
183.62939453125
 42
0.875
  0
VERTEX
  8
4
 10
118.2585067749023
 20
183.62939453125
  0
VERTEX
  8
4
 10
118.2585067749023
 20
183.03564453125
 42
0.7500000000000001
  0
VERTEX
  8
4
 10
118.7585067749023
 20
183.03564453125
  0
SEQEND
  8
4
  0
POLYLINE
  8
4
  6
CONTINUOUS
 66
     1
 70
     0
 40
0.0
 41
0.0
  0
VERTEX
  8
4
 10
118.9147567749023
 20
183.84814453125
  0
VERTEX
  8
4
 10
118.9147567749023
 20
182.84814453125
  0
SEQEND
  8
4
  0
POLYLINE
  8
4
  6
CONTINUOUS
 66
     1
 70
     0
 40
0.0
 41
0.0
  0
VERTEX
  8
4
 10
119.4147567749023
 20
183.84814453125
  0
VERTEX
  8
4
 10
119.4147567749023
 20
182.84814453125
  0
SEQEND
  8
4
  0
POLYLINE
  8
4
  6
CONTINUOUS
 66
     1
 70
     0
 40
0.0
 41
0.0
  0
VERTEX
  8
4
 10
118.9147567749023
 20
183.34814453125
  0
VERTEX
  8
4
 10
119.4147567749023
 20
183.34814453125
  0
SEQEND
  8
4
  0
POLYLINE
  8
4
  6
CONTINUOUS
 66
     1
 70
     0
 40
0.0
 41
0.0
  0
VERTEX
  8
4
 10
119.5710067749023
 20
182.84814453125
  0
VERTEX
  8
4
 10
119.8210067749023
 20
183.84814453125
  0
VERTEX
  8
4
 10
120.0710067749023
 20
182.84814453125
  0
SEQEND
  8
4
  0
POLYLINE
  8
4
  6
CONTINUOUS
 66
     1
 70
     0
 40
0.0
 41
0.0
  0
VERTEX
  8
4
 10
119.9928817749023
 20
183.16064453125
  0
VERTEX
  8
4
 10
119.6491317749023
 20
183.16064453125
  0
SEQEND
  8
4
  0
POLYLINE
  8
4
  6
CONTINUOUS
 66
     1
 70
     0
 40
0.0
 41
0.0
  0
VERTEX
  8
4
 10
120.2272567749023
 20
183.34814453125
  0
VERTEX
  8
4
 10
120.4772567749023
 20
183.34814453125
 42
0.4142135623731064
  0
VERTEX
  8
4
 10
120.7272567749023
 20
183.59814453125
 42
0.4142135623731064
  0
VERTEX
  8
4
 10
120.4772567749023
 20
183.84814453125
  0
VERTEX
  8
4
 10
120.2272567749023
 20
183.84814453125
  0
VERTEX
  8
4
 10
120.2272567749023
 20
182.84814453125
  0
SEQEND
  8
4
  0
POLYLINE
  8
4
  6
CONTINUOUS
 66
     1
 70
     0
 40
0.0
 41
0.0
  0
VERTEX
  8
4
 10
120.7272567749023
 20
182.84814453125
  0
VERTEX
  8
4
 10
120.4772567749023
 20
183.34814453125
  0
SEQEND
  8
4
  0
POLYLINE
  8
4
  6
CONTINUOUS
 66
     1
 70
     0
 40
0.0
 41
0.0
  0
VERTEX
  8
4
 10
121.3835067749023
 20
183.62939453125
 42
0.875
  0
VERTEX
  8
4
 10
120.8835067749023
 20
183.62939453125
  0
VERTEX
  8
4
 10
120.8835067749023
 20
183.03564453125
 42
0.7500000000000001
  0
VERTEX
  8
4
 10
121.3835067749023
 20
183.03564453125
  0
SEQEND
  8
4
  0
POLYLINE
  8
4
  6
CONTINUOUS
 66
     1
 70
     0
 40
0.0
 41
0.0
  0
VERTEX
  8
4
 10
121.3835067749023
 20
182.84814453125
  0
VERTEX
  8
4
 10
121.3835067749023
 20
183.33251953125
  0
VERTEX
  8
4
 10
121.1335067749023
 20
183.33251953125
  0
SEQEND
  8
4
  0
POLYLINE
  8
4
  6
CONTINUOUS
 66
     1
 70
     0
 40
0.0
 41
0.0
  0
VERTEX
  8
4
 10
122.0397567749023
 20
183.84814453125
  0
VERTEX
  8
4
 10
121.5397567749023
 20
183.84814453125
  0
VERTEX
  8
4
 10
121.5397567749023
 20
182.84814453125
  0
VERTEX
  8
4
 10
122.0397567749023
 20
182.84814453125
  0
SEQEND
  8
4
  0
POLYLINE
  8
4
  6
CONTINUOUS
 66
     1
 70
     0
 40
0.0
 41
0.0
  0
VERTEX
  8
4
 10
121.5397567749023
 20
183.34814453125
  0
VERTEX
  8
4
 10
122.0397567749023
 20
183.34814453125
  0
SEQEND
  8
4
  0
ENDBLK
  8
4
  0
BLOCK
  8
4
  2
COMP31
 70
    64
 10
0.0
 20
0.0
  0
POLYLINE
  8
4
  6
CONTINUOUS
 66
     1
 70
     0
 40
0.0
 41
0.0
  0
VERTEX
  8
4
 10
125.4071350097656
 20
174.5649719238281
  0
VERTEX
  8
4
 10
125.4071350097656
 20
174.8305969238281
 42
0.4666666666666667
  0
VERTEX
  8
4
 10
125.1727600097656
 20
175.0649719238281
  0
VERTEX
  8
4
 10
124.6415100097656
 20
175.0649719238281
 42
0.4666666666666667
  0
VERTEX
  8
4
 10
124.4071350097656
 20
174.8305969238281
  0
VERTEX
  8
4
 10
124.4071350097656
 20
174.5649719238281
  0
VERTEX
  8
4
 10
125.4071350097656
 20
174.5649719238281
  0
SEQEND
  8
4
  0
POLYLINE
  8
4
  6
CONTINUOUS
 66
     1
 70
     0
 40
0.0
 41
0.0
  0
VERTEX
  8
4
 10
124.6258850097656
 20
175.7212219238281
 42
0.875
  0
VERTEX
  8
4
 10
124.6258850097656
 20
175.2212219238281
  0
VERTEX
  8
4
 10
125.2196350097656
 20
175.2212219238281
 42
0.7500000000000001
  0
VERTEX
  8
4
 10
125.2196350097656
 20
175.7212219238281
  0
SEQEND
  8
4
  0
POLYLINE
  8
4
  6
CONTINUOUS
 66
     1
 70
     0
 40
0.0
 41
0.0
  0
VERTEX
  8
4
 10
124.4071350097656
 20
176.6899719238281
  0
VERTEX
  8
4
 10
124.4071350097656
 20
176.8774719238281
  0
SEQEND
  8
4
  0
POLYLINE
  8
4
  6
CONTINUOUS
 66
     1
 70
     0
 40
0.0
 41
0.0
  0
VERTEX
  8
4
 10
125.4071350097656
 20
176.6899719238281
  0
VERTEX
  8
4
 10
125.4071350097656
 20
176.8774719238281
  0
SEQEND
  8
4
  0
POLYLINE
  8
4
  6
CONTINUOUS
 66
     1
 70
     0
 40
0.0
 41
0.0
  0
VERTEX
  8
4
 10
125.4071350097656
 20
176.7837219238281
  0
VERTEX
  8
4
 10
124.4071350097656
 20
176.7837219238281
  0
SEQEND
  8
4
  0
POLYLINE
  8
4
  6
CONTINUOUS
 66
     1
 70
     0
 40
0.0
 41
0.0
  0
VERTEX
  8
4
 10
125.4071350097656
 20
177.1899719238281
  0
VERTEX
  8
4
 10
124.4071350097656
 20
177.1899719238281
  0
VERTEX
  8
4
 10
125.4071350097656
 20
177.6899719238281
  0
VERTEX
  8
4
 10
124.4071350097656
 20
177.6899719238281
  0
SEQEND
  8
4
  0
ENDBLK
  8
4
  0
BLOCK
  8
4
  2
COMP32
 70
    64
 10
0.0
 20
0.0
  0
POLYLINE
  8
4
  6
CONTINUOUS
 66
     1
 70
     0
 40
0.0
 41
0.0
  0
VERTEX
  8
4
 10
126.9887847900391
 20
173.8531188964844
  0
VERTEX
  8
4
 10
126.3794097900391
 20
173.8531188964844
  0
SEQEND
  8
4
  0
POLYLINE
  8
4
  6
CONTINUOUS
 66
     1
 70
     0
 40
0.0
 41
0.0
  0
VERTEX
  8
4
 10
126.6762847900391
 20
174.1499938964844
  0
VERTEX
  8
4
 10
126.6762847900391
 20
173.5406188964844
  0
SEQEND
  8
4
  0
ENDBLK
  8
4
  0
BLOCK
  8
4
  2
COMP33
 70
    64
 10
0.0
 20
0.0
  0
POLYLINE
  8
4
  6
CONTINUOUS
 66
     1
 70
     0
 40
0.0
 41
0.0
  0
VERTEX
  8
4
 10
126.6408996582031
 20
178.5649719238281
  0
VERTEX
  8
4
 10
126.6408996582031
 20
179.2055969238281
  0
SEQEND
  8
4
  0
ENDBLK
  8
4
  0
BLOCK
  8
4
  2
COMP34
 70
    64
 10
0.0
 20
0.0
  0
POLYLINE
  8
4
  6
CONTINUOUS
 66
     1
 70
     0
 40
0.0
 41
0.0
  0
VERTEX
  8
4
 10
118.7019805908203
 20
175.7360229492188
  0
VERTEX
  8
4
 10
117.8519821166992
 20
175.7360229492188
  0
VERTEX
  8
4
 10
117.8519821166992
 20
174.0360260009766
  0
SEQEND
  8
4
  0
POLYLINE
  8
4
  6
CONTINUOUS
 66
     1
 70
     0
 40
0.0
 41
0.0
  0
VERTEX
  8
4
 10
117.8519821166992
 20
174.8860321044922
  0
VERTEX
  8
4
 10
118.5957336425781
 20
174.8860321044922
  0
SEQEND
  8
4
  0
POLYLINE
  8
4
  6
CONTINUOUS
 66
     1
 70
     0
 40
0.0
 41
0.0
  0
VERTEX
  8
4
 10
118.9676055908203
 20
175.7360229492188
  0
VERTEX
  8
4
 10
118.9676055908203
 20
174.3547821044922
 42
0.7500224396373756
  0
VERTEX
  8
4
 10
119.8176040649414
 20
174.3547821044922
  0
VERTEX
  8
4
 10
119.8176040649414
 20
175.7360229492188
  0
SEQEND
  8
4
  0
POLYLINE
  8
4
  6
CONTINUOUS
 66
     1
 70
     0
 40
0.0
 41
0.0
  0
VERTEX
  8
4
 10
120.0832290649414
 20
174.0360260009766
  0
VERTEX
  8
4
 10
120.0832290649414
 20
175.7360229492188
  0
VERTEX
  8
4
 10
120.933235168457
 20
174.0360260009766
  0
VERTEX
  8
4
 10
120.933235168457
 20
175.7360229492188
  0
SEQEND
  8
4
  0
POLYLINE
  8
4
  6
CONTINUOUS
 66
     1
 70
     0
 40
0.0
 41
0.0
  0
VERTEX
  8
4
 10
122.0488586425781
 20
175.3641510009766
 42
0.8750022439637375
  0
VERTEX
  8
4
 10
121.198860168457
 20
175.3641510009766
  0
VERTEX
  8
4
 10
121.198860168457
 20
174.3547821044922
 42
0.7500089756938211
  0
VERTEX
  8
4
 10
122.0488586425781
 20
174.3547821044922
  0
SEQEND
  8
4
  0
POLYLINE
  8
4
  6
CONTINUOUS
 66
     1
 70
     0
 40
0.0
 41
0.0
  0
VERTEX
  8
4
 10
122.6332321166992
 20
174.0891571044922
  0
VERTEX
  8
4
 10
122.6332321166992
 20
174.2485198974609
  0
VERTEX
  8
4
 10
122.8191680908203
 20
174.2485198974609
  0
VERTEX
  8
4
 10
122.8191680908203
 20
174.0891571044922
  0
VERTEX
  8
4
 10
122.6332321166992
 20
174.0891571044922
  0
SEQEND
  8
4
  0
ENDBLK
  8
4
  0
BLOCK
  8
4
  2
COMP35
 70
    64
 10
0.0
 20
0.0
  0
POLYLINE
  8
4
  6
CONTINUOUS
 66
     1
 70
     0
 40
0.0
 41
0.0
  0
VERTEX
  8
4
 10
120.2810363769531
 20
172.9698944091797
  0
VERTEX
  8
4
 10
119.8872833251953
 20
172.9698944091797
  0
VERTEX
  8
4
 10
119.5591583251953
 20
172.6417694091797
  0
VERTEX
  8
4
 10
119.5591583251953
 20
172.0511322021484
  0
VERTEX
  8
4
 10
119.8872833251953
 20
171.7230072021484
  0
VERTEX
  8
4
 10
120.2810363769531
 20
171.7230072021484
  0
VERTEX
  8
4
 10
120.4779052734375
 20
171.7886352539063
  0
VERTEX
  8
4
 10
120.6091613769531
 20
172.0511322021484
  0
VERTEX
  8
4
 10
120.6091613769531
 20
172.6417694091797
  0
VERTEX
  8
4
 10
120.2810363769531
 20
172.9698944091797
  0
SEQEND
  8
4
  0
POLYLINE
  8
4
  6
CONTINUOUS
 66
     1
 70
     0
 40
0.0
 41
0.0
  0
VERTEX
  8
4
 10
120.4779052734375
 20
171.7886352539063
  0
VERTEX
  8
4
 10
120.2154083251953
 20
171.1980133056641
  0
VERTEX
  8
4
 10
119.8216552734375
 20
170.8698883056641
  0
SEQEND
  8
4
  0
ENDBLK
  8
4
  0
BLOCK
  8
4
  2
COMP36
 70
    64
 10
0.0
 20
0.0
  0
POLYLINE
  8
4
  6
CONTINUOUS
 66
     1
 70
     0
 40
0.0
 41
0.0
  0
VERTEX
  8
4
 10
112.3808135986328
 20
172.9698944091797
  0
VERTEX
  8
4
 10
112.643310546875
 20
172.7073822021484
  0
VERTEX
  8
4
 10
112.643310546875
 20
172.1823883056641
  0
VERTEX
  8
4
 10
112.3808135986328
 20
171.9855194091797
  0
VERTEX
  8
4
 10
111.987060546875
 20
171.9855194091797
  0
VERTEX
  8
4
 10
111.7245635986328
 20
172.1823883056641
  0
VERTEX
  8
4
 10
111.7245635986328
 20
172.7073822021484
  0
VERTEX
  8
4
 10
111.987060546875
 20
172.9698944091797
  0
VERTEX
  8
4
 10
112.3808135986328
 20
172.9698944091797
  0
SEQEND
  8
4
  0
POLYLINE
  8
4
  6
CONTINUOUS
 66
     1
 70
     0
 40
0.0
 41
0.0
  0
VERTEX
  8
4
 10
111.987060546875
 20
171.9855194091797
  0
VERTEX
  8
4
 10
111.658935546875
 20
171.7230072021484
  0
VERTEX
  8
4
 10
111.658935546875
 20
171.1980133056641
  0
VERTEX
  8
4
 10
111.987060546875
 20
170.8698883056641
  0
VERTEX
  8
4
 10
112.3808135986328
 20
170.8698883056641
  0
VERTEX
  8
4
 10
112.7089385986328
 20
171.1980133056641
  0
VERTEX
  8
4
 10
112.7089385986328
 20
171.7230072021484
  0
VERTEX
  8
4
 10
112.3808135986328
 20
171.9855194091797
  0
SEQEND
  8
4
  0
ENDBLK
  8
4
  0
BLOCK
  8
4
  2
COMP37
 70
    64
 10
0.0
 20
0.0
  0
POLYLINE
  8
4
  6
CONTINUOUS
 66
     1
 70
     0
 40
0.0
 41
0.0
  0
VERTEX
  8
4
 10
103.7042236328125
 20
172.3792572021484
  0
VERTEX
  8
4
 10
103.7042236328125
 20
172.9042663574219
  0
VERTEX
  8
4
 10
104.7542266845703
 20
172.9042663574219
  0
VERTEX
  8
4
 10
104.0979766845703
 20
170.8698883056641
  0
SEQEND
  8
4
  0
ENDBLK
  8
4
  0
BLOCK
  8
4
  2
COMP38
 70
    64
 10
0.0
 20
0.0
  0
POLYLINE
  8
4
  6
CONTINUOUS
 66
     1
 70
     0
 40
0.0
 41
0.0
  0
VERTEX
  8
4
 10
94.51453399658203
 20
172.4559783935547
  0
VERTEX
  8
4
 10
94.93953704833984
 20
174.1559753417969
  0
VERTEX
  8
4
 10
95.36453247070313
 20
172.4559783935547
  0
SEQEND
  8
4
  0
POLYLINE
  8
4
  6
CONTINUOUS
 66
     1
 70
     0
 40
0.0
 41
0.0
  0
VERTEX
  8
4
 10
95.23171997070313
 20
172.9872283935547
  0
VERTEX
  8
4
 10
94.64734649658203
 20
172.9872283935547
  0
SEQEND
  8
4
  0
POLYLINE
  8
4
  6
CONTINUOUS
 66
     1
 70
     0
 40
0.0
 41
0.0
  0
VERTEX
  8
4
 10
95.63015747070313
 20
172.4559783935547
  0
VERTEX
  8
4
 10
96.48015594482422
 20
174.1559753417969
  0
SEQEND
  8
4
  0
POLYLINE
  8
4
  6
CONTINUOUS
 66
     1
 70
     0
 40
0.0
 41
0.0
  0
VERTEX
  8
4
 10
96.74578094482422
 20
174.1559753417969
  0
VERTEX
  8
4
 10
97.59578704833984
 20
174.1559753417969
  0
VERTEX
  8
4
 10
96.74578094482422
 20
172.4559783935547
  0
VERTEX
  8
4
 10
97.59578704833984
 20
172.4559783935547
  0
SEQEND
  8
4
  0
ENDBLK
  8
4
  0
BLOCK
  8
4
  2
COMP39
 70
    64
 10
0.0
 20
0.0
  0
POLYLINE
  8
4
  6
CONTINUOUS
 66
     1
 70
     0
 40
0.0
 41
0.0
  0
VERTEX
  8
4
 10
94.58718109130859
 20
165.5001525878906
  0
VERTEX
  8
4
 10
95.01218414306641
 20
167.2001495361328
  0
VERTEX
  8
4
 10
95.43717956542969
 20
165.5001525878906
  0
SEQEND
  8
4
  0
POLYLINE
  8
4
  6
CONTINUOUS
 66
     1
 70
     0
 40
0.0
 41
0.0
  0
VERTEX
  8
4
 10
95.30436706542969
 20
166.0314025878906
  0
VERTEX
  8
4
 10
94.71999359130859
 20
166.0314025878906
  0
SEQEND
  8
4
  0
POLYLINE
  8
4
  6
CONTINUOUS
 66
     1
 70
     0
 40
0.0
 41
0.0
  0
VERTEX
  8
4
 10
95.70280456542969
 20
165.5001525878906
  0
VERTEX
  8
4
 10
96.55280303955078
 20
167.2001495361328
  0
SEQEND
  8
4
  0
POLYLINE
  8
4
  6
CONTINUOUS
 66
     1
 70
     0
 40
0.0
 41
0.0
  0
VERTEX
  8
4
 10
96.81842803955078
 20
167.2001495361328
  0
VERTEX
  8
4
 10
97.66843414306641
 20
167.2001495361328
  0
VERTEX
  8
4
 10
96.81842803955078
 20
165.5001525878906
  0
VERTEX
  8
4
 10
97.66843414306641
 20
165.5001525878906
  0
SEQEND
  8
4
  0
ENDBLK
  8
4
  0
BLOCK
  8
4
  2
COMP40
 70
    64
 10
0.0
 20
0.0
  0
POLYLINE
  8
4
  6
CONTINUOUS
 66
     1
 70
     0
 40
0.0
 41
0.0
  0
VERTEX
  8
4
 10
94.75063323974609
 20
164.5399322509766
  0
VERTEX
  8
4
 10
94.75063323974609
 20
163.5305633544922
 42
0.7500089756938211
  0
VERTEX
  8
4
 10
95.60063171386719
 20
163.5305633544922
  0
VERTEX
  8
4
 10
95.60063171386719
 20
164.5399322509766
 42
0.8750022439637375
  0
VERTEX
  8
4
 10
94.75063323974609
 20
164.5399322509766
  0
SEQEND
  8
4
  0
POLYLINE
  8
4
  6
CONTINUOUS
 66
     1
 70
     0
 40
0.0
 41
0.0
  0
VERTEX
  8
4
 10
96.71625518798828
 20
164.9118041992188
  0
VERTEX
  8
4
 10
95.86625671386719
 20
164.9118041992188
  0
VERTEX
  8
4
 10
95.86625671386719
 20
163.2118072509766
  0
SEQEND
  8
4
  0
POLYLINE
  8
4
  6
CONTINUOUS
 66
     1
 70
     0
 40
0.0
 41
0.0
  0
VERTEX
  8
4
 10
95.86625671386719
 20
164.0618133544922
  0
VERTEX
  8
4
 10
96.61000823974609
 20
164.0618133544922
  0
SEQEND
  8
4
  0
POLYLINE
  8
4
  6
CONTINUOUS
 66
     1
 70
     0
 40
0.0
 41
0.0
  0
VERTEX
  8
4
 10
97.83188629150391
 20
164.9118041992188
  0
VERTEX
  8
4
 10
96.98188018798828
 20
164.9118041992188
  0
VERTEX
  8
4
 10
96.98188018798828
 20
163.2118072509766
  0
SEQEND
  8
4
  0
POLYLINE
  8
4
  6
CONTINUOUS
 66
     1
 70
     0
 40
0.0
 41
0.0
  0
VERTEX
  8
4
 10
96.98188018798828
 20
164.0618133544922
  0
VERTEX
  8
4
 10
97.72563171386719
 20
164.0618133544922
  0
SEQEND
  8
4
  0
ENDBLK
  8
4
  0
BLOCK
  8
4
  2
COMP41
 70
    64
 10
0.0
 20
0.0
  0
POLYLINE
  8
4
  6
CONTINUOUS
 66
     1
 70
     0
 40
0.0
 41
0.0
  0
VERTEX
  8
4
 10
104.301872253418
 20
165.0454559326172
  0
VERTEX
  8
4
 10
103.7768707275391
 20
163.6016998291016
  0
VERTEX
  8
4
 10
104.8268737792969
 20
163.6016998291016
  0
SEQEND
  8
4
  0
POLYLINE
  8
4
  6
CONTINUOUS
 66
     1
 70
     0
 40
0.0
 41
0.0
  0
VERTEX
  8
4
 10
104.4987487792969
 20
162.9454498291016
  0
VERTEX
  8
4
 10
104.4987487792969
 20
164.3235778808594
  0
SEQEND
  8
4
  0
ENDBLK
  8
4
  0
BLOCK
  8
4
  2
COMP42
 70
    64
 10
0.0
 20
0.0
  0
POLYLINE
  8
4
  6
CONTINUOUS
 66
     1
 70
     0
 40
0.0
 41
0.0
  0
VERTEX
  8
4
 10
103.6643142700195
 20
167.4094390869141
 42
0.8749865364592684
  0
VERTEX
  8
4
 10
102.8143157958984
 20
167.4094390869141
  0
VERTEX
  8
4
 10
102.8143157958984
 20
166.4000701904297
 42
0.7500224396373756
  0
VERTEX
  8
4
 10
103.6643142700195
 20
166.4000701904297
  0
SEQEND
  8
4
  0
POLYLINE
  8
4
  6
CONTINUOUS
 66
     1
 70
     0
 40
0.0
 41
0.0
  0
VERTEX
  8
4
 10
103.9299392700195
 20
167.7813110351563
  0
VERTEX
  8
4
 10
103.9299392700195
 20
166.0813140869141
  0
SEQEND
  8
4
  0
POLYLINE
  8
4
  6
CONTINUOUS
 66
     1
 70
     0
 40
0.0
 41
0.0
  0
VERTEX
  8
4
 10
104.7799377441406
 20
167.7813110351563
  0
VERTEX
  8
4
 10
104.7799377441406
 20
166.0813140869141
  0
SEQEND
  8
4
  0
POLYLINE
  8
4
  6
CONTINUOUS
 66
     1
 70
     0
 40
0.0
 41
0.0
  0
VERTEX
  8
4
 10
103.9299392700195
 20
166.9313201904297
  0
VERTEX
  8
4
 10
104.7799377441406
 20
166.9313201904297
  0
SEQEND
  8
4
  0
POLYLINE
  8
4
  6
CONTINUOUS
 66
     1
 70
     0
 40
0.0
 41
0.0
  0
VERTEX
  8
4
 10
105.4705657958984
 20
167.7813110351563
  0
VERTEX
  8
4
 10
105.0455627441406
 20
166.6125640869141
  0
VERTEX
  8
4
 10
105.8955688476563
 20
166.6125640869141
  0
SEQEND
  8
4
  0
POLYLINE
  8
4
  6
CONTINUOUS
 66
     1
 70
     0
 40
0.0
 41
0.0
  0
VERTEX
  8
4
 10
105.6299438476563
 20
166.0813140869141
  0
VERTEX
  8
4
 10
105.6299438476563
 20
167.1969451904297
  0
SEQEND
  8
4
  0
ENDBLK
  8
4
  0
BLOCK
  8
4
  2
COMP43
 70
    64
 10
0.0
 20
0.0
  0
POLYLINE
  8
4
  6
CONTINUOUS
 66
     1
 70
     0
 40
0.0
 41
0.0
  0
VERTEX
  8
4
 10
111.2557907104492
 20
167.4094390869141
 42
0.8749865364592684
  0
VERTEX
  8
4
 10
110.4057922363281
 20
167.4094390869141
  0
VERTEX
  8
4
 10
110.4057922363281
 20
166.4000701904297
 42
0.7500224396373756
  0
VERTEX
  8
4
 10
111.2557907104492
 20
166.4000701904297
  0
SEQEND
  8
4
  0
POLYLINE
  8
4
  6
CONTINUOUS
 66
     1
 70
     0
 40
0.0
 41
0.0
  0
VERTEX
  8
4
 10
111.5214157104492
 20
166.0813140869141
  0
VERTEX
  8
4
 10
111.946418762207
 20
167.7813110351563
  0
VERTEX
  8
4
 10
112.3714141845703
 20
166.0813140869141
  0
SEQEND
  8
4
  0
POLYLINE
  8
4
  6
CONTINUOUS
 66
     1
 70
     0
 40
0.0
 41
0.0
  0
VERTEX
  8
4
 10
112.2386016845703
 20
166.6125640869141
  0
VERTEX
  8
4
 10
111.6542282104492
 20
166.6125640869141
  0
SEQEND
  8
4
  0
POLYLINE
  8
4
  6
CONTINUOUS
 66
     1
 70
     0
 40
0.0
 41
0.0
  0
VERTEX
  8
4
 10
112.6370391845703
 20
167.7813110351563
  0
VERTEX
  8
4
 10
112.6370391845703
 20
166.0813140869141
  0
VERTEX
  8
4
 10
113.4870452880859
 20
166.0813140869141
  0
SEQEND
  8
4
  0
POLYLINE
  8
4
  6
CONTINUOUS
 66
     1
 70
     0
 40
0.0
 41
0.0
  0
VERTEX
  8
4
 10
114.071418762207
 20
166.1344451904297
  0
VERTEX
  8
4
 10
114.071418762207
 20
166.2938079833984
  0
VERTEX
  8
4
 10
114.2573547363281
 20
166.2938079833984
  0
VERTEX
  8
4
 10
114.2573547363281
 20
166.1344451904297
  0
VERTEX
  8
4
 10
114.071418762207
 20
166.1344451904297
  0
SEQEND
  8
4
  0
ENDBLK
  8
4
  0
BLOCK
  8
4
  2
COMP44
 70
    64
 10
0.0
 20
0.0
  0
POLYLINE
  8
4
  6
CONTINUOUS
 66
     1
 70
     0
 40
0.0
 41
0.0
  0
VERTEX
  8
4
 10
112.7159576416016
 20
165.0524597167969
  0
VERTEX
  8
4
 10
111.8628311157227
 20
165.0524597167969
  0
VERTEX
  8
4
 10
111.7315826416016
 20
164.1337127685547
  0
VERTEX
  8
4
 10
112.0597076416016
 20
164.2649536132813
  0
VERTEX
  8
4
 10
112.4534606933594
 20
164.2649536132813
  0
VERTEX
  8
4
 10
112.7815856933594
 20
164.0024566650391
  0
VERTEX
  8
4
 10
112.7815856933594
 20
163.3462066650391
  0
VERTEX
  8
4
 10
112.4534606933594
 20
163.0180816650391
  0
VERTEX
  8
4
 10
112.0597076416016
 20
163.0180816650391
  0
VERTEX
  8
4
 10
111.7315826416016
 20
163.3462066650391
  0
SEQEND
  8
4
  0
ENDBLK
  8
4
  0
BLOCK
  8
4
  2
COMP45
 70
    64
 10
0.0
 20
0.0
  0
POLYLINE
  8
4
  6
CONTINUOUS
 66
     1
 70
     0
 40
0.0
 41
0.0
  0
VERTEX
  8
4
 10
119.6499710083008
 20
163.8278656005859
  0
VERTEX
  8
4
 10
119.9780960083008
 20
164.1559906005859
  0
VERTEX
  8
4
 10
120.3718490600586
 20
164.1559906005859
  0
VERTEX
  8
4
 10
120.6999740600586
 20
163.8278656005859
  0
VERTEX
  8
4
 10
120.6999740600586
 20
163.2372436523438
  0
VERTEX
  8
4
 10
120.3718490600586
 20
162.9091186523438
  0
VERTEX
  8
4
 10
119.9780960083008
 20
162.9091186523438
  0
VERTEX
  8
4
 10
119.6499710083008
 20
163.2372436523438
  0
VERTEX
  8
4
 10
119.6499710083008
 20
164.6809997558594
  0
VERTEX
  8
4
 10
119.9780960083008
 20
165.0091247558594
  0
VERTEX
  8
4
 10
120.3718490600586
 20
165.0091247558594
  0
VERTEX
  8
4
 10
120.6999740600586
 20
164.6809997558594
  0
SEQEND
  8
4
  0
ENDBLK
  8
4
  0
BLOCK
  8
4
  2
COMP46
 70
    64
 10
0.0
 20
0.0
  0
POLYLINE
  8
4
  6
CONTINUOUS
 66
     1
 70
     0
 40
0.0
 41
0.0
  0
VERTEX
  8
4
 10
119.0652084350586
 20
167.7449951171875
  0
VERTEX
  8
4
 10
118.2152099609375
 20
167.7449951171875
  0
VERTEX
  8
4
 10
118.2152099609375
 20
166.0449981689453
  0
SEQEND
  8
4
  0
POLYLINE
  8
4
  6
CONTINUOUS
 66
     1
 70
     0
 40
0.0
 41
0.0
  0
VERTEX
  8
4
 10
118.2152099609375
 20
166.8950042724609
  0
VERTEX
  8
4
 10
118.9589614868164
 20
166.8950042724609
  0
SEQEND
  8
4
  0
POLYLINE
  8
4
  6
CONTINUOUS
 66
     1
 70
     0
 40
0.0
 41
0.0
  0
VERTEX
  8
4
 10
119.5964584350586
 20
167.7449951171875
  0
VERTEX
  8
4
 10
119.9152069091797
 20
167.7449951171875
  0
SEQEND
  8
4
  0
POLYLINE
  8
4
  6
CONTINUOUS
 66
     1
 70
     0
 40
0.0
 41
0.0
  0
VERTEX
  8
4
 10
119.5964584350586
 20
166.0449981689453
  0
VERTEX
  8
4
 10
119.9152069091797
 20
166.0449981689453
  0
SEQEND
  8
4
  0
POLYLINE
  8
4
  6
CONTINUOUS
 66
     1
 70
     0
 40
0.0
 41
0.0
  0
VERTEX
  8
4
 10
119.7558364868164
 20
166.0449981689453
  0
VERTEX
  8
4
 10
119.7558364868164
 20
167.7449951171875
  0
SEQEND
  8
4
  0
POLYLINE
  8
4
  6
CONTINUOUS
 66
     1
 70
     0
 40
0.0
 41
0.0
  0
VERTEX
  8
4
 10
120.4464569091797
 20
167.7449951171875
  0
VERTEX
  8
4
 10
120.4464569091797
 20
166.0449981689453
  0
VERTEX
  8
4
 10
121.2964630126953
 20
166.0449981689453
  0
SEQEND
  8
4
  0
POLYLINE
  8
4
  6
CONTINUOUS
 66
     1
 70
     0
 40
0.0
 41
0.0
  0
VERTEX
  8
4
 10
122.4120864868164
 20
167.7449951171875
  0
VERTEX
  8
4
 10
121.5620880126953
 20
167.7449951171875
  0
VERTEX
  8
4
 10
121.5620880126953
 20
166.0449981689453
  0
VERTEX
  8
4
 10
122.4120864868164
 20
166.0449981689453
  0
SEQEND
  8
4
  0
POLYLINE
  8
4
  6
CONTINUOUS
 66
     1
 70
     0
 40
0.0
 41
0.0
  0
VERTEX
  8
4
 10
121.5620880126953
 20
166.8950042724609
  0
VERTEX
  8
4
 10
122.4120864868164
 20
166.8950042724609
  0
SEQEND
  8
4
  0
ENDBLK
  8
4
  0
BLOCK
  8
4
  2
COMP47
 70
    64
 10
0.0
 20
0.0
  0
POLYLINE
  8
4
  6
CONTINUOUS
 66
     1
 70
     0
 40
0.0
 41
0.0
  0
VERTEX
  8
4
 10
103.6643142700195
 20
159.412353515625
 42
0.8749865364592684
  0
VERTEX
  8
4
 10
102.8143157958984
 20
159.412353515625
  0
VERTEX
  8
4
 10
102.8143157958984
 20
158.4029846191406
 42
0.7500224396373756
  0
VERTEX
  8
4
 10
103.6643142700195
 20
158.4029846191406
  0
SEQEND
  8
4
  0
POLYLINE
  8
4
  6
CONTINUOUS
 66
     1
 70
     0
 40
0.0
 41
0.0
  0
VERTEX
  8
4
 10
103.9299392700195
 20
159.7842254638672
  0
VERTEX
  8
4
 10
103.9299392700195
 20
158.084228515625
  0
SEQEND
  8
4
  0
POLYLINE
  8
4
  6
CONTINUOUS
 66
     1
 70
     0
 40
0.0
 41
0.0
  0
VERTEX
  8
4
 10
104.7799377441406
 20
159.7842254638672
  0
VERTEX
  8
4
 10
104.7799377441406
 20
158.084228515625
  0
SEQEND
  8
4
  0
POLYLINE
  8
4
  6
CONTINUOUS
 66
     1
 70
     0
 40
0.0
 41
0.0
  0
VERTEX
  8
4
 10
103.9299392700195
 20
158.9342346191406
  0
VERTEX
  8
4
 10
104.7799377441406
 20
158.9342346191406
  0
SEQEND
  8
4
  0
POLYLINE
  8
4
  6
CONTINUOUS
 66
     1
 70
     0
 40
0.0
 41
0.0
  0
VERTEX
  8
4
 10
105.4705657958984
 20
158.084228515625
  0
VERTEX
  8
4
 10
105.4705657958984
 20
159.7842254638672
  0
VERTEX
  8
4
 10
105.1783752441406
 20
159.279541015625
  0
SEQEND
  8
4
  0
ENDBLK
  8
4
  0
BLOCK
  8
4
  2
COMP48
 70
    64
 10
0.0
 20
0.0
  0
POLYLINE
  8
4
  6
CONTINUOUS
 66
     1
 70
     0
 40
0.0
 41
0.0
  0
VERTEX
  8
4
 10
104.3381958007813
 20
154.9180908203125
  0
VERTEX
  8
4
 10
104.3381958007813
 20
157.0180969238281
  0
VERTEX
  8
4
 10
103.9772567749023
 20
156.3946533203125
  0
SEQEND
  8
4
  0
ENDBLK
  8
4
  0
BLOCK
  8
4
  2
COMP49
 70
    64
 10
0.0
 20
0.0
  0
POLYLINE
  8
4
  6
CONTINUOUS
 66
     1
 70
     0
 40
0.0
 41
0.0
  0
VERTEX
  8
4
 10
111.658935546875
 20
156.6969909667969
  0
VERTEX
  8
4
 10
111.987060546875
 20
157.0907440185547
  0
VERTEX
  8
4
 10
112.3808135986328
 20
157.0907440185547
  0
VERTEX
  8
4
 10
112.7089385986328
 20
156.6969909667969
  0
VERTEX
  8
4
 10
112.7089385986328
 20
156.1719818115234
  0
VERTEX
  8
4
 10
111.658935546875
 20
155.2532348632813
  0
VERTEX
  8
4
 10
111.658935546875
 20
154.9907379150391
  0
VERTEX
  8
4
 10
112.7089385986328
 20
154.9907379150391
  0
SEQEND
  8
4
  0
ENDBLK
  8
4
  0
BLOCK
  8
4
  2
COMP50
 70
    64
 10
0.0
 20
0.0
  0
POLYLINE
  8
4
  6
CONTINUOUS
 66
     1
 70
     0
 40
0.0
 41
0.0
  0
VERTEX
  8
4
 10
111.4192428588867
 20
159.5213317871094
 42
0.8749865364592684
  0
VERTEX
  8
4
 10
110.5692443847656
 20
159.5213317871094
  0
VERTEX
  8
4
 10
110.5692443847656
 20
158.511962890625
 42
0.7500224396373756
  0
VERTEX
  8
4
 10
111.4192428588867
 20
158.511962890625
  0
SEQEND
  8
4
  0
POLYLINE
  8
4
  6
CONTINUOUS
 66
     1
 70
     0
 40
0.0
 41
0.0
  0
VERTEX
  8
4
 10
111.6848678588867
 20
159.8932037353516
  0
VERTEX
  8
4
 10
111.6848678588867
 20
158.1932067871094
  0
SEQEND
  8
4
  0
POLYLINE
  8
4
  6
CONTINUOUS
 66
     1
 70
     0
 40
0.0
 41
0.0
  0
VERTEX
  8
4
 10
112.5348663330078
 20
159.8932037353516
  0
VERTEX
  8
4
 10
112.5348663330078
 20
158.1932067871094
  0
SEQEND
  8
4
  0
POLYLINE
  8
4
  6
CONTINUOUS
 66
     1
 70
     0
 40
0.0
 41
0.0
  0
VERTEX
  8
4
 10
111.6848678588867
 20
159.043212890625
  0
VERTEX
  8
4
 10
112.5348663330078
 20
159.043212890625
  0
SEQEND
  8
4
  0
POLYLINE
  8
4
  6
CONTINUOUS
 66
     1
 70
     0
 40
0.0
 41
0.0
  0
VERTEX
  8
4
 10
112.8004913330078
 20
159.574462890625
  0
VERTEX
  8
4
 10
113.0661163330078
 20
159.8932037353516
  0
VERTEX
  8
4
 10
113.3848724365234
 20
159.8932037353516
  0
VERTEX
  8
4
 10
113.6504974365234
 20
159.574462890625
  0
VERTEX
  8
4
 10
113.6504974365234
 20
159.1494598388672
  0
VERTEX
  8
4
 10
112.8004913330078
 20
158.4057006835938
  0
VERTEX
  8
4
 10
112.8004913330078
 20
158.1932067871094
  0
VERTEX
  8
4
 10
113.6504974365234
 20
158.1932067871094
  0
SEQEND
  8
4
  0
ENDBLK
  8
4
  0
BLOCK
  8
4
  2
COMP51
 70
    64
 10
0.0
 20
0.0
  0
POLYLINE
  8
4
  6
CONTINUOUS
 66
     1
 70
     0
 40
0.0
 41
0.0
  0
VERTEX
  8
4
 10
119.4829254150391
 20
159.6847839355469
 42
0.8750022439637375
  0
VERTEX
  8
4
 10
118.632926940918
 20
159.6847839355469
  0
VERTEX
  8
4
 10
118.632926940918
 20
158.6754150390625
 42
0.7500089756938211
  0
VERTEX
  8
4
 10
119.4829254150391
 20
158.6754150390625
  0
SEQEND
  8
4
  0
POLYLINE
  8
4
  6
CONTINUOUS
 66
     1
 70
     0
 40
0.0
 41
0.0
  0
VERTEX
  8
4
 10
119.7485504150391
 20
160.0566558837891
  0
VERTEX
  8
4
 10
119.7485504150391
 20
158.3566589355469
  0
SEQEND
  8
4
  0
POLYLINE
  8
4
  6
CONTINUOUS
 66
     1
 70
     0
 40
0.0
 41
0.0
  0
VERTEX
  8
4
 10
120.5985488891602
 20
160.0566558837891
  0
VERTEX
  8
4
 10
120.5985488891602
 20
158.3566589355469
  0
SEQEND
  8
4
  0
POLYLINE
  8
4
  6
CONTINUOUS
 66
     1
 70
     0
 40
0.0
 41
0.0
  0
VERTEX
  8
4
 10
119.7485504150391
 20
159.2066650390625
  0
VERTEX
  8
4
 10
120.5985488891602
 20
159.2066650390625
  0
SEQEND
  8
4
  0
POLYLINE
  8
4
  6
CONTINUOUS
 66
     1
 70
     0
 40
0.0
 41
0.0
  0
VERTEX
  8
4
 10
120.8641738891602
 20
159.7379150390625
  0
VERTEX
  8
4
 10
121.1297988891602
 20
160.0566558837891
  0
VERTEX
  8
4
 10
121.4485549926758
 20
160.0566558837891
  0
VERTEX
  8
4
 10
121.7141799926758
 20
159.7379150390625
  0
VERTEX
  8
4
 10
121.7141799926758
 20
159.4722900390625
  0
VERTEX
  8
4
 10
121.3954238891602
 20
159.2066650390625
  0
VERTEX
  8
4
 10
121.0766754150391
 20
159.2066650390625
  0
SEQEND
  8
4
  0
POLYLINE
  8
4
  6
CONTINUOUS
 66
     1
 70
     0
 40
0.0
 41
0.0
  0
VERTEX
  8
4
 10
121.3954238891602
 20
159.2066650390625
  0
VERTEX
  8
4
 10
121.7141799926758
 20
158.8879089355469
  0
VERTEX
  8
4
 10
121.7141799926758
 20
158.6222839355469
  0
VERTEX
  8
4
 10
121.4485549926758
 20
158.3566589355469
  0
VERTEX
  8
4
 10
121.1297988891602
 20
158.3566589355469
  0
VERTEX
  8
4
 10
120.8641738891602
 20
158.6222839355469
  0
SEQEND
  8
4
  0
ENDBLK
  8
4
  0
BLOCK
  8
4
  2
COMP52
 70
    64
 10
0.0
 20
0.0
  0
POLYLINE
  8
4
  6
CONTINUOUS
 66
     1
 70
     0
 40
0.0
 41
0.0
  0
VERTEX
  8
4
 10
119.522834777832
 20
156.6606597900391
  0
VERTEX
  8
4
 10
119.850959777832
 20
157.0544128417969
  0
VERTEX
  8
4
 10
120.2447128295898
 20
157.0544128417969
  0
VERTEX
  8
4
 10
120.5728378295898
 20
156.6606597900391
  0
VERTEX
  8
4
 10
120.5728378295898
 20
156.3325347900391
  0
VERTEX
  8
4
 10
120.179084777832
 20
156.0044097900391
  0
VERTEX
  8
4
 10
119.7853317260742
 20
156.0044097900391
  0
SEQEND
  8
4
  0
POLYLINE
  8
4
  6
CONTINUOUS
 66
     1
 70
     0
 40
0.0
 41
0.0
  0
VERTEX
  8
4
 10
120.179084777832
 20
156.0044097900391
  0
VERTEX
  8
4
 10
120.5728378295898
 20
155.6106567382813
  0
VERTEX
  8
4
 10
120.5728378295898
 20
155.2825317382813
  0
VERTEX
  8
4
 10
120.2447128295898
 20
154.9544067382813
  0
VERTEX
  8
4
 10
119.850959777832
 20
154.9544067382813
  0
VERTEX
  8
4
 10
119.522834777832
 20
155.2825317382813
  0
SEQEND
  8
4
  0
ENDBLK
  8
4
  0
BLOCK
  8
4
  2
COMP53
 70
    64
 10
0.0
 20
0.0
  0
POLYLINE
  8
4
  6
CONTINUOUS
 66
     1
 70
     0
 40
0.0
 41
0.0
  0
VERTEX
  8
4
 10
102.1968231201172
 20
150.1658477783203
  0
VERTEX
  8
4
 10
102.5218200683594
 20
151.4658508300781
  0
VERTEX
  8
4
 10
102.8468246459961
 20
150.1658477783203
  0
SEQEND
  8
4
  0
POLYLINE
  8
4
  6
CONTINUOUS
 66
     1
 70
     0
 40
0.0
 41
0.0
  0
VERTEX
  8
4
 10
102.7452621459961
 20
150.5720977783203
  0
VERTEX
  8
4
 10
102.2983856201172
 20
150.5720977783203
  0
SEQEND
  8
4
  0
POLYLINE
  8
4
  6
CONTINUOUS
 66
     1
 70
     0
 40
0.0
 41
0.0
  0
VERTEX
  8
4
 10
103.0499496459961
 20
151.4658508300781
  0
VERTEX
  8
4
 10
103.0499496459961
 20
150.1658477783203
  0
VERTEX
  8
4
 10
103.699951171875
 20
150.1658477783203
  0
SEQEND
  8
4
  0
POLYLINE
  8
4
  6
CONTINUOUS
 66
     1
 70
     0
 40
0.0
 41
0.0
  0
VERTEX
  8
4
 10
103.903076171875
 20
151.4658508300781
  0
VERTEX
  8
4
 10
103.903076171875
 20
150.1658477783203
  0
VERTEX
  8
4
 10
104.5530700683594
 20
150.1658477783203
  0
SEQEND
  8
4
  0
POLYLINE
  8
4
  6
CONTINUOUS
 66
     1
 70
     0
 40
0.0
 41
0.0
  0
VERTEX
  8
4
 10
105.4061965942383
 20
151.1814727783203
 42
0.8750176064603973
  0
VERTEX
  8
4
 10
104.7561950683594
 20
151.1814727783203
  0
VERTEX
  8
4
 10
104.7561950683594
 20
150.4095916748047
 42
0.7499706565881829
  0
VERTEX
  8
4
 10
105.4061965942383
 20
150.4095916748047
  0
SEQEND
  8
4
  0
POLYLINE
  8
4
  6
CONTINUOUS
 66
     1
 70
     0
 40
0.0
 41
0.0
  0
VERTEX
  8
4
 10
105.6093215942383
 20
151.4658508300781
  0
VERTEX
  8
4
 10
105.6093215942383
 20
150.1658477783203
  0
SEQEND
  8
4
  0
POLYLINE
  8
4
  6
CONTINUOUS
 66
     1
 70
     0
 40
0.0
 41
0.0
  0
VERTEX
  8
4
 10
106.2593231201172
 20
151.4658508300781
  0
VERTEX
  8
4
 10
106.2593231201172
 20
150.1658477783203
  0
SEQEND
  8
4
  0
POLYLINE
  8
4
  6
CONTINUOUS
 66
     1
 70
     0
 40
0.0
 41
0.0
  0
VERTEX
  8
4
 10
105.6093215942383
 20
150.8158416748047
  0
VERTEX
  8
4
 10
106.2593231201172
 20
150.8158416748047
  0
SEQEND
  8
4
  0
ENDBLK
  8
4
  0
BLOCK
  8
4
  2
COMP54
 70
    64
 10
0.0
 20
0.0
  0
POLYLINE
  8
4
  6
CONTINUOUS
 66
     1
 70
     0
 40
0.0
 41
0.0
  0
VERTEX
  8
4
 10
103.8061752319336
 20
148.8694000244141
  0
VERTEX
  8
4
 10
103.8061752319336
 20
147.5569000244141
 42
0.9230906814523342
  0
VERTEX
  8
4
 10
104.659294128418
 20
147.5569000244141
  0
VERTEX
  8
4
 10
104.659294128418
 20
148.8694000244141
 42
0.9230906814523342
  0
VERTEX
  8
4
 10
103.8061752319336
 20
148.8694000244141
  0
SEQEND
  8
4
  0
ENDBLK
  8
4
  0
BLOCK
  8
4
  2
COMP55
 70
    64
 10
0.0
 20
0.0
  0
POLYLINE
  8
4
  6
CONTINUOUS
 66
     1
 70
     0
 40
0.0
 41
0.0
  0
VERTEX
  8
4
 10
110.8741836547852
 20
151.1814727783203
 42
0.8750176064603973
  0
VERTEX
  8
4
 10
110.2241821289063
 20
151.1814727783203
  0
VERTEX
  8
4
 10
110.2241821289063
 20
150.4095916748047
 42
0.7499706565881829
  0
VERTEX
  8
4
 10
110.8741836547852
 20
150.4095916748047
  0
SEQEND
  8
4
  0
POLYLINE
  8
4
  6
CONTINUOUS
 66
     1
 70
     0
 40
0.0
 41
0.0
  0
VERTEX
  8
4
 10
111.0773086547852
 20
151.4658508300781
  0
VERTEX
  8
4
 10
111.0773086547852
 20
150.1658477783203
  0
VERTEX
  8
4
 10
111.7273101806641
 20
150.1658477783203
  0
SEQEND
  8
4
  0
POLYLINE
  8
4
  6
CONTINUOUS
 66
     1
 70
     0
 40
0.0
 41
0.0
  0
VERTEX
  8
4
 10
112.5804290771484
 20
151.4658508300781
  0
VERTEX
  8
4
 10
111.9304351806641
 20
151.4658508300781
  0
VERTEX
  8
4
 10
111.9304351806641
 20
150.1658477783203
  0
VERTEX
  8
4
 10
112.5804290771484
 20
150.1658477783203
  0
SEQEND
  8
4
  0
POLYLINE
  8
4
  6
CONTINUOUS
 66
     1
 70
     0
 40
0.0
 41
0.0
  0
VERTEX
  8
4
 10
111.9304351806641
 20
150.8158416748047
  0
VERTEX
  8
4
 10
112.5804290771484
 20
150.8158416748047
  0
SEQEND
  8
4
  0
POLYLINE
  8
4
  6
CONTINUOUS
 66
     1
 70
     0
 40
0.0
 41
0.0
  0
VERTEX
  8
4
 10
112.7835540771484
 20
150.1658477783203
  0
VERTEX
  8
4
 10
113.1085586547852
 20
151.4658508300781
  0
VERTEX
  8
4
 10
113.4335556030273
 20
150.1658477783203
  0
SEQEND
  8
4
  0
POLYLINE
  8
4
  6
CONTINUOUS
 66
     1
 70
     0
 40
0.0
 41
0.0
  0
VERTEX
  8
4
 10
113.3319931030273
 20
150.5720977783203
  0
VERTEX
  8
4
 10
112.8851165771484
 20
150.5720977783203
  0
SEQEND
  8
4
  0
POLYLINE
  8
4
  6
CONTINUOUS
 66
     1
 70
     0
 40
0.0
 41
0.0
  0
VERTEX
  8
4
 10
113.6366806030273
 20
150.8158416748047
  0
VERTEX
  8
4
 10
113.9616851806641
 20
150.8158416748047
 42
0.9999530516431925
  0
VERTEX
  8
4
 10
113.9616851806641
 20
151.4658508300781
  0
VERTEX
  8
4
 10
113.6366806030273
 20
151.4658508300781
  0
VERTEX
  8
4
 10
113.6366806030273
 20
150.1658477783203
  0
SEQEND
  8
4
  0
POLYLINE
  8
4
  6
CONTINUOUS
 66
     1
 70
     0
 40
0.0
 41
0.0
  0
VERTEX
  8
4
 10
114.2866821289063
 20
150.1658477783203
  0
VERTEX
  8
4
 10
113.9616851806641
 20
150.8158416748047
  0
SEQEND
  8
4
  0
ENDBLK
  8
4
  0
BLOCK
  8
4
  2
COMP56
 70
    64
 10
0.0
 20
0.0
  0
POLYLINE
  8
4
  6
CONTINUOUS
 66
     1
 70
     0
 40
0.0
 41
0.0
  0
VERTEX
  8
4
 10
112.3251113891602
 20
147.1198120117188
  0
VERTEX
  8
4
 10
112.3251113891602
 20
147.3166809082031
  0
VERTEX
  8
4
 10
112.5547943115234
 20
147.3166809082031
  0
VERTEX
  8
4
 10
112.5547943115234
 20
147.1198120117188
  0
VERTEX
  8
4
 10
112.3251113891602
 20
147.1198120117188
  0
SEQEND
  8
4
  0
ENDBLK
  8
4
  0
BLOCK
  8
4
  2
COMP57
 70
    64
 10
0.0
 20
0.0
  0
POLYLINE
  8
4
  6
CONTINUOUS
 66
     1
 70
     0
 40
0.0
 41
0.0
  0
VERTEX
  8
4
 10
119.0791168212891
 20
149.5992431640625
  0
VERTEX
  8
4
 10
117.979118347168
 20
149.5992431640625
  0
VERTEX
  8
4
 10
117.979118347168
 20
147.3992462158203
  0
VERTEX
  8
4
 10
119.0791168212891
 20
147.3992462158203
  0
SEQEND
  8
4
  0
POLYLINE
  8
4
  6
CONTINUOUS
 66
     1
 70
     0
 40
0.0
 41
0.0
  0
VERTEX
  8
4
 10
117.979118347168
 20
148.4992523193359
  0
VERTEX
  8
4
 10
119.0791168212891
 20
148.4992523193359
  0
SEQEND
  8
4
  0
POLYLINE
  8
4
  6
CONTINUOUS
 66
     1
 70
     0
 40
0.0
 41
0.0
  0
VERTEX
  8
4
 10
119.4228668212891
 20
147.3992462158203
  0
VERTEX
  8
4
 10
119.4228668212891
 20
149.5992431640625
  0
VERTEX
  8
4
 10
120.5228652954102
 20
147.3992462158203
  0
VERTEX
  8
4
 10
120.5228652954102
 20
149.5992431640625
  0
SEQEND
  8
4
  0
POLYLINE
  8
4
  6
CONTINUOUS
 66
     1
 70
     0
 40
0.0
 41
0.0
  0
VERTEX
  8
4
 10
120.8666152954102
 20
149.5992431640625
  0
VERTEX
  8
4
 10
121.9666213989258
 20
149.5992431640625
  0
SEQEND
  8
4
  0
POLYLINE
  8
4
  6
CONTINUOUS
 66
     1
 70
     0
 40
0.0
 41
0.0
  0
VERTEX
  8
4
 10
121.416618347168
 20
149.5992431640625
  0
VERTEX
  8
4
 10
121.416618347168
 20
147.3992462158203
  0
SEQEND
  8
4
  0
POLYLINE
  8
4
  6
CONTINUOUS
 66
     1
 70
     0
 40
0.0
 41
0.0
  0
VERTEX
  8
4
 10
122.7228698730469
 20
147.4680023193359
  0
VERTEX
  8
4
 10
122.7228698730469
 20
147.6742401123047
  0
VERTEX
  8
4
 10
122.963493347168
 20
147.6742401123047
  0
VERTEX
  8
4
 10
122.963493347168
 20
147.4680023193359
  0
VERTEX
  8
4
 10
122.7228698730469
 20
147.4680023193359
  0
SEQEND
  8
4
  0
ENDBLK
  8
4
  0
BLOCK
  8
4
  2
COMP58
 70
    64
 10
0.0
 20
0.0
  0
POLYLINE
  8
4
  6
CONTINUOUS
 66
     1
 70
     0
 40
0.0
 41
0.0
  0
VERTEX
  8
4
 10
118.3930206298828
 20
151.2584075927734
 42
0.3601389310773037
  0
VERTEX
  8
4
 10
118.0680160522461
 20
151.5021667480469
 42
0.3984601188067009
  0
VERTEX
  8
4
 10
117.7430191040039
 20
151.2177886962891
 42
0.4141829885072073
  0
VERTEX
  8
4
 10
118.0680160522461
 20
150.8521575927734
 42
-0.3750075192759142
  0
VERTEX
  8
4
 10
118.3930206298828
 20
150.5271606445313
 42
-0.4832208332150839
  0
VERTEX
  8
4
 10
118.0883331298828
 20
150.2021636962891
 42
-0.3193778395487146
  0
VERTEX
  8
4
 10
117.7430191040039
 20
150.4459075927734
  0
SEQEND
  8
4
  0
POLYLINE
  8
4
  6
CONTINUOUS
 66
     1
 70
     0
 40
0.0
 41
0.0
  0
VERTEX
  8
4
 10
118.5961456298828
 20
151.5021667480469
  0
VERTEX
  8
4
 10
119.2461471557617
 20
151.5021667480469
  0
SEQEND
  8
4
  0
POLYLINE
  8
4
  6
CONTINUOUS
 66
     1
 70
     0
 40
0.0
 41
0.0
  0
VERTEX
  8
4
 10
118.921142578125
 20
151.5021667480469
  0
VERTEX
  8
4
 10
118.921142578125
 20
150.2021636962891
  0
SEQEND
  8
4
  0
POLYLINE
  8
4
  6
CONTINUOUS
 66
     1
 70
     0
 40
0.0
 41
0.0
  0
VERTEX
  8
4
 10
119.4492721557617
 20
150.2021636962891
  0
VERTEX
  8
4
 10
119.7742691040039
 20
151.5021667480469
  0
VERTEX
  8
4
 10
120.0992660522461
 20
150.2021636962891
  0
SEQEND
  8
4
  0
POLYLINE
  8
4
  6
CONTINUOUS
 66
     1
 70
     0
 40
0.0
 41
0.0
  0
VERTEX
  8
4
 10
119.9977035522461
 20
150.6084136962891
  0
VERTEX
  8
4
 10
119.5508346557617
 20
150.6084136962891
  0
SEQEND
  8
4
  0
POLYLINE
  8
4
  6
CONTINUOUS
 66
     1
 70
     0
 40
0.0
 41
0.0
  0
VERTEX
  8
4
 10
120.3023910522461
 20
151.5021667480469
  0
VERTEX
  8
4
 10
120.952392578125
 20
151.5021667480469
  0
SEQEND
  8
4
  0
POLYLINE
  8
4
  6
CONTINUOUS
 66
     1
 70
     0
 40
0.0
 41
0.0
  0
VERTEX
  8
4
 10
120.6273956298828
 20
151.5021667480469
  0
VERTEX
  8
4
 10
120.6273956298828
 20
150.2021636962891
  0
SEQEND
  8
4
  0
POLYLINE
  8
4
  6
CONTINUOUS
 66
     1
 70
     0
 40
0.0
 41
0.0
  0
VERTEX
  8
4
 10
121.155517578125
 20
151.5021667480469
  0
VERTEX
  8
4
 10
121.155517578125
 20
150.4459075927734
 42
0.7499706565881829
  0
VERTEX
  8
4
 10
121.8055191040039
 20
150.4459075927734
  0
VERTEX
  8
4
 10
121.8055191040039
 20
151.5021667480469
  0
SEQEND
  8
4
  0
POLYLINE
  8
4
  6
CONTINUOUS
 66
     1
 70
     0
 40
0.0
 41
0.0
  0
VERTEX
  8
4
 10
122.6586456298828
 20
151.2584075927734
 42
0.3601389310773037
  0
VERTEX
  8
4
 10
122.3336410522461
 20
151.5021667480469
 42
0.3984601188067009
  0
VERTEX
  8
4
 10
122.0086441040039
 20
151.2177886962891
 42
0.4141829885072073
  0
VERTEX
  8
4
 10
122.3336410522461
 20
150.8521575927734
 42
-0.3750075192759142
  0
VERTEX
  8
4
 10
122.6586456298828
 20
150.5271606445313
 42
-0.4832208332150839
  0
VERTEX
  8
4
 10
122.3539581298828
 20
150.2021636962891
 42
-0.3193778395487146
  0
VERTEX
  8
4
 10
122.0086441040039
 20
150.4459075927734
  0
SEQEND
  8
4
  0
ENDBLK
  8
4
  0
BLOCK
  8
4
  2
COMP59
 70
    64
 10
0.0
 20
0.0
  0
POLYLINE
  8
4
  6
CONTINUOUS
 66
     1
 70
     0
 40
0.0
 41
0.0
  0
VERTEX
  8
4
 10
124.8357543945313
 20
156.6092224121094
  0
VERTEX
  8
4
 10
125.3701324462891
 20
156.6092224121094
 42
0.750016954899966
  0
VERTEX
  8
4
 10
125.3701324462891
 20
157.0592193603516
  0
VERTEX
  8
4
 10
124.8357543945313
 20
157.0592193603516
 42
0.8749830462498304
  0
VERTEX
  8
4
 10
124.8357543945313
 20
156.6092224121094
  0
SEQEND
  8
4
  0
POLYLINE
  8
4
  6
CONTINUOUS
 66
     1
 70
     0
 40
0.0
 41
0.0
  0
VERTEX
  8
4
 10
124.6388778686523
 20
157.6498413085938
  0
VERTEX
  8
4
 10
124.6388778686523
 20
157.1998443603516
  0
VERTEX
  8
4
 10
125.5388793945313
 20
157.1998443603516
  0
SEQEND
  8
4
  0
POLYLINE
  8
4
  6
CONTINUOUS
 66
     1
 70
     0
 40
0.0
 41
0.0
  0
VERTEX
  8
4
 10
125.0888824462891
 20
157.1998443603516
  0
VERTEX
  8
4
 10
125.0888824462891
 20
157.5935974121094
  0
SEQEND
  8
4
  0
POLYLINE
  8
4
  6
CONTINUOUS
 66
     1
 70
     0
 40
0.0
 41
0.0
  0
VERTEX
  8
4
 10
124.6388778686523
 20
158.240478515625
  0
VERTEX
  8
4
 10
124.6388778686523
 20
157.7904663085938
  0
VERTEX
  8
4
 10
125.5388793945313
 20
157.7904663085938
  0
SEQEND
  8
4
  0
POLYLINE
  8
4
  6
CONTINUOUS
 66
     1
 70
     0
 40
0.0
 41
0.0
  0
VERTEX
  8
4
 10
125.0888824462891
 20
157.7904663085938
  0
VERTEX
  8
4
 10
125.0888824462891
 20
158.1842193603516
  0
SEQEND
  8
4
  0
ENDBLK
  8
4
  0
BLOCK
  8
4
  2
COMP60
 70
    64
 10
0.0
 20
0.0
  0
POLYLINE
  8
4
  6
CONTINUOUS
 66
     1
 70
     0
 40
0.0
 41
0.0
  0
VERTEX
  8
4
 10
125.512939453125
 20
150.0202026367188
  0
VERTEX
  8
4
 10
125.512939453125
 20
150.2733306884766
 42
0.8749788070936896
  0
VERTEX
  8
4
 10
125.0629425048828
 20
150.2733306884766
 42
0.8749788070936896
  0
VERTEX
  8
4
 10
124.6129379272461
 20
150.2733306884766
  0
VERTEX
  8
4
 10
124.6129379272461
 20
150.0202026367188
  0
VERTEX
  8
4
 10
125.512939453125
 20
150.0202026367188
  0
SEQEND
  8
4
  0
POLYLINE
  8
4
  6
CONTINUOUS
 66
     1
 70
     0
 40
0.0
 41
0.0
  0
VERTEX
  8
4
 10
125.0629425048828
 20
150.0202026367188
  0
VERTEX
  8
4
 10
125.0629425048828
 20
150.2733306884766
  0
SEQEND
  8
4
  0
POLYLINE
  8
4
  6
CONTINUOUS
 66
     1
 70
     0
 40
0.0
 41
0.0
  0
VERTEX
  8
4
 10
125.512939453125
 20
150.6108245849609
  0
VERTEX
  8
4
 10
124.6129379272461
 20
150.8358306884766
  0
VERTEX
  8
4
 10
125.512939453125
 20
151.0608215332031
  0
SEQEND
  8
4
  0
POLYLINE
  8
4
  6
CONTINUOUS
 66
     1
 70
     0
 40
0.0
 41
0.0
  0
VERTEX
  8
4
 10
125.231689453125
 20
150.9905090332031
  0
VERTEX
  8
4
 10
125.231689453125
 20
150.6811370849609
  0
SEQEND
  8
4
  0
POLYLINE
  8
4
  6
CONTINUOUS
 66
     1
 70
     0
 40
0.0
 41
0.0
  0
VERTEX
  8
4
 10
124.6129379272461
 20
151.2014465332031
  0
VERTEX
  8
4
 10
124.6129379272461
 20
151.6514587402344
  0
SEQEND
  8
4
  0
POLYLINE
  8
4
  6
CONTINUOUS
 66
     1
 70
     0
 40
0.0
 41
0.0
  0
VERTEX
  8
4
 10
124.6129379272461
 20
151.4264526367188
  0
VERTEX
  8
4
 10
125.512939453125
 20
151.4264526367188
  0
SEQEND
  8
4
  0
POLYLINE
  8
4
  6
CONTINUOUS
 66
     1
 70
     0
 40
0.0
 41
0.0
  0
VERTEX
  8
4
 10
124.6129379272461
 20
151.7920837402344
  0
VERTEX
  8
4
 10
124.6129379272461
 20
152.2420806884766
  0
SEQEND
  8
4
  0
POLYLINE
  8
4
  6
CONTINUOUS
 66
     1
 70
     0
 40
0.0
 41
0.0
  0
VERTEX
  8
4
 10
124.6129379272461
 20
152.0170745849609
  0
VERTEX
  8
4
 10
125.512939453125
 20
152.0170745849609
  0
SEQEND
  8
4
  0
POLYLINE
  8
4
  6
CONTINUOUS
 66
     1
 70
     0
 40
0.0
 41
0.0
  0
VERTEX
  8
4
 10
124.6129379272461
 20
152.8327026367188
  0
VERTEX
  8
4
 10
124.6129379272461
 20
152.3827056884766
  0
VERTEX
  8
4
 10
125.512939453125
 20
152.3827056884766
  0
VERTEX
  8
4
 10
125.512939453125
 20
152.8327026367188
  0
SEQEND
  8
4
  0
POLYLINE
  8
4
  6
CONTINUOUS
 66
     1
 70
     0
 40
0.0
 41
0.0
  0
VERTEX
  8
4
 10
125.0629425048828
 20
152.3827056884766
  0
VERTEX
  8
4
 10
125.0629425048828
 20
152.8327026367188
  0
SEQEND
  8
4
  0
POLYLINE
  8
4
  6
CONTINUOUS
 66
     1
 70
     0
 40
0.0
 41
0.0
  0
VERTEX
  8
4
 10
125.0629425048828
 20
152.9733276367188
  0
VERTEX
  8
4
 10
125.0629425048828
 20
153.1983337402344
 42
0.9999660913499032
  0
VERTEX
  8
4
 10
124.6129379272461
 20
153.1983337402344
  0
VERTEX
  8
4
 10
124.6129379272461
 20
152.9733276367188
  0
VERTEX
  8
4
 10
125.512939453125
 20
152.9733276367188
  0
SEQEND
  8
4
  0
POLYLINE
  8
4
  6
CONTINUOUS
 66
     1
 70
     0
 40
0.0
 41
0.0
  0
VERTEX
  8
4
 10
125.512939453125
 20
153.4233245849609
  0
VERTEX
  8
4
 10
125.0629425048828
 20
153.1983337402344
  0
SEQEND
  8
4
  0
POLYLINE
  8
4
  6
CONTINUOUS
 66
     1
 70
     0
 40
0.0
 41
0.0
  0
VERTEX
  8
4
 10
124.6129379272461
 20
153.5639495849609
  0
VERTEX
  8
4
 10
125.0629425048828
 20
153.7889556884766
  0
VERTEX
  8
4
 10
125.512939453125
 20
153.7889556884766
  0
SEQEND
  8
4
  0
POLYLINE
  8
4
  6
CONTINUOUS
 66
     1
 70
     0
 40
0.0
 41
0.0
  0
VERTEX
  8
4
 10
125.0629425048828
 20
153.7889556884766
  0
VERTEX
  8
4
 10
124.6129379272461
 20
154.0139465332031
  0
SEQEND
  8
4
  0
ENDBLK
  8
4
  0
BLOCK
  8
4
  2
COMP61
 70
    64
 10
0.0
 20
0.0
  0
POLYLINE
  8
4
  6
CONTINUOUS
 66
     1
 70
     0
 40
0.0
 41
0.0
  0
VERTEX
  8
4
 10
125.9490356445313
 20
150.4961547851563
 42
0.3601535293389456
  0
VERTEX
  8
4
 10
125.7802810668945
 20
150.2711639404297
 42
0.3984977650477576
  0
VERTEX
  8
4
 10
125.9771575927734
 20
150.0461578369141
 42
0.4142268646285921
  0
VERTEX
  8
4
 10
126.2302856445313
 20
150.2711639404297
 42
-0.3749764227407033
  0
VERTEX
  8
4
 10
126.4552841186523
 20
150.4961547851563
 42
-0.4832573477455615
  0
VERTEX
  8
4
 10
126.6802825927734
 20
150.2852172851563
 42
-0.3193443273775639
  0
VERTEX
  8
4
 10
126.5115356445313
 20
150.0461578369141
  0
SEQEND
  8
4
  0
POLYLINE
  8
4
  6
CONTINUOUS
 66
     1
 70
     0
 40
0.0
 41
0.0
  0
VERTEX
  8
4
 10
125.7802810668945
 20
151.0867767333984
  0
VERTEX
  8
4
 10
126.6802825927734
 20
150.9742889404297
  0
VERTEX
  8
4
 10
125.8084106445313
 20
150.8617858886719
  0
VERTEX
  8
4
 10
126.6802825927734
 20
150.7492828369141
  0
VERTEX
  8
4
 10
125.7802810668945
 20
150.6367797851563
  0
SEQEND
  8
4
  0
POLYLINE
  8
4
  6
CONTINUOUS
 66
     1
 70
     0
 40
0.0
 41
0.0
  0
VERTEX
  8
4
 10
125.7802810668945
 20
151.3680267333984
  0
VERTEX
  8
4
 10
125.7802810668945
 20
151.5367889404297
  0
SEQEND
  8
4
  0
POLYLINE
  8
4
  6
CONTINUOUS
 66
     1
 70
     0
 40
0.0
 41
0.0
  0
VERTEX
  8
4
 10
126.6802825927734
 20
151.3680267333984
  0
VERTEX
  8
4
 10
126.6802825927734
 20
151.5367889404297
  0
SEQEND
  8
4
  0
POLYLINE
  8
4
  6
CONTINUOUS
 66
     1
 70
     0
 40
0.0
 41
0.0
  0
VERTEX
  8
4
 10
126.6802825927734
 20
151.4524078369141
  0
VERTEX
  8
4
 10
125.7802810668945
 20
151.4524078369141
  0
SEQEND
  8
4
  0
POLYLINE
  8
4
  6
CONTINUOUS
 66
     1
 70
     0
 40
0.0
 41
0.0
  0
VERTEX
  8
4
 10
125.7802810668945
 20
151.8180389404297
  0
VERTEX
  8
4
 10
125.7802810668945
 20
152.2680358886719
  0
SEQEND
  8
4
  0
POLYLINE
  8
4
  6
CONTINUOUS
 66
     1
 70
     0
 40
0.0
 41
0.0
  0
VERTEX
  8
4
 10
125.7802810668945
 20
152.0430297851563
  0
VERTEX
  8
4
 10
126.6802825927734
 20
152.0430297851563
  0
SEQEND
  8
4
  0
POLYLINE
  8
4
  6
CONTINUOUS
 66
     1
 70
     0
 40
0.0
 41
0.0
  0
VERTEX
  8
4
 10
125.9771575927734
 20
152.8586578369141
 42
0.8749830462498304
  0
VERTEX
  8
4
 10
125.9771575927734
 20
152.4086608886719
  0
VERTEX
  8
4
 10
126.5115356445313
 20
152.4086608886719
 42
0.750016954899966
  0
VERTEX
  8
4
 10
126.5115356445313
 20
152.8586578369141
  0
SEQEND
  8
4
  0
POLYLINE
  8
4
  6
CONTINUOUS
 66
     1
 70
     0
 40
0.0
 41
0.0
  0
VERTEX
  8
4
 10
125.7802810668945
 20
152.9992828369141
  0
VERTEX
  8
4
 10
126.6802825927734
 20
152.9992828369141
  0
SEQEND
  8
4
  0
POLYLINE
  8
4
  6
CONTINUOUS
 66
     1
 70
     0
 40
0.0
 41
0.0
  0
VERTEX
  8
4
 10
125.7802810668945
 20
153.4492797851563
  0
VERTEX
  8
4
 10
126.6802825927734
 20
153.4492797851563
  0
SEQEND
  8
4
  0
POLYLINE
  8
4
  6
CONTINUOUS
 66
     1
 70
     0
 40
0.0
 41
0.0
  0
VERTEX
  8
4
 10
126.2302856445313
 20
152.9992828369141
  0
VERTEX
  8
4
 10
126.2302856445313
 20
153.4492797851563
  0
SEQEND
  8
4
  0
ENDBLK
  8
4
  0
BLOCK
  8
4
  2
COMP62
 70
    64
 10
0.0
 20
0.0
  0
POLYLINE
  8
4
  6
CONTINUOUS
 66
     1
 70
     0
 40
0.0
 41
0.0
  0
VERTEX
  8
4
 10
124.7579345703125
 20
146.2847137451172
  0
VERTEX
  8
4
 10
125.2923126220703
 20
146.2847137451172
 42
0.7499660924996608
  0
VERTEX
  8
4
 10
125.2923126220703
 20
146.7347106933594
  0
VERTEX
  8
4
 10
124.7579345703125
 20
146.7347106933594
 42
0.8750423872499152
  0
VERTEX
  8
4
 10
124.7579345703125
 20
146.2847137451172
  0
SEQEND
  8
4
  0
POLYLINE
  8
4
  6
CONTINUOUS
 66
     1
 70
     0
 40
0.0
 41
0.0
  0
VERTEX
  8
4
 10
125.4610595703125
 20
146.8753356933594
  0
VERTEX
  8
4
 10
124.5610580444336
 20
146.8753356933594
  0
VERTEX
  8
4
 10
125.4610595703125
 20
147.3253326416016
  0
VERTEX
  8
4
 10
124.5610580444336
 20
147.3253326416016
  0
SEQEND
  8
4
  0
ENDBLK
  8
4
  0
BLOCK
  8
4
  2
COMP63
 70
    64
 10
0.0
 20
0.0
  0
POLYLINE
  8
4
  6
CONTINUOUS
 66
     1
 70
     0
 40
0.0
 41
0.0
  0
VERTEX
  8
4
 10
127.0537109375
 20
145.6581573486328
 42
0.8749830462498304
  0
VERTEX
  8
4
 10
127.0537109375
 20
145.2081604003906
  0
VERTEX
  8
4
 10
127.5880889892578
 20
145.2081604003906
 42
0.750016954899966
  0
VERTEX
  8
4
 10
127.5880889892578
 20
145.6581573486328
  0
SEQEND
  8
4
  0
POLYLINE
  8
4
  6
CONTINUOUS
 66
     1
 70
     0
 40
0.0
 41
0.0
  0
VERTEX
  8
4
 10
126.8568344116211
 20
145.7987823486328
  0
VERTEX
  8
4
 10
127.7568359375
 20
145.7987823486328
  0
SEQEND
  8
4
  0
POLYLINE
  8
4
  6
CONTINUOUS
 66
     1
 70
     0
 40
0.0
 41
0.0
  0
VERTEX
  8
4
 10
126.8568344116211
 20
146.248779296875
  0
VERTEX
  8
4
 10
127.7568359375
 20
146.248779296875
  0
SEQEND
  8
4
  0
POLYLINE
  8
4
  6
CONTINUOUS
 66
     1
 70
     0
 40
0.0
 41
0.0
  0
VERTEX
  8
4
 10
127.3068389892578
 20
145.7987823486328
  0
VERTEX
  8
4
 10
127.3068389892578
 20
146.248779296875
  0
SEQEND
  8
4
  0
POLYLINE
  8
4
  6
CONTINUOUS
 66
     1
 70
     0
 40
0.0
 41
0.0
  0
VERTEX
  8
4
 10
127.7568359375
 20
146.389404296875
  0
VERTEX
  8
4
 10
126.8568344116211
 20
146.6144104003906
  0
VERTEX
  8
4
 10
127.7568359375
 20
146.8394165039063
  0
SEQEND
  8
4
  0
POLYLINE
  8
4
  6
CONTINUOUS
 66
     1
 70
     0
 40
0.0
 41
0.0
  0
VERTEX
  8
4
 10
127.4755859375
 20
146.7691040039063
  0
VERTEX
  8
4
 10
127.4755859375
 20
146.459716796875
  0
SEQEND
  8
4
  0
POLYLINE
  8
4
  6
CONTINUOUS
 66
     1
 70
     0
 40
0.0
 41
0.0
  0
VERTEX
  8
4
 10
127.3068389892578
 20
146.9800415039063
  0
VERTEX
  8
4
 10
127.3068389892578
 20
147.2050323486328
 42
0.4142135623731321
  0
VERTEX
  8
4
 10
127.0818328857422
 20
147.4300384521484
 42
0.4142135623731321
  0
VERTEX
  8
4
 10
126.8568267822266
 20
147.2050323486328
  0
VERTEX
  8
4
 10
126.8568344116211
 20
146.9800415039063
  0
VERTEX
  8
4
 10
127.7568359375
 20
146.9800415039063
  0
SEQEND
  8
4
  0
POLYLINE
  8
4
  6
CONTINUOUS
 66
     1
 70
     0
 40
0.0
 41
0.0
  0
VERTEX
  8
4
 10
127.7568359375
 20
147.4300384521484
  0
VERTEX
  8
4
 10
127.3068389892578
 20
147.2050323486328
  0
SEQEND
  8
4
  0
POLYLINE
  8
4
  6
CONTINUOUS
 66
     1
 70
     0
 40
0.0
 41
0.0
  0
VERTEX
  8
4
 10
127.0537109375
 20
148.0206604003906
 42
0.8750423872499152
  0
VERTEX
  8
4
 10
127.0537109375
 20
147.5706634521484
  0
VERTEX
  8
4
 10
127.5880889892578
 20
147.5706634521484
 42
0.7499660924996608
  0
VERTEX
  8
4
 10
127.5880889892578
 20
148.0206604003906
  0
SEQEND
  8
4
  0
POLYLINE
  8
4
  6
CONTINUOUS
 66
     1
 70
     0
 40
0.0
 41
0.0
  0
VERTEX
  8
4
 10
127.7568359375
 20
148.0206604003906
  0
VERTEX
  8
4
 10
127.3208999633789
 20
148.0206604003906
  0
VERTEX
  8
4
 10
127.3208999633789
 20
147.795654296875
  0
SEQEND
  8
4
  0
POLYLINE
  8
4
  6
CONTINUOUS
 66
     1
 70
     0
 40
0.0
 41
0.0
  0
VERTEX
  8
4
 10
126.8568344116211
 20
148.6112823486328
  0
VERTEX
  8
4
 10
126.8568344116211
 20
148.1612854003906
  0
VERTEX
  8
4
 10
127.7568359375
 20
148.1612854003906
  0
VERTEX
  8
4
 10
127.7568359375
 20
148.6112823486328
  0
SEQEND
  8
4
  0
POLYLINE
  8
4
  6
CONTINUOUS
 66
     1
 70
     0
 40
0.0
 41
0.0
  0
VERTEX
  8
4
 10
127.3068389892578
 20
148.1612854003906
  0
VERTEX
  8
4
 10
127.3068389892578
 20
148.6112823486328
  0
SEQEND
  8
4
  0
ENDBLK
  8
4
  0
BLOCK
  8
4
  2
COMP64
 70
    64
 10
0.0
 20
0.0
  0
POLYLINE
  8
4
  6
CONTINUOUS
 66
     1
 70
     0
 40
0.0
 41
0.0
  0
VERTEX
  8
4
 10
42.55322647094727
 20
212.1801147460938
  0
VERTEX
  8
4
 10
43.15322494506836
 20
212.1801147460938
  0
SEQEND
  8
4
  0
POLYLINE
  8
4
  6
CONTINUOUS
 66
     1
 70
     0
 40
0.0
 41
0.0
  0
VERTEX
  8
4
 10
42.85322570800781
 20
212.1801147460938
  0
VERTEX
  8
4
 10
42.85322570800781
 20
210.9801177978516
  0
SEQEND
  8
4
  0
POLYLINE
  8
4
  6
CONTINUOUS
 66
     1
 70
     0
 40
0.0
 41
0.0
  0
VERTEX
  8
4
 10
43.94072723388672
 20
211.9551239013672
 42
0.3601554263872859
  0
VERTEX
  8
4
 10
43.64072799682617
 20
212.1801147460938
 42
0.3984872077885505
  0
VERTEX
  8
4
 10
43.34072494506836
 20
211.9176177978516
 42
0.4142331556672881
  0
VERTEX
  8
4
 10
43.64072799682617
 20
211.5801239013672
 42
-0.3749991058802913
  0
VERTEX
  8
4
 10
43.94072723388672
 20
211.2801208496094
 42
-0.4832372073926664
  0
VERTEX
  8
4
 10
43.65947723388672
 20
210.9801177978516
 42
-0.319407763080837
  0
VERTEX
  8
4
 10
43.34072494506836
 20
211.2051239013672
  0
SEQEND
  8
4
  0
POLYLINE
  8
4
  6
CONTINUOUS
 66
     1
 70
     0
 40
0.0
 41
0.0
  0
VERTEX
  8
4
 10
44.12822723388672
 20
210.9801177978516
  0
VERTEX
  8
4
 10
44.44697570800781
 20
210.9801177978516
 42
0.4666883680555556
  0
VERTEX
  8
4
 10
44.72822570800781
 20
211.2613677978516
  0
VERTEX
  8
4
 10
44.72822570800781
 20
211.8988647460938
 42
0.4666883680555556
  0
VERTEX
  8
4
 10
44.44697570800781
 20
212.1801147460938
  0
VERTEX
  8
4
 10
44.12822723388672
 20
212.1801147460938
  0
VERTEX
  8
4
 10
44.12822723388672
 20
210.9801177978516
  0
SEQEND
  8
4
  0
POLYLINE
  8
4
  6
CONTINUOUS
 66
     1
 70
     0
 40
0.0
 41
0.0
  0
VERTEX
  8
4
 10
45.47822570800781
 20
211.5801239013672
  0
VERTEX
  8
4
 10
44.95322799682617
 20
211.5801239013672
  0
SEQEND
  8
4
  0
POLYLINE
  8
4
  6
CONTINUOUS
 66
     1
 70
     0
 40
0.0
 41
0.0
  0
VERTEX
  8
4
 10
46.26572799682617
 20
212.1426239013672
  0
VERTEX
  8
4
 10
45.77822494506836
 20
212.1426239013672
  0
VERTEX
  8
4
 10
45.70322799682617
 20
211.6176147460938
  0
VERTEX
  8
4
 10
45.89072799682617
 20
211.6926116943359
  0
VERTEX
  8
4
 10
46.11572647094727
 20
211.6926116943359
  0
VERTEX
  8
4
 10
46.30322647094727
 20
211.5426177978516
  0
VERTEX
  8
4
 10
46.30322647094727
 20
211.1676177978516
  0
VERTEX
  8
4
 10
46.11572647094727
 20
210.9801177978516
  0
VERTEX
  8
4
 10
45.89072799682617
 20
210.9801177978516
  0
VERTEX
  8
4
 10
45.70322799682617
 20
211.1676177978516
  0
SEQEND
  8
4
  0
POLYLINE
  8
4
  6
CONTINUOUS
 66
     1
 70
     0
 40
0.0
 41
0.0
  0
VERTEX
  8
4
 10
46.90322494506836
 20
212.1801147460938
  0
VERTEX
  8
4
 10
46.67822647094727
 20
212.1801147460938
  0
VERTEX
  8
4
 10
46.49072647094727
 20
211.9926147460938
  0
VERTEX
  8
4
 10
46.49072647094727
 20
211.6551208496094
  0
VERTEX
  8
4
 10
46.67822647094727
 20
211.4676208496094
  0
VERTEX
  8
4
 10
46.90322494506836
 20
211.4676208496094
  0
VERTEX
  8
4
 10
47.01572799682617
 20
211.5051116943359
  0
VERTEX
  8
4
 10
47.09072494506836
 20
211.6551208496094
  0
VERTEX
  8
4
 10
47.09072494506836
 20
211.9926147460938
  0
VERTEX
  8
4
 10
46.90322494506836
 20
212.1801147460938
  0
SEQEND
  8
4
  0
POLYLINE
  8
4
  6
CONTINUOUS
 66
     1
 70
     0
 40
0.0
 41
0.0
  0
VERTEX
  8
4
 10
47.01572799682617
 20
211.5051116943359
  0
VERTEX
  8
4
 10
46.86572647094727
 20
211.1676177978516
  0
VERTEX
  8
4
 10
46.64072799682617
 20
210.9801177978516
  0
SEQEND
  8
4
  0
POLYLINE
  8
4
  6
CONTINUOUS
 66
     1
 70
     0
 40
0.0
 41
0.0
  0
VERTEX
  8
4
 10
47.57822799682617
 20
210.9801177978516
  0
VERTEX
  8
4
 10
47.57822799682617
 20
212.1801147460938
  0
VERTEX
  8
4
 10
47.37197494506836
 20
211.8238677978516
  0
SEQEND
  8
4
  0
ENDBLK
  8
4
  0
BLOCK
  8
4
  2
COMP65
 70
    64
 10
0.0
 20
0.0
  0
POLYLINE
  8
4
  6
CONTINUOUS
 66
     1
 70
     0
 40
0.0
 41
0.0
  0
VERTEX
  8
4
 10
73.15853118896484
 20
188.271728515625
  0
VERTEX
  8
4
 10
71.71478271484375
 20
188.271728515625
  0
SEQEND
  8
4
  0
POLYLINE
  8
4
  6
CONTINUOUS
 66
     1
 70
     0
 40
0.0
 41
0.0
  0
VERTEX
  8
4
 10
74.60227966308594
 20
186.6217346191406
  0
VERTEX
  8
4
 10
74.60227966308594
 20
189.9217376708984
  0
VERTEX
  8
4
 10
74.03509521484375
 20
188.9420471191406
  0
SEQEND
  8
4
  0
POLYLINE
  8
4
  6
CONTINUOUS
 66
     1
 70
     0
 40
0.0
 41
0.0
  0
VERTEX
  8
4
 10
77.48978424072266
 20
189.818603515625
  0
VERTEX
  8
4
 10
76.14915466308594
 20
189.818603515625
  0
VERTEX
  8
4
 10
75.94290924072266
 20
188.3748626708984
  0
VERTEX
  8
4
 10
76.45853424072266
 20
188.5811157226563
  0
VERTEX
  8
4
 10
77.07727813720703
 20
188.5811157226563
  0
VERTEX
  8
4
 10
77.59290313720703
 20
188.1686096191406
  0
VERTEX
  8
4
 10
77.59290313720703
 20
187.1373596191406
  0
VERTEX
  8
4
 10
77.07727813720703
 20
186.6217346191406
  0
VERTEX
  8
4
 10
76.45853424072266
 20
186.6217346191406
  0
VERTEX
  8
4
 10
75.94290924072266
 20
187.1373596191406
  0
SEQEND
  8
4
  0
POLYLINE
  8
4
  6
CONTINUOUS
 66
     1
 70
     0
 40
0.0
 41
0.0
  0
VERTEX
  8
4
 10
78.21165466308594
 20
189.302978515625
  0
VERTEX
  8
4
 10
78.21165466308594
 20
187.240478515625
 42
0.9230699188472441
  0
VERTEX
  8
4
 10
79.55228424072266
 20
187.240478515625
  0
VERTEX
  8
4
 10
79.55228424072266
 20
189.302978515625
 42
0.9230821761893923
  0
VERTEX
  8
4
 10
78.21165466308594
 20
189.302978515625
  0
SEQEND
  8
4
  0
POLYLINE
  8
4
  6
CONTINUOUS
 66
     1
 70
     0
 40
0.0
 41
0.0
  0
VERTEX
  8
4
 10
80.37728118896484
 20
189.302978515625
  0
VERTEX
  8
4
 10
80.37728118896484
 20
187.240478515625
 42
0.9230699188472441
  0
VERTEX
  8
4
 10
81.71790313720703
 20
187.240478515625
  0
VERTEX
  8
4
 10
81.71790313720703
 20
189.302978515625
 42
0.923092682593701
  0
VERTEX
  8
4
 10
80.37728118896484
 20
189.302978515625
  0
SEQEND
  8
4
  0
POLYLINE
  8
4
  6
CONTINUOUS
 66
     1
 70
     0
 40
0.0
 41
0.0
  0
VERTEX
  8
4
 10
82.54290771484375
 20
189.302978515625
  0
VERTEX
  8
4
 10
82.54290771484375
 20
187.240478515625
 42
0.9230699188472441
  0
VERTEX
  8
4
 10
83.88352966308594
 20
187.240478515625
  0
VERTEX
  8
4
 10
83.88352966308594
 20
189.302978515625
 42
0.923092682593701
  0
VERTEX
  8
4
 10
82.54290771484375
 20
189.302978515625
  0
SEQEND
  8
4
  0
ENDBLK
  8
4
  0
ENDSEC
  0
SECTION
  2
ENTITIES
  0
LINE
  8
1
  6
CONTINUOUS
 10
24.176503583
 20
145.8317172703
 11
24.676500871
 21
145.8317172703
  0
LINE
  8
1
  6
CONTINUOUS
 10
24.676500871
 20
148.3317186114
 11
24.176503583
 21
148.3317186114
  0
LINE
  8
1
  6
CONTINUOUS
 10
19.1765009008
 20
145.8317172703
 11
22.1765032552
 21
145.8317172703
  0
LINE
  8
1
  6
CONTINUOUS
 10
22.1765032552
 20
148.3317186114
 11
19.1765009008
 21
148.3317186114
  0
LINE
  8
1
  6
CONTINUOUS
 10
22.1765032552
 20
146.081717777
 11
24.176503583
 21
146.081717777
  0
LINE
  8
1
  6
CONTINUOUS
 10
24.176503583
 20
148.0817181048
 11
22.1765032552
 21
148.0817181048
  0
LINE
  8
1
  6
CONTINUOUS
 10
23.6765025697
 20
180.1567172854
 11
19.4265014074
 21
180.1567172854
  0
LINE
  8
1
  6
CONTINUOUS
 10
19.4265014074
 20
174.0067173717
 11
23.6765025697
 21
174.0067173717
  0
LINE
  8
1
  6
CONTINUOUS
 10
23.6765025697
 20
195.1567168337
 11
19.4265014074
 21
195.1567168337
  0
LINE
  8
1
  6
CONTINUOUS
 10
19.4265014074
 20
189.0067175021
 11
23.6765025697
 21
189.0067175021
  0
LINE
  8
1
  6
CONTINUOUS
 10
23.6765025697
 20
165.156716573
 11
19.4265014074
 21
165.156716573
  0
LINE
  8
1
  6
CONTINUOUS
 10
19.4265014074
 20
159.0067167756
 11
23.6765025697
 21
159.0067167756
  0
LINE
  8
1
  6
CONTINUOUS
 10
23.6765025697
 20
210.1567164985
 11
19.4265014074
 21
210.1567164985
  0
LINE
  8
1
  6
CONTINUOUS
 10
19.4265014074
 20
204.0067167011
 11
23.6765025697
 21
204.0067167011
  0
LINE
  8
1
  6
CONTINUOUS
 10
119.0640023492
 20
220.1817166981
 11
119.0640023492
 21
219.5817177174
  0
LINE
  8
1
  6
CONTINUOUS
 10
125.2890034161
 20
219.5817177174
 11
125.2890034161
 21
220.1817166981
  0
LINE
  8
1
  6
CONTINUOUS
 10
120.1765044175
 20
225.5817187009
 11
120.1765044175
 21
220.1817166981
  0
LINE
  8
1
  6
CONTINUOUS
 10
124.1765013478
 20
220.1817166981
 11
124.1765013478
 21
225.5817187009
  0
LINE
  8
1
  6
CONTINUOUS
 10
81.56400272170001
 20
220.1817166981
 11
81.56400272170001
 21
219.5817177174
  0
LINE
  8
1
  6
CONTINUOUS
 10
87.78900285730001
 20
219.5817177174
 11
87.78900285730001
 21
220.1817166981
  0
LINE
  8
1
  6
CONTINUOUS
 10
82.67650292730001
 20
225.5817187009
 11
82.67650292730001
 21
220.1817166981
  0
LINE
  8
1
  6
CONTINUOUS
 10
86.67650265170001
 20
220.1817166981
 11
86.67650265170001
 21
225.5817187009
  0
LINE
  8
1
  6
CONTINUOUS
 10
69.06400253540001
 20
220.1817166981
 11
69.06400253540001
 21
219.5817177174
  0
LINE
  8
1
  6
CONTINUOUS
 10
75.2890026128
 20
219.5817177174
 11
75.2890026128
 21
220.1817166981
  0
LINE
  8
1
  6
CONTINUOUS
 10
70.17650274110001
 20
225.5817187009
 11
70.17650274110001
 21
220.1817166981
  0
LINE
  8
1
  6
CONTINUOUS
 10
74.1765026109
 20
220.1817166981
 11
74.1765026109
 21
225.5817187009
  0
LINE
  8
1
  6
CONTINUOUS
 10
94.0640019767
 20
220.1817166981
 11
94.0640019767
 21
219.5817177174
  0
LINE
  8
1
  6
CONTINUOUS
 10
100.2890030436
 20
219.5817177174
 11
100.2890030436
 21
220.1817166981
  0
LINE
  8
1
  6
CONTINUOUS
 10
95.1765021823
 20
225.5817187009
 11
95.1765021823
 21
220.1817166981
  0
LINE
  8
1
  6
CONTINUOUS
 10
99.1765028379
 20
220.1817166981
 11
99.1765028379
 21
225.5817187009
  0
LINE
  8
1
  6
CONTINUOUS
 10
106.5640030942
 20
220.1817166981
 11
106.5640030942
 21
219.5817177174
  0
LINE
  8
1
  6
CONTINUOUS
 10
112.7890041612
 20
219.5817177174
 11
112.7890041612
 21
220.1817166981
  0
LINE
  8
1
  6
CONTINUOUS
 10
107.6765014372
 20
225.5817187009
 11
107.6765014372
 21
220.1817166981
  0
LINE
  8
1
  6
CONTINUOUS
 10
111.6765020929
 20
220.1817166981
 11
111.6765020929
 21
225.5817187009
  0
LINE
  8
1
  6
CONTINUOUS
 10
23.5015033327
 20
199.0817171511
 11
23.8515018068
 21
199.0817171511
  0
LINE
  8
1
  6
CONTINUOUS
 10
23.8515018068
 20
202.0817176429
 11
23.5015033327
 21
202.0817176429
  0
ARC
  8
1
  6
CONTINUOUS
 10
23.05694254700002
 20
201.4567172775
 40
0.5
 50
90.0
 51
163.0422367000016
  0
ARC
  8
1
  6
CONTINUOUS
 10
23.05694254700002
 20
199.7067172775
 40
0.5000000000000178
 50
196.9577632999979
 51
270.0
  0
LINE
  8
1
  6
CONTINUOUS
 10
23.0569420896
 20
199.2067174045
 11
23.5015033327
 21
199.2067174045
  0
LINE
  8
1
  6
CONTINUOUS
 10
23.5015033327
 20
201.9567173896
 11
23.0569420896
 21
201.9567173896
  0
ARC
  8
1
  6
CONTINUOUS
 10
25.92650261779999
 20
200.5817172775
 40
3.5
 50
163.0422367000001
 51
196.9577632999999
  0
LINE
  8
1
  6
CONTINUOUS
 10
24.2515011273
 20
199.8317168084
 11
24.2765015505
 21
199.8317168084
  0
LINE
  8
1
  6
CONTINUOUS
 10
24.2765015505
 20
201.3317179856
 11
24.2515011273
 21
201.3317179856
  0
LINE
  8
1
  6
CONTINUOUS
 10
135.0265024744
 20
167.0817174939
 11
134.6765040002
 21
167.0817174939
  0
LINE
  8
1
  6
CONTINUOUS
 10
134.6765040002
 20
164.0817170021
 11
135.0265024744
 21
164.0817170021
  0
ARC
  8
1
  6
CONTINUOUS
 10
135.4710626886
 20
164.7067172775001
 40
0.5000000000000284
 50
270.0
 51
343.0422366999997
  0
ARC
  8
1
  6
CONTINUOUS
 10
135.4710626886
 20
166.4567172775001
 40
0.4999999999999721
 50
16.95776329999604
 51
90.0
  0
LINE
  8
1
  6
CONTINUOUS
 10
135.4710637174
 20
166.9567172405
 11
135.0265024744
 21
166.9567172405
  0
LINE
  8
1
  6
CONTINUOUS
 10
135.0265024744
 20
164.2067172554
 11
135.4710637174
 21
164.2067172554
  0
ARC
  8
1
  6
CONTINUOUS
 10
132.6015026178001
 20
165.5817172775
 40
3.499999999999915
 50
343.0422366999997
 51
16.95776330000036
  0
LINE
  8
1
  6
CONTINUOUS
 10
135.8515015386
 20
206.0817164359
 11
135.5015030644
 21
206.0817164359
  0
LINE
  8
1
  6
CONTINUOUS
 10
135.5015030644
 20
203.0817178068
 11
135.8515015386
 21
203.0817178068
  0
ARC
  8
1
  6
CONTINUOUS
 10
136.2960626886
 20
203.7067172775001
 40
0.5000000000001421
 50
270.0
 51
343.0422366999891
  0
ARC
  8
1
  6
CONTINUOUS
 10
136.2960626886
 20
205.4567172775
 40
0.5000000000000513
 50
16.95776330000349
 51
90.0
  0
LINE
  8
1
  6
CONTINUOUS
 10
136.2960627816
 20
205.9567180452
 11
135.8515015386
 21
205.9567180452
  0
LINE
  8
1
  6
CONTINUOUS
 10
135.8515015386
 20
203.2067180601
 11
136.2960627816
 21
203.2067180601
  0
ARC
  8
1
  6
CONTINUOUS
 10
133.4265026178001
 20
204.5817172775
 40
3.499999999999915
 50
343.0422366999997
 51
16.95776330000036
  0
LINE
  8
1
  6
CONTINUOUS
 10
135.1015037439
 20
205.3317167786
 11
135.0765033207
 21
205.3317167786
  0
LINE
  8
1
  6
CONTINUOUS
 10
135.0765033207
 20
203.8317174641
 11
135.1015037439
 21
203.8317174641
  0
LINE
  8
1
  6
CONTINUOUS
 10
135.0265024744
 20
214.5817187605
 11
134.6765040002
 21
214.5817187605
  0
LINE
  8
1
  6
CONTINUOUS
 10
134.6765040002
 20
211.5817164061
 11
135.0265024744
 21
211.5817164061
  0
LINE
  8
1
  6
CONTINUOUS
 10
135.4406131945
 20
214.4567166445
 11
135.0265024744
 21
214.4567166445
  0
LINE
  8
1
  6
CONTINUOUS
 10
135.0265024744
 20
211.7067166594
 11
135.4710637174
 21
211.7067166594
  0
ARC
  8
1
  6
CONTINUOUS
 10
135.4710626886002
 20
212.2067172774974
 40
0.4999999999973852
 50
270.0
 51
280.0069881925262
  0
LINE
  8
1
  6
CONTINUOUS
 10
23.5015033327
 20
203.0817178068
 11
23.6765025697
 21
203.0817178068
  0
ARC
  8
1
  6
CONTINUOUS
 10
23.05694254700002
 20
203.7067172775
 40
0.5000000000000178
 50
196.9577632999979
 51
270.0
  0
LINE
  8
1
  6
CONTINUOUS
 10
23.0569420896
 20
203.2067180601
 11
23.5015033327
 21
203.2067180601
  0
ARC
  8
1
  6
CONTINUOUS
 10
25.92650261779982
 20
204.5817172775
 40
3.499999999999819
 50
189.4557426826003
 51
196.9577633000004
  0
LINE
  8
1
  6
CONTINUOUS
 10
24.3265023969
 20
154.0817172256
 11
24.676500871
 21
154.0817172256
  0
LINE
  8
1
  6
CONTINUOUS
 10
24.676500871
 20
157.0817177174
 11
24.3265023969
 21
157.0817177174
  0
ARC
  8
1
  6
CONTINUOUS
 10
23.88194254700002
 20
156.4567172775
 40
0.5
 50
90.0
 51
163.0422367000016
  0
ARC
  8
1
  6
CONTINUOUS
 10
23.88194254700002
 20
154.7067172775
 40
0.5000000000000143
 50
196.957763299998
 51
270.0
  0
LINE
  8
1
  6
CONTINUOUS
 10
23.8819411538
 20
154.206717479
 11
24.3265023969
 21
154.206717479
  0
LINE
  8
1
  6
CONTINUOUS
 10
24.3265023969
 20
156.9567174641
 11
23.8819411538
 21
156.9567174641
  0
ARC
  8
1
  6
CONTINUOUS
 10
26.75150261779999
 20
155.5817172775
 40
3.499999999999996
 50
163.0422367000001
 51
196.9577633
  0
LINE
  8
1
  6
CONTINUOUS
 10
135.8515015386
 20
202.0817176429
 11
135.5015030644
 21
202.0817176429
  0
LINE
  8
1
  6
CONTINUOUS
 10
135.5015030644
 20
199.0817171511
 11
135.8515015386
 21
199.0817171511
  0
ARC
  8
1
  6
CONTINUOUS
 10
136.2960626886
 20
199.7067172775001
 40
0.5000000000000568
 50
270.0
 51
343.0422366999965
  0
ARC
  8
1
  6
CONTINUOUS
 10
136.2960626886
 20
201.4567172775
 40
0.5000000000000431
 50
16.95776330000037
 51
90.0
  0
LINE
  8
1
  6
CONTINUOUS
 10
136.2960627816
 20
201.9567173896
 11
135.8515015386
 21
201.9567173896
  0
LINE
  8
1
  6
CONTINUOUS
 10
135.8515015386
 20
199.2067174045
 11
136.2960627816
 21
199.2067174045
  0
ARC
  8
1
  6
CONTINUOUS
 10
133.4265026178001
 20
200.5817172775
 40
3.499999999999915
 50
343.0422366999997
 51
16.95776330000036
  0
LINE
  8
1
  6
CONTINUOUS
 10
135.1015037439
 20
201.3317179856
 11
135.0765033207
 21
201.3317179856
  0
LINE
  8
1
  6
CONTINUOUS
 10
135.0765033207
 20
199.8317168084
 11
135.1015037439
 21
199.8317168084
  0
LINE
  8
1
  6
CONTINUOUS
 10
24.3265023969
 20
211.5817164061
 11
24.676500871
 21
211.5817164061
  0
LINE
  8
1
  6
CONTINUOUS
 10
24.676500871
 20
214.5817187605
 11
24.3265023969
 21
214.5817187605
  0
ARC
  8
1
  6
CONTINUOUS
 10
23.88194254700002
 20
213.9567172775
 40
0.5
 50
90.0
 51
163.0422367000016
  0
ARC
  8
1
  6
CONTINUOUS
 10
23.88194254700002
 20
212.2067172775
 40
0.5000000000000143
 50
196.957763299998
 51
270.0
  0
LINE
  8
1
  6
CONTINUOUS
 10
23.8819411538
 20
211.7067166594
 11
24.3265023969
 21
211.7067166594
  0
LINE
  8
1
  6
CONTINUOUS
 10
24.3265023969
 20
214.4567166445
 11
23.8819411538
 21
214.4567166445
  0
ARC
  8
1
  6
CONTINUOUS
 10
26.75150261779999
 20
213.0817172775
 40
3.499999999999996
 50
163.0422367000001
 51
196.9577633
  0
LINE
  8
1
  6
CONTINUOUS
 10
117.4265025697
 20
139.5817157802
 11
117.6765030764
 21
137.0817181644
  0
LINE
  8
1
  6
CONTINUOUS
 10
121.676503732
 20
137.0817181644
 11
121.9265042386
 21
139.5817157802
  0
LINE
  8
1
  6
CONTINUOUS
 10
37.4265043579
 20
139.5817157802
 11
37.6765011392
 21
137.0817181644
  0
LINE
  8
1
  6
CONTINUOUS
 10
41.6765017949
 20
137.0817181644
 11
41.9265023015
 21
139.5817157802
  0
LINE
  8
1
  6
CONTINUOUS
 10
24.176503583
 20
145.8317172703
 11
24.176503583
 21
148.3317186114
  0
LINE
  8
1
  6
CONTINUOUS
 10
22.1765032552
 20
145.8317172703
 11
22.1765032552
 21
148.3317186114
  0
LINE
  8
1
  6
CONTINUOUS
 10
19.1765009008
 20
145.8317172703
 11
19.1765009008
 21
148.3317186114
  0
LINE
  8
1
  6
CONTINUOUS
 10
24.676500871
 20
181.4567172744
 11
23.6765025697
 21
181.4567172744
  0
LINE
  8
1
  6
CONTINUOUS
 10
23.6765025697
 20
172.7067177174
 11
23.6765025697
 21
181.4567172744
  0
LINE
  8
1
  6
CONTINUOUS
 10
24.676500871
 20
172.7067177174
 11
23.6765025697
 21
172.7067177174
  0
LINE
  8
1
  6
CONTINUOUS
 10
19.4265014074
 20
174.0067173717
 11
19.4265014074
 21
180.1567172854
  0
LINE
  8
1
  6
CONTINUOUS
 10
24.676500871
 20
196.4567174194
 11
23.6765025697
 21
196.4567174194
  0
LINE
  8
1
  6
CONTINUOUS
 10
23.6765025697
 20
187.7067173821
 11
23.6765025697
 21
196.4567174194
  0
LINE
  8
1
  6
CONTINUOUS
 10
24.676500871
 20
187.7067173821
 11
23.6765025697
 21
187.7067173821
  0
LINE
  8
1
  6
CONTINUOUS
 10
19.4265014074
 20
189.0067175021
 11
19.4265014074
 21
195.1567168337
  0
LINE
  8
1
  6
CONTINUOUS
 10
23.6765025697
 20
157.7067171213
 11
23.6765025697
 21
166.4567171586
  0
LINE
  8
1
  6
CONTINUOUS
 10
24.676500871
 20
157.7067171213
 11
23.6765025697
 21
157.7067171213
  0
LINE
  8
1
  6
CONTINUOUS
 10
24.676500871
 20
166.4567171586
 11
23.6765025697
 21
166.4567171586
  0
LINE
  8
1
  6
CONTINUOUS
 10
19.4265014074
 20
159.0067167756
 11
19.4265014074
 21
165.156716573
  0
LINE
  8
1
  6
CONTINUOUS
 10
23.6765025697
 20
202.7067170468
 11
23.6765025697
 21
211.4567180154
  0
LINE
  8
1
  6
CONTINUOUS
 10
24.676500871
 20
202.7067170468
 11
23.6765025697
 21
202.7067170468
  0
LINE
  8
1
  6
CONTINUOUS
 10
24.676500871
 20
211.4567180154
 11
23.6765025697
 21
211.4567180154
  0
LINE
  8
1
  6
CONTINUOUS
 10
19.4265014074
 20
204.0067167011
 11
19.4265014074
 21
210.1567164985
  0
LINE
  8
1
  6
CONTINUOUS
 10
135.7037900529
 20
208.305573183
 11
136.9526451967
 21
208.3590050218
  0
LINE
  8
1
  6
CONTINUOUS
 10
135.7037900529
 20
208.305573183
 11
135.2904690943
 21
217.9659624574
  0
LINE
  8
1
  6
CONTINUOUS
 10
136.5393279634
 20
218.0193942961
 11
135.2904690943
 21
217.9659624574
  0
LINE
  8
1
  6
CONTINUOUS
 10
136.9526451967
 20
208.3590050218
 11
136.5393279634
 21
218.0193942961
  0
LINE
  8
1
  6
CONTINUOUS
 10
22.8136769078
 20
218.0193942961
 11
24.0625357769
 21
217.9659624574
  0
LINE
  8
1
  6
CONTINUOUS
 10
24.0625357769
 20
217.9659624574
 11
23.9123916767
 21
214.4567166445
  0
LINE
  8
1
  6
CONTINUOUS
 10
23.7950599335
 20
211.7143237022
 11
23.7840367995
 21
211.4567180154
  0
LINE
  8
1
  6
CONTINUOUS
 10
22.8136769078
 20
218.0193942961
 11
22.477272018
 21
210.1567164985
  0
LINE
  8
1
  6
CONTINUOUS
 10
136.931731417
 20
207.9062723545
 11
135.1015037439
 21
206.8082001981
  0
ARC
  8
1
  6
CONTINUOUS
 10
136.3015026178001
 20
208.9567172775
 40
1.225000000000111
 50
123.1273259865028
 51
179.9999999999974
  0
ARC
  8
1
  6
CONTINUOUS
 10
136.3015026178
 20
208.9567172775001
 40
1.225000000000007
 50
300.9622277905981
 51
61.77247704139922
  0
LINE
  8
1
  6
CONTINUOUS
 10
135.0765033207
 20
197.5817178366
 11
135.0765033207
 21
208.9567166743
  0
LINE
  8
1
  6
CONTINUOUS
 10
135.0765033207
 20
197.5817178366
 11
134.6765040002
 21
197.5817178366
  0
LINE
  8
1
  6
CONTINUOUS
 10
137.1375239037
 20
207.5632681129
 11
135.5015030644
 21
206.5817174492
  0
LINE
  8
1
  6
CONTINUOUS
 10
135.5015030644
 20
206.5817174492
 11
135.5015030644
 21
197.5817178366
  0
LINE
  8
1
  6
CONTINUOUS
 10
135.5015030644
 20
197.5817178366
 11
135.1015037439
 21
197.5817178366
  0
LINE
  8
1
  6
CONTINUOUS
 10
135.1015037439
 20
206.8082001981
 11
135.1015037439
 21
197.5817178366
  0
ARC
  8
1
  6
CONTINUOUS
 10
136.3015026177999
 20
208.9567172775001
 40
1.624999999999902
 50
115.0697664619988
 51
180.000000000002
  0
ARC
  8
1
  6
CONTINUOUS
 10
136.3015026178
 20
208.9567172775001
 40
1.62500000000005
 50
300.9622277906002
 51
69.83003656589881
  0
LINE
  8
1
  6
CONTINUOUS
 10
23.8515018068
 20
202.7067170468
 11
23.8515018068
 21
197.5817178366
  0
ARC
  8
1
  6
CONTINUOUS
 10
23.05150261780011
 20
208.9567172774999
 40
1.62500000000019
 50
110.1699634341015
 51
132.3994733643989
  0
LINE
  8
1
  6
CONTINUOUS
 10
24.2765015505
 20
197.5817178366
 11
24.676500871
 21
197.5817178366
  0
LINE
  8
1
  6
CONTINUOUS
 10
24.2765015505
 20
197.5817178366
 11
24.2765015505
 21
202.7067170468
  0
LINE
  8
1
  6
CONTINUOUS
 10
23.8515018068
 20
197.5817178366
 11
24.2515011273
 21
197.5817178366
  0
LINE
  8
1
  6
CONTINUOUS
 10
24.2515011273
 20
202.7067170468
 11
24.2515011273
 21
197.5817178366
  0
LINE
  8
1
  6
CONTINUOUS
 10
119.0640023492
 20
220.1817166981
 11
125.2890034161
 21
220.1817166981
  0
LINE
  8
1
  6
CONTINUOUS
 10
120.1765044175
 20
225.5817187009
 11
124.1765013478
 21
225.5817187009
  0
LINE
  8
1
  6
CONTINUOUS
 10
81.56400272170001
 20
220.1817166981
 11
87.78900285730001
 21
220.1817166981
  0
LINE
  8
1
  6
CONTINUOUS
 10
82.67650292730001
 20
225.5817187009
 11
86.67650265170001
 21
225.5817187009
  0
LINE
  8
1
  6
CONTINUOUS
 10
69.06400253540001
 20
220.1817166981
 11
75.2890026128
 21
220.1817166981
  0
LINE
  8
1
  6
CONTINUOUS
 10
70.17650274110001
 20
225.5817187009
 11
74.1765026109
 21
225.5817187009
  0
LINE
  8
1
  6
CONTINUOUS
 10
94.0640019767
 20
220.1817166981
 11
100.2890030436
 21
220.1817166981
  0
LINE
  8
1
  6
CONTINUOUS
 10
95.1765021823
 20
225.5817187009
 11
99.1765028379
 21
225.5817187009
  0
LINE
  8
1
  6
CONTINUOUS
 10
106.5640030942
 20
220.1817166981
 11
112.7890041612
 21
220.1817166981
  0
LINE
  8
1
  6
CONTINUOUS
 10
107.6765014372
 20
225.5817187009
 11
111.6765020929
 21
225.5817187009
  0
LINE
  8
1
  6
CONTINUOUS
 10
23.5015033327
 20
199.0817171511
 11
23.5015033327
 21
202.0817176429
  0
LINE
  8
1
  6
CONTINUOUS
 10
135.0265024744
 20
167.0817174939
 11
135.0265024744
 21
164.0817170021
  0
LINE
  8
1
  6
CONTINUOUS
 10
135.8515015386
 20
206.0817164359
 11
135.8515015386
 21
203.0817178068
  0
LINE
  8
1
  6
CONTINUOUS
 10
135.0265024744
 20
214.5817187605
 11
135.0265024744
 21
211.5817164061
  0
LINE
  8
1
  6
CONTINUOUS
 10
23.5015033327
 20
203.0817178068
 11
23.5015033327
 21
204.0067167011
  0
LINE
  8
1
  6
CONTINUOUS
 10
24.3265023969
 20
154.0817172256
 11
24.3265023969
 21
157.0817177174
  0
LINE
  8
1
  6
CONTINUOUS
 10
135.8515015386
 20
202.0817176429
 11
135.8515015386
 21
199.0817171511
  0
LINE
  8
1
  6
CONTINUOUS
 10
24.3265023969
 20
211.5817164061
 11
24.3265023969
 21
214.5817187605
  0
LINE
  8
1
  6
CONTINUOUS
 10
117.6765030764
 20
137.0817181644
 11
121.676503732
 21
137.0817181644
  0
LINE
  8
1
  6
CONTINUOUS
 10
37.6765011392
 20
137.0817181644
 11
41.6765017949
 21
137.0817181644
  0
LINE
  8
1
  6
CONTINUOUS
 10
122.301503136
 20
215.0817160484
 11
122.0515026293
 21
215.0817160484
  0
LINE
  8
1
  6
CONTINUOUS
 10
122.301503136
 20
213.9567156312
 11
122.301503136
 21
215.0817160484
  0
LINE
  8
1
  6
CONTINUOUS
 10
101.1764379732
 20
213.9567156312
 11
122.301503136
 21
213.9567156312
  0
LINE
  8
1
  6
CONTINUOUS
 10
101.1764379732
 20
214.2067161379
 11
101.1764379732
 21
213.9567156312
  0
LINE
  8
1
  6
CONTINUOUS
 10
122.0515026293
 20
214.2067161379
 11
101.1764379732
 21
214.2067161379
  0
LINE
  8
1
  6
CONTINUOUS
 10
122.0515026293
 20
215.0817160484
 11
122.0515026293
 21
214.2067161379
  0
LINE
  8
1
  6
CONTINUOUS
 10
30.0515024505
 20
188.5817172927
 11
30.3015029571
 21
188.5817172927
  0
LINE
  8
1
  6
CONTINUOUS
 10
30.0515024505
 20
206.9567163465
 11
30.0515024505
 21
188.5817172927
  0
LINE
  8
1
  6
CONTINUOUS
 10
29.1765025399
 20
207.2067168531
 11
29.1765025399
 21
206.9567163465
  0
LINE
  8
1
  6
CONTINUOUS
 10
30.3015029571
 20
207.2067168531
 11
29.1765025399
 21
207.2067168531
  0
LINE
  8
1
  6
CONTINUOUS
 10
30.3015029571
 20
188.5817172927
 11
30.3015029571
 21
207.2067168531
  0
LINE
  8
1
  6
CONTINUOUS
 10
29.1765025399
 20
206.9567163465
 11
30.0515024505
 21
206.9567163465
  0
LINE
  8
1
  6
CONTINUOUS
 10
30.3015029571
 20
180.581717262
 11
30.0515024505
 21
180.581717262
  0
LINE
  8
1
  6
CONTINUOUS
 10
29.1765025399
 20
161.956716421
 11
30.3015029571
 21
161.956716421
  0
LINE
  8
1
  6
CONTINUOUS
 10
30.0515024505
 20
180.581717262
 11
30.0515024505
 21
162.2067169276
  0
LINE
  8
1
  6
CONTINUOUS
 10
30.3015029571
 20
161.956716421
 11
30.3015029571
 21
180.581717262
  0
LINE
  8
1
  6
CONTINUOUS
 10
30.0515024505
 20
162.2067169276
 11
29.1765025399
 21
162.2067169276
  0
LINE
  8
1
  6
CONTINUOUS
 10
29.1765025399
 20
162.2067169276
 11
29.1765025399
 21
161.956716421
  0
LINE
  8
1
  6
CONTINUOUS
 10
93.1764385245
 20
213.9567156312
 11
93.1764385245
 21
214.2067161379
  0
LINE
  8
1
  6
CONTINUOUS
 10
72.0513745259
 20
215.0817160484
 11
72.0513745259
 21
213.9567156312
  0
LINE
  8
1
  6
CONTINUOUS
 10
72.3016306806
 20
215.0817160484
 11
72.0513745259
 21
215.0817160484
  0
LINE
  8
1
  6
CONTINUOUS
 10
72.3016306806
 20
214.2067161379
 11
72.3016306806
 21
215.0817160484
  0
LINE
  8
1
  6
CONTINUOUS
 10
93.1764385245
 20
214.2067161379
 11
72.3016306806
 21
214.2067161379
  0
LINE
  8
1
  6
CONTINUOUS
 10
72.0513745259
 20
213.9567156312
 11
93.1764385245
 21
213.9567156312
  0
LINE
  8
1
  6
CONTINUOUS
 10
27.926503732
 20
146.2067161677
 11
29.4265030466
 21
146.2067161677
  0
LINE
  8
1
  6
CONTINUOUS
 10
27.926503732
 20
146.4567166743
 11
27.926503732
 21
146.2067161677
  0
LINE
  8
1
  6
CONTINUOUS
 10
29.4265030466
 20
146.4567166743
 11
27.926503732
 21
146.4567166743
  0
LINE
  8
1
  6
CONTINUOUS
 10
29.4265030466
 20
146.2067161677
 11
29.4265030466
 21
146.4567166743
  0
LINE
  8
1
  6
CONTINUOUS
 10
27.4265027187
 20
146.9567176876
 11
27.4265027187
 21
146.7067171809
  0
LINE
  8
1
  6
CONTINUOUS
 10
28.551503136
 20
148.8272455511
 11
28.551503136
 21
146.9567176876
  0
LINE
  8
1
  6
CONTINUOUS
 10
29.9265040598
 20
146.9567176876
 11
28.8015036426
 21
146.9567176876
  0
LINE
  8
1
  6
CONTINUOUS
 10
28.8015036426
 20
146.9567176876
 11
28.8015036426
 21
148.8272455511
  0
ARC
  8
1
  6
CONTINUOUS
 10
28.67650261779994
 20
147.0817172775001
 40
1.749999999999973
 50
94.09604375809794
 51
85.90395624179782
  0
LINE
  8
1
  6
CONTINUOUS
 10
29.9265040598
 20
146.7067171809
 11
29.9265040598
 21
146.9567176876
  0
LINE
  8
1
  6
CONTINUOUS
 10
27.4265027187
 20
146.7067171809
 11
29.9265040598
 21
146.7067171809
  0
LINE
  8
1
  6
CONTINUOUS
 10
28.551503136
 20
146.9567176876
 11
27.4265027187
 21
146.9567176876
  0
CIRCLE
  8
1
  6
CONTINUOUS
 10
28.6765026178
 20
147.0817172775
 40
2.0
  0
LINE
  8
1
  6
CONTINUOUS
 10
28.3015026293
 20
145.7067188797
 11
29.0515041492
 21
145.7067188797
  0
LINE
  8
1
  6
CONTINUOUS
 10
29.0515041492
 20
145.7067188797
 11
29.0515041492
 21
145.956715661
  0
LINE
  8
1
  6
CONTINUOUS
 10
28.3015026293
 20
145.956715661
 11
28.3015026293
 21
145.7067188797
  0
LINE
  8
1
  6
CONTINUOUS
 10
29.0515041492
 20
145.956715661
 11
28.3015026293
 21
145.956715661
  0
LINE
  8
1
  6
CONTINUOUS
 10
46.1765034638
 20
144.5817184624
 11
127.1765037022
 21
144.5817184624
  0
ARC
  8
1
  6
CONTINUOUS
 10
127.1765026178
 20
145.5817172775
 40
0.9999999999999432
 50
270.0
 51
3.256887993818780E-012
  0
LINE
  8
1
  6
CONTINUOUS
 10
128.1765020035
 20
145.5817167637
 11
128.1765020035
 21
206.3317169425
  0
ARC
  8
1
  6
CONTINUOUS
 10
127.1765026178
 20
206.3317172775
 40
1.0
 50
1.628443996909321E-012
 51
90.0
  0
LINE
  8
1
  6
CONTINUOUS
 10
127.1765037022
 20
207.3317171064
 11
41.6765017949
 21
207.3317171064
  0
ARC
  8
1
  6
CONTINUOUS
 10
41.6765026178
 20
206.3317172775
 40
1.0
 50
90.0
 51
180.0
  0
LINE
  8
1
  6
CONTINUOUS
 10
40.6765034936
 20
206.3317169425
 11
40.6765034936
 21
156.5817167041
  0
ARC
  8
1
  6
CONTINUOUS
 10
41.6765026178
 20
156.5817172775
 40
0.9999999999999929
 50
180.0
 51
270.0
  0
LINE
  8
1
  6
CONTINUOUS
 10
41.6765017949
 20
155.5817165402
 11
44.176503136
 21
155.5817165402
  0
ARC
  8
1
  6
CONTINUOUS
 10
44.17650261780001
 20
154.5817172775
 40
0.9999999999999929
 50
0.0
 51
90.0
  0
LINE
  8
1
  6
CONTINUOUS
 10
45.1765032999
 20
154.5817163763
 11
45.1765032999
 21
145.5817167637
  0
ARC
  8
1
  6
CONTINUOUS
 10
46.1765026178
 20
145.5817172775
 40
0.9999999999999929
 50
180.0
 51
270.0
  0
LINE
  8
1
  6
CONTINUOUS
 10
134.6765040002
 20
217.0817163763
 11
134.6765040002
 21
142.0817171213
  0
ARC
  8
1
  6
CONTINUOUS
 10
132.1765026178
 20
217.0817172775
 40
2.500000000000057
 50
6.513775987637135E-013
 51
90.0
  0
ARC
  8
1
  6
CONTINUOUS
 10
132.1765026178
 20
142.0817172775001
 40
2.500000000000057
 50
270.0
 51
359.9999999999994
  0
LINE
  8
1
  6
CONTINUOUS
 10
132.1765026591
 20
139.5817157802
 11
27.1765022121
 21
139.5817157802
  0
LINE
  8
1
  6
CONTINUOUS
 10
27.1765022121
 20
219.5817177174
 11
132.1765026591
 21
219.5817177174
  0
ARC
  8
1
  6
CONTINUOUS
 10
27.1765026178
 20
217.0817172775
 40
2.500000000000028
 50
90.0
 51
180.0
  0
LINE
  8
1
  6
CONTINUOUS
 10
24.676500871
 20
142.0817171213
 11
24.676500871
 21
217.0817163763
  0
ARC
  8
1
  6
CONTINUOUS
 10
27.17650261779997
 20
142.0817172775
 40
2.499999999999972
 50
179.9999999999994
 51
270.0
  0
LINE
  8
1
  6
CONTINUOUS
 10
104.609514638
 20
173.9446619515
 11
104.609514638
 21
175.4446621974
  0
LINE
  8
1
  6
CONTINUOUS
 10
103.3104779712
 20
174.6946620745
 11
104.609514638
 21
173.9446619515
  0
LINE
  8
1
  6
CONTINUOUS
 10
104.609514638
 20
175.4446621974
 11
103.3104779712
 21
174.6946620745
  0
LINE
  8
1
  6
CONTINUOUS
 10
111.743490263
 20
175.4446621974
 11
111.743490263
 21
173.9446619515
  0
LINE
  8
1
  6
CONTINUOUS
 10
113.0425287924
 20
174.6946620745
 11
111.743490263
 21
175.4446621974
  0
LINE
  8
1
  6
CONTINUOUS
 10
111.743490263
 20
173.9446619515
 11
113.0425287924
 21
174.6946620745
  0
LINE
  8
1
  6
CONTINUOUS
 10
112.1765031062
 20
179.9656918495
 11
112.9265009008
 21
181.2647299796
  0
LINE
  8
1
  6
CONTINUOUS
 10
111.4265015862
 20
181.2647299796
 11
112.1765031062
 21
179.9656918495
  0
LINE
  8
1
  6
CONTINUOUS
 10
112.9265009008
 20
181.2647299796
 11
111.4265015862
 21
181.2647299796
  0
LINE
  8
1
  6
CONTINUOUS
 10
104.9265033148
 20
180.3987045762
 11
104.1765017949
 21
181.6977426691
  0
LINE
  8
1
  6
CONTINUOUS
 10
103.4265021376
 20
180.3987045762
 11
104.9265033148
 21
180.3987045762
  0
LINE
  8
1
  6
CONTINUOUS
 10
104.1765017949
 20
181.6977426691
 11
103.4265021376
 21
180.3987045762
  0
ARC
  8
1
  6
CONTINUOUS
 10
101.9265026178
 20
181.3692362412
 40
0.9999999999999716
 50
90.0
 51
180.0000000000016
  0
LINE
  8
1
  6
CONTINUOUS
 10
100.9265026591
 20
181.3692362387
 11
100.9265026591
 21
180.294198309
  0
ARC
  8
1
  6
CONTINUOUS
 10
101.9265026178
 20
180.2941983138
 40
0.9999999999999858
 50
179.9999999999984
 51
270.0
  0
LINE
  8
1
  6
CONTINUOUS
 10
101.926502823
 20
179.2941983779
 11
106.4265026293
 21
179.2941983779
  0
ARC
  8
1
  6
CONTINUOUS
 10
106.4265026178
 20
180.2941983138
 40
0.9999999999999716
 50
270.0
 51
1.628443996909367E-012
  0
LINE
  8
1
  6
CONTINUOUS
 10
107.4265009306
 20
180.294198309
 11
107.4265009306
 21
181.3692362387
  0
ARC
  8
1
  6
CONTINUOUS
 10
106.4265026178
 20
181.3692362412
 40
1.000000000000057
 50
1.628443996909228E-012
 51
90.0
  0
LINE
  8
1
  6
CONTINUOUS
 10
106.4265026293
 20
182.369236228
 11
101.926502823
 21
182.369236228
  0
LINE
  8
1
  6
CONTINUOUS
 10
107.77650313
 20
180.294198309
 11
107.77650313
 21
181.3692362387
  0
ARC
  8
1
  6
CONTINUOUS
 10
106.4265026178
 20
180.2941983138
 40
1.349999999999966
 50
270.0
 51
1.206254812525453E-012
  0
LINE
  8
1
  6
CONTINUOUS
 10
101.926502823
 20
178.944198274
 11
106.4265026293
 21
178.944198274
  0
ARC
  8
1
  6
CONTINUOUS
 10
101.9265026178
 20
180.2941983138
 40
1.34999999999998
 50
179.9999999999988
 51
270.0
  0
LINE
  8
1
  6
CONTINUOUS
 10
100.5765023224
 20
181.3692362387
 11
100.5765023224
 21
180.294198309
  0
ARC
  8
1
  6
CONTINUOUS
 10
101.9265026178
 20
181.3692362412
 40
1.350000000000023
 50
90.0
 51
180.0
  0
LINE
  8
1
  6
CONTINUOUS
 10
106.4265026293
 20
182.7192362155
 11
101.926502823
 21
182.7192362155
  0
ARC
  8
1
  6
CONTINUOUS
 10
106.4265026178
 20
181.3692362412
 40
1.349999999999994
 50
0.0
 51
90.0
  0
ARC
  8
1
  6
CONTINUOUS
 10
118.4265026178
 20
151.0817172775
 40
1.5
 50
90.0
 51
180.0
  0
LINE
  8
1
  6
CONTINUOUS
 10
116.9265015564
 20
151.0817167339
 11
116.9265015564
 21
147.5817170915
  0
ARC
  8
1
  6
CONTINUOUS
 10
118.4265026178
 20
147.5817172775
 40
1.5
 50
180.0
 51
270.0
  0
LINE
  8
1
  6
CONTINUOUS
 10
118.426500871
 20
146.081717777
 11
121.9265042386
 21
146.081717777
  0
ARC
  8
1
  6
CONTINUOUS
 10
121.9265026178
 20
147.5817172775
 40
1.500000000000028
 50
270.0
 51
0.0
  0
LINE
  8
1
  6
CONTINUOUS
 10
123.4265035532
 20
147.5817170915
 11
123.4265035532
 21
151.0817167339
  0
ARC
  8
1
  6
CONTINUOUS
 10
121.9265026178
 20
151.0817172775
 40
1.500000000000043
 50
1.085629331272850E-012
 51
90.0
  0
LINE
  8
1
  6
CONTINUOUS
 10
121.9265042386
 20
152.5817179111
 11
118.426500871
 21
152.5817179111
  0
LINE
  8
1
  6
CONTINUOUS
 10
123.7765020273
 20
147.5817170915
 11
123.7765020273
 21
151.0817167339
  0
ARC
  8
1
  6
CONTINUOUS
 10
121.9265026178
 20
147.5817172775
 40
1.849999999999994
 50
270.0
 51
8.802399983293652E-013
  0
LINE
  8
1
  6
CONTINUOUS
 10
118.426500871
 20
145.7317155776
 11
121.9265042386
 21
145.7317155776
  0
ARC
  8
1
  6
CONTINUOUS
 10
118.4265026178
 20
147.5817172775
 40
1.850000000000009
 50
179.9999999999991
 51
270.0
  0
LINE
  8
1
  6
CONTINUOUS
 10
116.5765030823
 20
151.0817167339
 11
116.5765030823
 21
147.5817170915
  0
ARC
  8
1
  6
CONTINUOUS
 10
118.4265026178
 20
151.0817172775001
 40
1.849999999999994
 50
90.0
 51
180.0000000000009
  0
LINE
  8
1
  6
CONTINUOUS
 10
121.9265042386
 20
152.9317163852
 11
118.426500871
 21
152.9317163852
  0
ARC
  8
1
  6
CONTINUOUS
 10
121.9265026178
 20
151.0817172775
 40
1.850000000000009
 50
0.0
 51
90.0
  0
ARC
  8
1
  6
CONTINUOUS
 10
118.4265026178
 20
159.0817172775
 40
1.5
 50
90.0
 51
180.0
  0
LINE
  8
1
  6
CONTINUOUS
 10
116.9265015564
 20
159.0817180452
 11
116.9265015564
 21
155.5817165402
  0
ARC
  8
1
  6
CONTINUOUS
 10
118.4265026178
 20
155.5817172775
 40
1.500000000000028
 50
180.0
 51
270.0
  0
LINE
  8
1
  6
CONTINUOUS
 10
118.426500871
 20
154.0817172256
 11
121.9265042386
 21
154.0817172256
  0
ARC
  8
1
  6
CONTINUOUS
 10
121.9265026178
 20
155.5817172775
 40
1.500000000000028
 50
270.0
 51
0.0
  0
LINE
  8
1
  6
CONTINUOUS
 10
123.4265035532
 20
155.5817165402
 11
123.4265035532
 21
159.0817180452
  0
ARC
  8
1
  6
CONTINUOUS
 10
121.9265026178
 20
159.0817172775
 40
1.500000000000043
 50
1.085629331272850E-012
 51
90.0
  0
LINE
  8
1
  6
CONTINUOUS
 10
121.9265042386
 20
160.5817173598
 11
118.426500871
 21
160.5817173598
  0
LINE
  8
1
  6
CONTINUOUS
 10
123.7765020273
 20
155.5817165402
 11
123.7765020273
 21
159.0817180452
  0
ARC
  8
1
  6
CONTINUOUS
 10
121.9265026178
 20
155.5817172775
 40
1.849999999999994
 50
270.0
 51
8.802399983293652E-013
  0
LINE
  8
1
  6
CONTINUOUS
 10
118.426500871
 20
153.7317168889
 11
121.9265042386
 21
153.7317168889
  0
ARC
  8
1
  6
CONTINUOUS
 10
118.4265026178
 20
155.5817172775
 40
1.850000000000009
 50
180.0
 51
270.0
  0
LINE
  8
1
  6
CONTINUOUS
 10
116.5765030823
 20
159.0817180452
 11
116.5765030823
 21
155.5817165402
  0
ARC
  8
1
  6
CONTINUOUS
 10
118.4265026178
 20
159.0817172775001
 40
1.849999999999994
 50
90.0
 51
180.0000000000009
  0
LINE
  8
1
  6
CONTINUOUS
 10
121.9265042386
 20
160.9317176965
 11
118.426500871
 21
160.9317176965
  0
ARC
  8
1
  6
CONTINUOUS
 10
121.9265026178
 20
159.0817172775
 40
1.850000000000009
 50
0.0
 51
90.0
  0
ARC
  8
1
  6
CONTINUOUS
 10
109.9265026178
 20
181.3692362412
 40
1.0
 50
90.0
 51
180.0000000000016
  0
ARC
  8
1
  6
CONTINUOUS
 10
109.9265026178
 20
180.2941983138
 40
1.0
 50
180.0
 51
270.0
  0
LINE
  8
1
  6
CONTINUOUS
 10
109.9265022717
 20
179.2941983779
 11
114.4265039406
 21
179.2941983779
  0
ARC
  8
1
  6
CONTINUOUS
 10
114.4265026178
 20
180.2941983138
 40
0.9999999999999716
 50
270.0
 51
1.628443996909367E-012
  0
LINE
  8
1
  6
CONTINUOUS
 10
115.4265022419
 20
180.294198309
 11
115.4265022419
 21
181.3692362387
  0
ARC
  8
1
  6
CONTINUOUS
 10
114.4265026178
 20
181.3692362412
 40
1.000000000000057
 50
1.628443996909228E-012
 51
90.0
  0
LINE
  8
1
  6
CONTINUOUS
 10
114.4265039406
 20
182.369236228
 11
109.9265022717
 21
182.369236228
  0
LINE
  8
1
  6
CONTINUOUS
 10
115.7765044413
 20
180.294198309
 11
115.7765044413
 21
181.3692362387
  0
ARC
  8
1
  6
CONTINUOUS
 10
114.4265026178
 20
180.2941983138
 40
1.349999999999966
 50
270.0
 51
1.206254812525453E-012
  0
LINE
  8
1
  6
CONTINUOUS
 10
109.9265022717
 20
178.944198274
 11
114.4265039406
 21
178.944198274
  0
ARC
  8
1
  6
CONTINUOUS
 10
109.9265026178
 20
180.2941983138
 40
1.350000000000037
 50
180.0
 51
270.0
  0
LINE
  8
1
  6
CONTINUOUS
 10
108.576501771
 20
181.3692362387
 11
108.576501771
 21
180.294198309
  0
ARC
  8
1
  6
CONTINUOUS
 10
109.9265026178
 20
181.3692362412
 40
1.350000000000023
 50
90.0
 51
180.0
  0
LINE
  8
1
  6
CONTINUOUS
 10
114.4265039406
 20
182.7192362155
 11
109.9265022717
 21
182.7192362155
  0
ARC
  8
1
  6
CONTINUOUS
 10
114.4265026178
 20
181.3692362412
 40
1.349999999999994
 50
0.0
 51
90.0
  0
LINE
  8
1
  6
CONTINUOUS
 10
108.9265039704
 20
181.3692362387
 11
108.9265039704
 21
180.294198309
  0
ARC
  8
1
  6
CONTINUOUS
 10
118.4265026178
 20
198.5817172775
 40
1.5
 50
180.0
 51
270.0
  0
LINE
  8
1
  6
CONTINUOUS
 10
118.426500871
 20
197.0817168233
 11
121.9265042386
 21
197.0817168233
  0
ARC
  8
1
  6
CONTINUOUS
 10
121.9265026178
 20
198.5817172775
 40
1.5
 50
270.0
 51
0.0
  0
LINE
  8
1
  6
CONTINUOUS
 10
123.4265035532
 20
198.5817180005
 11
123.4265035532
 21
202.0817176429
  0
ARC
  8
1
  6
CONTINUOUS
 10
121.9265026178
 20
202.0817172775
 40
1.5
 50
0.0
 51
90.0
  0
LINE
  8
1
  6
CONTINUOUS
 10
121.9265042386
 20
203.5817169574
 11
118.426500871
 21
203.5817169574
  0
ARC
  8
1
  6
CONTINUOUS
 10
118.4265026178
 20
202.0817172775
 40
1.5
 50
90.0
 51
180.0
  0
LINE
  8
1
  6
CONTINUOUS
 10
116.9265015564
 20
202.0817176429
 11
116.9265015564
 21
198.5817180005
  0
LINE
  8
1
  6
CONTINUOUS
 10
123.7765020273
 20
198.5817180005
 11
123.7765020273
 21
202.0817176429
  0
ARC
  8
1
  6
CONTINUOUS
 10
121.9265026178
 20
198.5817172775
 40
1.849999999999994
 50
270.0
 51
8.802399983293652E-013
  0
LINE
  8
1
  6
CONTINUOUS
 10
118.426500871
 20
196.7317174179
 11
121.9265042386
 21
196.7317174179
  0
ARC
  8
1
  6
CONTINUOUS
 10
118.4265026178
 20
198.5817172775
 40
1.850000000000009
 50
179.9999999999991
 51
270.0
  0
LINE
  8
1
  6
CONTINUOUS
 10
116.5765030823
 20
202.0817176429
 11
116.5765030823
 21
198.5817180005
  0
ARC
  8
1
  6
CONTINUOUS
 10
118.4265026178
 20
202.0817172775001
 40
1.849999999999994
 50
90.0
 51
180.0000000000009
  0
LINE
  8
1
  6
CONTINUOUS
 10
121.9265042386
 20
203.9317172942
 11
118.426500871
 21
203.9317172942
  0
ARC
  8
1
  6
CONTINUOUS
 10
121.9265026178
 20
202.0817172775001
 40
1.850000000000009
 50
359.9999999999992
 51
90.0
  0
ARC
  8
1
  6
CONTINUOUS
 10
94.42650261780001
 20
175.0817172775
 40
1.500000000000057
 50
90.0
 51
179.9999999999989
  0
LINE
  8
1
  6
CONTINUOUS
 10
92.9265032105
 20
175.0817174082
 11
92.9265032105
 21
171.5817173001
  0
ARC
  8
1
  6
CONTINUOUS
 10
94.42650261780001
 20
171.5817172775
 40
1.500000000000028
 50
180.0
 51
270.0
  0
LINE
  8
1
  6
CONTINUOUS
 10
94.426502525
 20
170.0817170543
 11
97.9265021674
 21
170.0817170543
  0
ARC
  8
1
  6
CONTINUOUS
 10
97.92650261780001
 20
171.5817172775
 40
1.5
 50
270.0
 51
0.0
  0
LINE
  8
1
  6
CONTINUOUS
 10
99.42650334460001
 20
171.5817173001
 11
99.42650334460001
 21
175.0817174082
  0
ARC
  8
1
  6
CONTINUOUS
 10
97.92650261780001
 20
175.0817172775
 40
1.499999999999986
 50
0.0
 51
90.0
  0
LINE
  8
1
  6
CONTINUOUS
 10
99.7765018187
 20
171.5817173001
 11
99.7765018187
 21
175.0817174082
  0
ARC
  8
1
  6
CONTINUOUS
 10
97.92650261780003
 20
171.5817172775
 40
1.849999999999994
 50
270.0
 51
8.802399983293652E-013
  0
LINE
  8
1
  6
CONTINUOUS
 10
94.426502525
 20
169.7317176488
 11
97.9265021674
 21
169.7317176488
  0
ARC
  8
1
  6
CONTINUOUS
 10
94.42650261779998
 20
171.5817172775
 40
1.849999999999994
 50
180.0
 51
270.0
  0
ARC
  8
1
  6
CONTINUOUS
 10
94.42650261779997
 20
175.0817172775001
 40
1.849999999999994
 50
90.0
 51
180.0000000000009
  0
LINE
  8
1
  6
CONTINUOUS
 10
97.9265021674
 20
176.9317170595
 11
94.426502525
 21
176.9317170595
  0
ARC
  8
1
  6
CONTINUOUS
 10
97.92650261780001
 20
175.0817172775001
 40
1.84999999999998
 50
359.9999999999992
 51
90.0
  0
LINE
  8
1
  6
CONTINUOUS
 10
97.9265021674
 20
176.5817171884
 11
94.426502525
 21
176.5817171884
  0
LINE
  8
1
  6
CONTINUOUS
 10
92.57650287370001
 20
175.0817174082
 11
92.57650287370001
 21
171.5817173001
  0
LINE
  8
1
  6
CONTINUOUS
 10
92.9265032105
 20
167.0817174939
 11
92.9265032105
 21
163.5817178515
  0
ARC
  8
1
  6
CONTINUOUS
 10
94.42650261780001
 20
163.5817172775
 40
1.500000000000028
 50
180.0
 51
270.0
  0
LINE
  8
1
  6
CONTINUOUS
 10
94.426502525
 20
162.0817166743
 11
97.9265021674
 21
162.0817166743
  0
ARC
  8
1
  6
CONTINUOUS
 10
97.92650261780001
 20
163.5817172775
 40
1.5
 50
270.0
 51
0.0
  0
LINE
  8
1
  6
CONTINUOUS
 10
99.42650334460001
 20
163.5817178515
 11
99.42650334460001
 21
167.0817174939
  0
ARC
  8
1
  6
CONTINUOUS
 10
97.92650261780001
 20
167.0817172775
 40
1.499999999999986
 50
0.0
 51
90.0
  0
LINE
  8
1
  6
CONTINUOUS
 10
97.9265021674
 20
168.5817177397
 11
94.426502525
 21
168.5817177397
  0
LINE
  8
1
  6
CONTINUOUS
 10
99.7765018187
 20
163.5817178515
 11
99.7765018187
 21
167.0817174939
  0
ARC
  8
1
  6
CONTINUOUS
 10
97.92650261780001
 20
163.5817172775
 40
1.849999999999966
 50
270.0
 51
8.802399983293787E-013
  0
ARC
  8
1
  6
CONTINUOUS
 10
94.42650261779998
 20
163.5817172775
 40
1.849999999999994
 50
180.0
 51
270.0
  0
LINE
  8
1
  6
CONTINUOUS
 10
92.57650287370001
 20
167.0817174939
 11
92.57650287370001
 21
163.5817178515
  0
ARC
  8
1
  6
CONTINUOUS
 10
94.42650261779997
 20
167.0817172775001
 40
1.849999999999994
 50
90.0
 51
180.0000000000009
  0
LINE
  8
1
  6
CONTINUOUS
 10
97.9265021674
 20
168.9317171452
 11
94.426502525
 21
168.9317171452
  0
ARC
  8
1
  6
CONTINUOUS
 10
97.92650261780001
 20
167.0817172775001
 40
1.84999999999998
 50
359.9999999999992
 51
90.0
  0
LINE
  8
1
  6
CONTINUOUS
 10
94.426502525
 20
161.7317182002
 11
97.9265021674
 21
161.7317182002
  0
ARC
  8
1
  6
CONTINUOUS
 10
94.42650261780001
 20
167.0817172775
 40
1.500000000000057
 50
90.0
 51
179.9999999999989
  0
ARC
  8
1
  6
CONTINUOUS
 10
102.4265026178
 20
175.0817172775
 40
1.500000000000057
 50
90.0
 51
179.9999999999989
  0
ARC
  8
1
  6
CONTINUOUS
 10
102.4265026178
 20
171.5817172775
 40
1.499999999999986
 50
180.0
 51
270.0
  0
LINE
  8
1
  6
CONTINUOUS
 10
102.4265019737
 20
170.0817170543
 11
105.926501616
 21
170.0817170543
  0
ARC
  8
1
  6
CONTINUOUS
 10
105.9265026178
 20
171.5817172775
 40
1.5
 50
270.0
 51
0.0
  0
LINE
  8
1
  6
CONTINUOUS
 10
107.4265009306
 20
171.5817173001
 11
107.4265009306
 21
175.0817174082
  0
ARC
  8
1
  6
CONTINUOUS
 10
105.9265026178
 20
175.0817172775
 40
1.499999999999986
 50
0.0
 51
90.0
  0
LINE
  8
1
  6
CONTINUOUS
 10
105.926501616
 20
176.5817171884
 11
102.4265019737
 21
176.5817171884
  0
LINE
  8
1
  6
CONTINUOUS
 10
107.77650313
 20
171.5817173001
 11
107.77650313
 21
175.0817174082
  0
ARC
  8
1
  6
CONTINUOUS
 10
105.9265026178
 20
171.5817172775
 40
1.849999999999994
 50
270.0
 51
8.802399983293652E-013
  0
LINE
  8
1
  6
CONTINUOUS
 10
102.4265019737
 20
169.7317176488
 11
105.926501616
 21
169.7317176488
  0
ARC
  8
1
  6
CONTINUOUS
 10
102.4265026178
 20
171.5817172775
 40
1.849999999999994
 50
180.0
 51
270.0
  0
ARC
  8
1
  6
CONTINUOUS
 10
102.4265026178
 20
175.0817172775001
 40
1.849999999999994
 50
90.0
 51
180.0000000000009
  0
LINE
  8
1
  6
CONTINUOUS
 10
105.926501616
 20
176.9317170595
 11
102.4265019737
 21
176.9317170595
  0
ARC
  8
1
  6
CONTINUOUS
 10
105.9265026178
 20
175.0817172775
 40
1.849999999999994
 50
0.0
 51
90.0
  0
LINE
  8
1
  6
CONTINUOUS
 10
100.5765023224
 20
175.0817174082
 11
100.5765023224
 21
171.5817173001
  0
LINE
  8
1
  6
CONTINUOUS
 10
100.9265026591
 20
175.0817174082
 11
100.9265026591
 21
171.5817173001
  0
ARC
  8
1
  6
CONTINUOUS
 10
102.4265026178
 20
167.0817172775
 40
1.500000000000057
 50
90.0
 51
179.9999999999989
  0
LINE
  8
1
  6
CONTINUOUS
 10
100.9265026591
 20
167.0817174939
 11
100.9265026591
 21
163.5817178515
  0
ARC
  8
1
  6
CONTINUOUS
 10
102.4265026178
 20
163.5817172775
 40
1.499999999999986
 50
180.0
 51
270.0
  0
LINE
  8
1
  6
CONTINUOUS
 10
102.4265019737
 20
162.0817166743
 11
105.926501616
 21
162.0817166743
  0
ARC
  8
1
  6
CONTINUOUS
 10
105.9265026178
 20
163.5817172775
 40
1.5
 50
270.0
 51
0.0
  0
LINE
  8
1
  6
CONTINUOUS
 10
107.4265009306
 20
163.5817178515
 11
107.4265009306
 21
167.0817174939
  0
ARC
  8
1
  6
CONTINUOUS
 10
105.9265026178
 20
167.0817172775
 40
1.499999999999986
 50
0.0
 51
90.0
  0
LINE
  8
1
  6
CONTINUOUS
 10
105.926501616
 20
168.5817177397
 11
102.4265019737
 21
168.5817177397
  0
LINE
  8
1
  6
CONTINUOUS
 10
107.77650313
 20
163.5817178515
 11
107.77650313
 21
167.0817174939
  0
ARC
  8
1
  6
CONTINUOUS
 10
105.9265026178
 20
163.5817172775
 40
1.849999999999994
 50
270.0
 51
8.802399983293652E-013
  0
LINE
  8
1
  6
CONTINUOUS
 10
102.4265019737
 20
161.7317182002
 11
105.926501616
 21
161.7317182002
  0
ARC
  8
1
  6
CONTINUOUS
 10
102.4265026178
 20
163.5817172775
 40
1.849999999999994
 50
180.0
 51
270.0
  0
LINE
  8
1
  6
CONTINUOUS
 10
100.5765023224
 20
167.0817174939
 11
100.5765023224
 21
163.5817178515
  0
ARC
  8
1
  6
CONTINUOUS
 10
102.4265026178
 20
167.0817172775001
 40
1.849999999999994
 50
90.0
 51
180.0000000000009
  0
LINE
  8
1
  6
CONTINUOUS
 10
105.926501616
 20
168.9317171452
 11
102.4265019737
 21
168.9317171452
  0
ARC
  8
1
  6
CONTINUOUS
 10
105.9265026178
 20
167.0817172775
 40
1.849999999999994
 50
0.0
 51
90.0
  0
ARC
  8
1
  6
CONTINUOUS
 10
102.4265026178
 20
159.0817172775
 40
1.500000000000057
 50
90.0
 51
179.9999999999989
  0
LINE
  8
1
  6
CONTINUOUS
 10
100.9265026591
 20
159.0817180452
 11
100.9265026591
 21
155.5817165402
  0
ARC
  8
1
  6
CONTINUOUS
 10
102.4265026178
 20
155.5817172775001
 40
1.500000000000043
 50
180.0000000000011
 51
270.0
  0
LINE
  8
1
  6
CONTINUOUS
 10
102.4265019737
 20
154.0817172256
 11
105.926501616
 21
154.0817172256
  0
ARC
  8
1
  6
CONTINUOUS
 10
105.9265026178
 20
155.5817172775001
 40
1.500000000000057
 50
270.0
 51
359.9999999999989
  0
LINE
  8
1
  6
CONTINUOUS
 10
107.4265009306
 20
155.5817165402
 11
107.4265009306
 21
159.0817180452
  0
ARC
  8
1
  6
CONTINUOUS
 10
105.9265026178
 20
159.0817172775
 40
1.499999999999986
 50
0.0
 51
90.0
  0
LINE
  8
1
  6
CONTINUOUS
 10
105.926501616
 20
160.5817173598
 11
102.4265019737
 21
160.5817173598
  0
LINE
  8
1
  6
CONTINUOUS
 10
107.77650313
 20
155.5817165402
 11
107.77650313
 21
159.0817180452
  0
ARC
  8
1
  6
CONTINUOUS
 10
105.9265026178
 20
155.5817172775
 40
1.849999999999994
 50
270.0
 51
8.802399983293652E-013
  0
LINE
  8
1
  6
CONTINUOUS
 10
102.4265019737
 20
153.7317168889
 11
105.926501616
 21
153.7317168889
  0
LINE
  8
1
  6
CONTINUOUS
 10
100.5765023224
 20
159.0817180452
 11
100.5765023224
 21
155.5817165402
  0
ARC
  8
1
  6
CONTINUOUS
 10
102.4265026178
 20
159.0817172775001
 40
1.849999999999994
 50
90.0
 51
180.0000000000009
  0
LINE
  8
1
  6
CONTINUOUS
 10
105.926501616
 20
160.9317176965
 11
102.4265019737
 21
160.9317176965
  0
ARC
  8
1
  6
CONTINUOUS
 10
105.9265026178
 20
159.0817172775
 40
1.849999999999994
 50
0.0
 51
90.0
  0
ARC
  8
1
  6
CONTINUOUS
 10
102.4265026178
 20
155.5817172775
 40
1.849999999999994
 50
180.0
 51
270.0
  0
ARC
  8
1
  6
CONTINUOUS
 10
102.4265026178
 20
151.0817172775
 40
1.500000000000057
 50
90.0
 51
179.9999999999989
  0
LINE
  8
1
  6
CONTINUOUS
 10
100.9265026591
 20
151.0817167339
 11
100.9265026591
 21
147.5817170915
  0
LINE
  8
1
  6
CONTINUOUS
 10
102.4265019737
 20
146.081717777
 11
105.926501616
 21
146.081717777
  0
ARC
  8
1
  6
CONTINUOUS
 10
105.9265026178
 20
147.5817172775
 40
1.5
 50
270.0
 51
0.0
  0
LINE
  8
1
  6
CONTINUOUS
 10
107.4265009306
 20
147.5817170915
 11
107.4265009306
 21
151.0817167339
  0
ARC
  8
1
  6
CONTINUOUS
 10
105.9265026178
 20
151.0817172775
 40
1.499999999999986
 50
0.0
 51
90.0
  0
LINE
  8
1
  6
CONTINUOUS
 10
105.926501616
 20
152.5817179111
 11
102.4265019737
 21
152.5817179111
  0
LINE
  8
1
  6
CONTINUOUS
 10
107.77650313
 20
147.5817170915
 11
107.77650313
 21
151.0817167339
  0
ARC
  8
1
  6
CONTINUOUS
 10
105.9265026178
 20
147.5817172775
 40
1.849999999999994
 50
270.0
 51
8.802399983293652E-013
  0
LINE
  8
1
  6
CONTINUOUS
 10
102.4265019737
 20
145.7317155776
 11
105.926501616
 21
145.7317155776
  0
ARC
  8
1
  6
CONTINUOUS
 10
102.4265026178
 20
147.5817172775
 40
1.849999999999994
 50
179.9999999999991
 51
270.0
  0
LINE
  8
1
  6
CONTINUOUS
 10
100.5765023224
 20
151.0817167339
 11
100.5765023224
 21
147.5817170915
  0
LINE
  8
1
  6
CONTINUOUS
 10
105.926501616
 20
152.9317163852
 11
102.4265019737
 21
152.9317163852
  0
ARC
  8
1
  6
CONTINUOUS
 10
105.9265026178
 20
151.0817172775
 40
1.849999999999994
 50
0.0
 51
90.0
  0
ARC
  8
1
  6
CONTINUOUS
 10
102.4265026178
 20
147.5817172775
 40
1.499999999999986
 50
180.0
 51
270.0
  0
ARC
  8
1
  6
CONTINUOUS
 10
102.4265026178
 20
151.0817172775001
 40
1.849999999999994
 50
90.0
 51
180.0000000000009
  0
ARC
  8
1
  6
CONTINUOUS
 10
110.4265026178
 20
175.0817172775
 40
1.500000000000057
 50
90.0
 51
179.9999999999989
  0
LINE
  8
1
  6
CONTINUOUS
 10
108.9265039704
 20
175.0817174082
 11
108.9265039704
 21
171.5817173001
  0
ARC
  8
1
  6
CONTINUOUS
 10
110.4265026178
 20
171.5817172775
 40
1.500000000000028
 50
180.0
 51
270.0
  0
ARC
  8
1
  6
CONTINUOUS
 10
113.9265026178
 20
171.5817172775
 40
1.5
 50
270.0
 51
0.0
  0
LINE
  8
1
  6
CONTINUOUS
 10
115.4265022419
 20
171.5817173001
 11
115.4265022419
 21
175.0817174082
  0
ARC
  8
1
  6
CONTINUOUS
 10
113.9265026178
 20
175.0817172775
 40
1.499999999999986
 50
0.0
 51
90.0
  0
LINE
  8
1
  6
CONTINUOUS
 10
113.9265029273
 20
176.5817171884
 11
110.426503285
 21
176.5817171884
  0
LINE
  8
1
  6
CONTINUOUS
 10
115.7765044413
 20
171.5817173001
 11
115.7765044413
 21
175.0817174082
  0
ARC
  8
1
  6
CONTINUOUS
 10
113.9265026178
 20
171.5817172775
 40
1.849999999999994
 50
270.0
 51
8.802399983293652E-013
  0
LINE
  8
1
  6
CONTINUOUS
 10
110.426503285
 20
169.7317176488
 11
113.9265029273
 21
169.7317176488
  0
ARC
  8
1
  6
CONTINUOUS
 10
110.4265026178
 20
171.5817172775
 40
1.84999999999998
 50
179.9999999999991
 51
270.0
  0
ARC
  8
1
  6
CONTINUOUS
 10
110.4265026178
 20
175.0817172775001
 40
1.849999999999994
 50
90.0
 51
180.0000000000009
  0
LINE
  8
1
  6
CONTINUOUS
 10
113.9265029273
 20
176.9317170595
 11
110.426503285
 21
176.9317170595
  0
ARC
  8
1
  6
CONTINUOUS
 10
113.9265026178
 20
175.0817172775001
 40
1.84999999999998
 50
359.9999999999992
 51
90.0
  0
LINE
  8
1
  6
CONTINUOUS
 10
110.426503285
 20
170.0817170543
 11
113.9265029273
 21
170.0817170543
  0
LINE
  8
1
  6
CONTINUOUS
 10
108.576501771
 20
175.0817174082
 11
108.576501771
 21
171.5817173001
  0
ARC
  8
1
  6
CONTINUOUS
 10
110.4265026178
 20
167.0817172775
 40
1.500000000000057
 50
90.0
 51
179.9999999999989
  0
LINE
  8
1
  6
CONTINUOUS
 10
108.9265039704
 20
167.0817174939
 11
108.9265039704
 21
163.5817178515
  0
ARC
  8
1
  6
CONTINUOUS
 10
110.4265026178
 20
163.5817172775
 40
1.500000000000028
 50
180.0
 51
270.0
  0
LINE
  8
1
  6
CONTINUOUS
 10
110.426503285
 20
162.0817166743
 11
113.9265029273
 21
162.0817166743
  0
LINE
  8
1
  6
CONTINUOUS
 10
115.4265022419
 20
163.5817178515
 11
115.4265022419
 21
167.0817174939
  0
ARC
  8
1
  6
CONTINUOUS
 10
113.9265026178
 20
167.0817172775
 40
1.499999999999986
 50
0.0
 51
90.0
  0
LINE
  8
1
  6
CONTINUOUS
 10
113.9265029273
 20
168.5817177397
 11
110.426503285
 21
168.5817177397
  0
LINE
  8
1
  6
CONTINUOUS
 10
115.7765044413
 20
163.5817178515
 11
115.7765044413
 21
167.0817174939
  0
ARC
  8
1
  6
CONTINUOUS
 10
113.9265026178
 20
163.5817172775
 40
1.849999999999966
 50
270.0
 51
8.802399983293787E-013
  0
LINE
  8
1
  6
CONTINUOUS
 10
110.426503285
 20
161.7317182002
 11
113.9265029273
 21
161.7317182002
  0
ARC
  8
1
  6
CONTINUOUS
 10
110.4265026178
 20
163.5817172775
 40
1.84999999999998
 50
179.9999999999991
 51
270.0
  0
LINE
  8
1
  6
CONTINUOUS
 10
108.576501771
 20
167.0817174939
 11
108.576501771
 21
163.5817178515
  0
ARC
  8
1
  6
CONTINUOUS
 10
110.4265026178
 20
167.0817172775001
 40
1.849999999999994
 50
90.0
 51
180.0000000000009
  0
ARC
  8
1
  6
CONTINUOUS
 10
113.9265026178
 20
167.0817172775001
 40
1.84999999999998
 50
359.9999999999992
 51
90.0
  0
ARC
  8
1
  6
CONTINUOUS
 10
113.9265026178
 20
163.5817172775
 40
1.5
 50
270.0
 51
0.0
  0
LINE
  8
1
  6
CONTINUOUS
 10
113.9265029273
 20
168.9317171452
 11
110.426503285
 21
168.9317171452
  0
ARC
  8
1
  6
CONTINUOUS
 10
110.4265026178
 20
159.0817172775
 40
1.500000000000057
 50
90.0
 51
179.9999999999989
  0
LINE
  8
1
  6
CONTINUOUS
 10
108.9265039704
 20
159.0817180452
 11
108.9265039704
 21
155.5817165402
  0
ARC
  8
1
  6
CONTINUOUS
 10
110.4265026178
 20
155.5817172775001
 40
1.500000000000043
 50
180.0000000000011
 51
270.0
  0
LINE
  8
1
  6
CONTINUOUS
 10
110.426503285
 20
154.0817172256
 11
113.9265029273
 21
154.0817172256
  0
ARC
  8
1
  6
CONTINUOUS
 10
113.9265026178
 20
155.5817172775001
 40
1.500000000000057
 50
270.0
 51
359.9999999999989
  0
LINE
  8
1
  6
CONTINUOUS
 10
115.4265022419
 20
155.5817165402
 11
115.4265022419
 21
159.0817180452
  0
ARC
  8
1
  6
CONTINUOUS
 10
113.9265026178
 20
159.0817172775
 40
1.499999999999986
 50
0.0
 51
90.0
  0
LINE
  8
1
  6
CONTINUOUS
 10
113.9265029273
 20
160.5817173598
 11
110.426503285
 21
160.5817173598
  0
LINE
  8
1
  6
CONTINUOUS
 10
115.7765044413
 20
155.5817165402
 11
115.7765044413
 21
159.0817180452
  0
ARC
  8
1
  6
CONTINUOUS
 10
113.9265026178
 20
155.5817172775
 40
1.849999999999966
 50
270.0
 51
8.802399983293787E-013
  0
ARC
  8
1
  6
CONTINUOUS
 10
110.4265026178
 20
155.5817172775
 40
1.84999999999998
 50
179.9999999999991
 51
270.0
  0
LINE
  8
1
  6
CONTINUOUS
 10
108.576501771
 20
159.0817180452
 11
108.576501771
 21
155.5817165402
  0
ARC
  8
1
  6
CONTINUOUS
 10
110.4265026178
 20
159.0817172775001
 40
1.849999999999994
 50
90.0
 51
180.0000000000009
  0
LINE
  8
1
  6
CONTINUOUS
 10
113.9265029273
 20
160.9317176965
 11
110.426503285
 21
160.9317176965
  0
ARC
  8
1
  6
CONTINUOUS
 10
113.9265026178
 20
159.0817172775001
 40
1.84999999999998
 50
359.9999999999992
 51
90.0
  0
LINE
  8
1
  6
CONTINUOUS
 10
110.426503285
 20
153.7317168889
 11
113.9265029273
 21
153.7317168889
  0
ARC
  8
1
  6
CONTINUOUS
 10
110.4265026178
 20
151.0817172775
 40
1.500000000000057
 50
90.0
 51
179.9999999999989
  0
LINE
  8
1
  6
CONTINUOUS
 10
108.9265039704
 20
151.0817167339
 11
108.9265039704
 21
147.5817170915
  0
ARC
  8
1
  6
CONTINUOUS
 10
110.4265026178
 20
147.5817172775
 40
1.500000000000028
 50
180.0
 51
270.0
  0
LINE
  8
1
  6
CONTINUOUS
 10
110.426503285
 20
146.081717777
 11
113.9265029273
 21
146.081717777
  0
ARC
  8
1
  6
CONTINUOUS
 10
113.9265026178
 20
147.5817172775
 40
1.5
 50
270.0
 51
0.0
  0
LINE
  8
1
  6
CONTINUOUS
 10
115.4265022419
 20
147.5817170915
 11
115.4265022419
 21
151.0817167339
  0
ARC
  8
1
  6
CONTINUOUS
 10
113.9265026178
 20
151.0817172775
 40
1.499999999999986
 50
0.0
 51
90.0
  0
LINE
  8
1
  6
CONTINUOUS
 10
113.9265029273
 20
152.5817179111
 11
110.426503285
 21
152.5817179111
  0
LINE
  8
1
  6
CONTINUOUS
 10
115.7765044413
 20
147.5817170915
 11
115.7765044413
 21
151.0817167339
  0
ARC
  8
1
  6
CONTINUOUS
 10
113.9265026178
 20
147.5817172775
 40
1.849999999999994
 50
270.0
 51
8.802399983293652E-013
  0
LINE
  8
1
  6
CONTINUOUS
 10
110.426503285
 20
145.7317155776
 11
113.9265029273
 21
145.7317155776
  0
ARC
  8
1
  6
CONTINUOUS
 10
110.4265026178
 20
147.5817172775
 40
1.849999999999994
 50
179.9999999999991
 51
270.0
  0
LINE
  8
1
  6
CONTINUOUS
 10
108.576501771
 20
151.0817167339
 11
108.576501771
 21
147.5817170915
  0
ARC
  8
1
  6
CONTINUOUS
 10
110.4265026178
 20
151.0817172775001
 40
1.849999999999994
 50
90.0
 51
180.0000000000009
  0
LINE
  8
1
  6
CONTINUOUS
 10
113.9265029273
 20
152.9317163852
 11
110.426503285
 21
152.9317163852
  0
ARC
  8
1
  6
CONTINUOUS
 10
113.9265026178
 20
151.0817172775001
 40
1.84999999999998
 50
359.9999999999992
 51
90.0
  0
ARC
  8
1
  6
CONTINUOUS
 10
118.4265026178
 20
175.0817172775
 40
1.5
 50
90.0
 51
180.0
  0
LINE
  8
1
  6
CONTINUOUS
 10
116.9265015564
 20
175.0817174082
 11
116.9265015564
 21
171.5817173001
  0
ARC
  8
1
  6
CONTINUOUS
 10
118.4265026178
 20
171.5817172775
 40
1.5
 50
180.0
 51
270.0
  0
LINE
  8
1
  6
CONTINUOUS
 10
118.426500871
 20
170.0817170543
 11
121.9265042386
 21
170.0817170543
  0
ARC
  8
1
  6
CONTINUOUS
 10
121.9265026178
 20
171.5817172775
 40
1.500000000000028
 50
270.0
 51
0.0
  0
ARC
  8
1
  6
CONTINUOUS
 10
121.9265026178
 20
175.0817172775
 40
1.500000000000043
 50
1.085629331272850E-012
 51
90.0
  0
LINE
  8
1
  6
CONTINUOUS
 10
121.9265042386
 20
176.5817171884
 11
118.426500871
 21
176.5817171884
  0
LINE
  8
1
  6
CONTINUOUS
 10
123.7765020273
 20
171.5817173001
 11
123.7765020273
 21
175.0817174082
  0
ARC
  8
1
  6
CONTINUOUS
 10
121.9265026178
 20
171.5817172775
 40
1.849999999999994
 50
270.0
 51
8.802399983293652E-013
  0
LINE
  8
1
  6
CONTINUOUS
 10
118.426500871
 20
169.7317176488
 11
121.9265042386
 21
169.7317176488
  0
ARC
  8
1
  6
CONTINUOUS
 10
118.4265026178
 20
171.5817172775
 40
1.850000000000009
 50
180.0
 51
270.0
  0
LINE
  8
1
  6
CONTINUOUS
 10
116.5765030823
 20
175.0817174082
 11
116.5765030823
 21
171.5817173001
  0
ARC
  8
1
  6
CONTINUOUS
 10
118.4265026178
 20
175.0817172775001
 40
1.849999999999994
 50
90.0
 51
180.0000000000009
  0
LINE
  8
1
  6
CONTINUOUS
 10
121.9265042386
 20
176.9317170595
 11
118.426500871
 21
176.9317170595
  0
LINE
  8
1
  6
CONTINUOUS
 10
123.4265035532
 20
171.5817173001
 11
123.4265035532
 21
175.0817174082
  0
ARC
  8
1
  6
CONTINUOUS
 10
121.9265026178
 20
175.0817172775
 40
1.850000000000009
 50
0.0
 51
90.0
  0
ARC
  8
1
  6
CONTINUOUS
 10
118.4265026178
 20
167.0817172775
 40
1.5
 50
90.0
 51
180.0
  0
LINE
  8
1
  6
CONTINUOUS
 10
116.9265015564
 20
167.0817174939
 11
116.9265015564
 21
163.5817178515
  0
ARC
  8
1
  6
CONTINUOUS
 10
118.4265026178
 20
163.5817172775
 40
1.5
 50
180.0
 51
270.0
  0
LINE
  8
1
  6
CONTINUOUS
 10
118.426500871
 20
162.0817166743
 11
121.9265042386
 21
162.0817166743
  0
ARC
  8
1
  6
CONTINUOUS
 10
121.9265026178
 20
163.5817172775
 40
1.500000000000028
 50
270.0
 51
0.0
  0
LINE
  8
1
  6
CONTINUOUS
 10
123.4265035532
 20
163.5817178515
 11
123.4265035532
 21
167.0817174939
  0
ARC
  8
1
  6
CONTINUOUS
 10
121.9265026178
 20
167.0817172775
 40
1.500000000000043
 50
1.085629331272850E-012
 51
90.0
  0
LINE
  8
1
  6
CONTINUOUS
 10
121.9265042386
 20
168.5817177397
 11
118.426500871
 21
168.5817177397
  0
LINE
  8
1
  6
CONTINUOUS
 10
123.7765020273
 20
163.5817178515
 11
123.7765020273
 21
167.0817174939
  0
ARC
  8
1
  6
CONTINUOUS
 10
121.9265026178
 20
163.5817172775
 40
1.849999999999994
 50
270.0
 51
8.802399983293652E-013
  0
LINE
  8
1
  6
CONTINUOUS
 10
118.426500871
 20
161.7317182002
 11
121.9265042386
 21
161.7317182002
  0
ARC
  8
1
  6
CONTINUOUS
 10
118.4265026178
 20
163.5817172775
 40
1.850000000000009
 50
180.0
 51
270.0
  0
ARC
  8
1
  6
CONTINUOUS
 10
118.4265026178
 20
167.0817172775001
 40
1.849999999999994
 50
90.0
 51
180.0000000000009
  0
LINE
  8
1
  6
CONTINUOUS
 10
121.9265042386
 20
168.9317171452
 11
118.426500871
 21
168.9317171452
  0
LINE
  8
1
  6
CONTINUOUS
 10
116.5765030823
 20
167.0817174939
 11
116.5765030823
 21
163.5817178515
  0
ARC
  8
1
  6
CONTINUOUS
 10
121.9265026178
 20
167.0817172775
 40
1.850000000000009
 50
0.0
 51
90.0
  0
LINE
  8
1
  6
CONTINUOUS
 10
66.8515028014
 20
158.9067169455
 11
66.8515028014
 21
161.2567176101
  0
LINE
  8
1
  6
CONTINUOUS
 10
66.8515028014
 20
161.2567176101
 11
60.0015027962
 21
161.2567176101
  0
LINE
  8
1
  6
CONTINUOUS
 10
60.0015027962
 20
161.2567176101
 11
60.0015027962
 21
158.9067169455
  0
LINE
  8
1
  6
CONTINUOUS
 10
60.0015027962
 20
158.9067169455
 11
66.8515028014
 21
158.9067169455
  0
LINE
  8
1
  6
CONTINUOUS
 10
67.00150254660001
 20
161.406716424
 11
59.851503051
 21
161.406716424
  0
LINE
  8
1
  6
CONTINUOUS
 10
67.00150254660001
 20
158.7567181316
 11
67.00150254660001
 21
161.406716424
  0
LINE
  8
1
  6
CONTINUOUS
 10
59.851503051
 20
158.7567181316
 11
67.00150254660001
 21
158.7567181316
  0
LINE
  8
1
  6
CONTINUOUS
 10
59.851503051
 20
161.406716424
 11
59.851503051
 21
158.7567181316
  0
LINE
  8
1
  6
CONTINUOUS
 10
77.35150265990001
 20
158.9067169455
 11
77.35150265990001
 21
161.2567176101
  0
LINE
  8
1
  6
CONTINUOUS
 10
77.35150265990001
 20
161.2567176101
 11
70.50150265470001
 21
161.2567176101
  0
LINE
  8
1
  6
CONTINUOUS
 10
70.50150265470001
 20
158.9067169455
 11
77.35150265990001
 21
158.9067169455
  0
LINE
  8
1
  6
CONTINUOUS
 10
77.5015026379
 20
161.406716424
 11
70.3515024438
 21
161.406716424
  0
LINE
  8
1
  6
CONTINUOUS
 10
77.5015026379
 20
158.7567181316
 11
77.5015026379
 21
161.406716424
  0
LINE
  8
1
  6
CONTINUOUS
 10
70.3515024438
 20
158.7567181316
 11
77.5015026379
 21
158.7567181316
  0
LINE
  8
1
  6
CONTINUOUS
 10
70.3515024438
 20
161.406716424
 11
70.3515024438
 21
158.7567181316
  0
LINE
  8
1
  6
CONTINUOUS
 10
70.50150265470001
 20
161.2567176101
 11
70.50150265470001
 21
158.9067169455
  0
LINE
  8
1
  6
CONTINUOUS
 10
72.10150273070001
 20
162.6567170945
 11
72.10150273070001
 21
165.0067177591
  0
LINE
  8
1
  6
CONTINUOUS
 10
72.10150273070001
 20
165.0067177591
 11
65.25150225980001
 21
165.0067177591
  0
LINE
  8
1
  6
CONTINUOUS
 10
65.25150225980001
 20
165.0067177591
 11
65.25150225980001
 21
162.6567170945
  0
LINE
  8
1
  6
CONTINUOUS
 10
65.25150225980001
 20
162.6567170945
 11
72.10150273070001
 21
162.6567170945
  0
LINE
  8
1
  6
CONTINUOUS
 10
72.2515027087
 20
165.156716573
 11
65.1015025146
 21
165.156716573
  0
LINE
  8
1
  6
CONTINUOUS
 10
72.2515027087
 20
162.506716418
 11
72.2515027087
 21
165.156716573
  0
LINE
  8
1
  6
CONTINUOUS
 10
65.1015025146
 20
162.506716418
 11
72.2515027087
 21
162.506716418
  0
LINE
  8
1
  6
CONTINUOUS
 10
65.1015025146
 20
165.156716573
 11
65.1015025146
 21
162.506716418
  0
LINE
  8
1
  6
CONTINUOUS
 10
125.926501169
 20
147.7067154822
 11
125.926501169
 21
145.956715661
  0
LINE
  8
1
  6
CONTINUOUS
 10
126.1765016756
 20
145.956715661
 11
126.1765016756
 21
147.7067154822
  0
LINE
  8
1
  6
CONTINUOUS
 10
126.1765016756
 20
147.7067154822
 11
125.926501169
 21
147.7067154822
  0
LINE
  8
1
  6
CONTINUOUS
 10
126.4265021823
 20
147.9567159888
 11
125.926501169
 21
147.9567159888
  0
LINE
  8
1
  6
CONTINUOUS
 10
126.4265021823
 20
145.7067188797
 11
126.4265021823
 21
147.9567159888
  0
LINE
  8
1
  6
CONTINUOUS
 10
125.926501169
 20
145.7067188797
 11
126.4265021823
 21
145.7067188797
  0
LINE
  8
1
  6
CONTINUOUS
 10
125.926501169
 20
145.3317162571
 11
125.926501169
 21
145.7067188797
  0
LINE
  8
1
  6
CONTINUOUS
 10
125.6765043877
 20
145.3317162571
 11
125.926501169
 21
145.3317162571
  0
LINE
  8
1
  6
CONTINUOUS
 10
125.6765043877
 20
148.3317186114
 11
125.6765043877
 21
145.3317162571
  0
LINE
  8
1
  6
CONTINUOUS
 10
125.926501169
 20
148.3317186114
 11
125.6765043877
 21
148.3317186114
  0
LINE
  8
1
  6
CONTINUOUS
 10
125.926501169
 20
147.9567159888
 11
125.926501169
 21
148.3317186114
  0
LINE
  8
1
  6
CONTINUOUS
 10
125.926501169
 20
145.956715661
 11
126.1765016756
 21
145.956715661
  0
LINE
  8
1
  6
CONTINUOUS
 10
125.926501169
 20
156.4567164508
 11
126.6765026889
 21
156.4567164508
  0
LINE
  8
1
  6
CONTINUOUS
 10
126.6765026889
 20
156.4567164508
 11
126.6765026889
 21
158.2067181346
  0
LINE
  8
1
  6
CONTINUOUS
 10
126.6765026889
 20
158.2067181346
 11
125.926501169
 21
158.2067181346
  0
LINE
  8
1
  6
CONTINUOUS
 10
125.926501169
 20
158.2067181346
 11
125.926501169
 21
156.4567164508
  0
LINE
  8
1
  6
CONTINUOUS
 10
125.926501169
 20
158.4567167786
 11
125.926501169
 21
158.8317175386
  0
LINE
  8
1
  6
CONTINUOUS
 10
126.9265031956
 20
158.4567167786
 11
125.926501169
 21
158.4567167786
  0
LINE
  8
1
  6
CONTINUOUS
 10
126.9265031956
 20
156.2067178068
 11
126.9265031956
 21
158.4567167786
  0
LINE
  8
1
  6
CONTINUOUS
 10
125.926501169
 20
156.2067178068
 11
126.9265031956
 21
156.2067178068
  0
LINE
  8
1
  6
CONTINUOUS
 10
125.926501169
 20
155.8317170468
 11
125.926501169
 21
156.2067178068
  0
LINE
  8
1
  6
CONTINUOUS
 10
125.6765043877
 20
155.8317170468
 11
125.926501169
 21
155.8317170468
  0
LINE
  8
1
  6
CONTINUOUS
 10
125.6765043877
 20
158.8317175386
 11
125.6765043877
 21
155.8317170468
  0
LINE
  8
1
  6
CONTINUOUS
 10
125.926501169
 20
158.8317175386
 11
125.6765043877
 21
158.8317175386
  0
CIRCLE
  8
1
  6
CONTINUOUS
 10
126.6765026178
 20
173.8317172775
 40
0.6250000000000142
  0
LINE
  8
1
  6
CONTINUOUS
 10
127.1140007816
 20
177.0894896229
 11
126.9890023909
 21
176.8729832013
  0
ARC
  8
1
  6
CONTINUOUS
 10
126.6765026178
 20
176.3317172775
 40
0.8749999999999845
 50
278.2132107017008
 51
60.00000000000073
  0
LINE
  8
1
  6
CONTINUOUS
 10
126.8015010796
 20
174.6977428896
 11
126.8015010796
 21
175.4656919268
  0
ARC
  8
1
  6
CONTINUOUS
 10
126.6765026178
 20
173.8317172775
 40
0.8750000000000106
 50
98.21321070169955
 51
81.78678929829954
  0
LINE
  8
1
  6
CONTINUOUS
 10
126.5515042983
 20
175.4656919268
 11
126.5515042983
 21
174.6977428896
  0
ARC
  8
1
  6
CONTINUOUS
 10
126.6765026178
 20
176.3317172775
 40
0.8749999999999767
 50
119.9999999999977
 51
261.786789298302
  0
LINE
  8
1
  6
CONTINUOUS
 10
126.364002987
 20
176.8729832013
 11
126.239000871
 21
177.0894896229
  0
ARC
  8
1
  6
CONTINUOUS
 10
126.6765026178
 20
176.3317172775
 40
0.625000000000002
 50
119.9999999999999
 51
60.00000000000011
  0
CIRCLE
  8
1
  6
CONTINUOUS
 10
126.6765026178
 20
178.8317172775
 40
0.6250000000000142
  0
LINE
  8
1
  6
CONTINUOUS
 10
126.8015010796
 20
176.8158400421
 11
126.8015010796
 21
177.9656918709
  0
ARC
  8
1
  6
CONTINUOUS
 10
126.6765026178
 20
176.3317172775
 40
0.4999999999999794
 50
104.4775121859003
 51
75.52248781409975
  0
LINE
  8
1
  6
CONTINUOUS
 10
126.5515042983
 20
177.9656918709
 11
126.5515042983
 21
176.8158400421
  0
ARC
  8
1
  6
CONTINUOUS
 10
126.6765026178
 20
178.8317172775
 40
0.8749999999999825
 50
278.2132107016998
 51
261.7867892983002
  0
LINE
  8
1
  6
CONTINUOUS
 10
59.25150220760001
 20
158.4067177949
 11
78.10150255000001
 21
158.4067177949
  0
LINE
  8
1
  6
CONTINUOUS
 10
78.10150255000001
 20
158.4067177949
 11
78.10150255000001
 21
169.2567170587
  0
LINE
  8
1
  6
CONTINUOUS
 10
78.10150255000001
 20
169.2567170587
 11
59.25150220760001
 21
169.2567170587
  0
LINE
  8
1
  6
CONTINUOUS
 10
59.25150220760001
 20
169.2567170587
 11
59.25150220760001
 21
158.4067177949
  0
LINE
  8
1
  6
CONTINUOUS
 10
78.251502528
 20
158.2567171184
 11
78.251502528
 21
169.4067177353
  0
LINE
  8
1
  6
CONTINUOUS
 10
59.1015024624
 20
158.2567171184
 11
78.251502528
 21
158.2567171184
  0
LINE
  8
1
  6
CONTINUOUS
 10
78.251502528
 20
169.4067177353
 11
59.1015024624
 21
169.4067177353
  0
LINE
  8
1
  6
CONTINUOUS
 10
59.1015024624
 20
169.4067177353
 11
59.1015024624
 21
158.2567171184
  0
LINE
  8
1
  6
CONTINUOUS
 10
66.8515028014
 20
166.4067172435
 11
66.8515028014
 21
168.7567169768
  0
LINE
  8
1
  6
CONTINUOUS
 10
66.8515028014
 20
168.7567169768
 11
60.0015027962
 21
168.7567169768
  0
LINE
  8
1
  6
CONTINUOUS
 10
60.0015027962
 20
168.7567169768
 11
60.0015027962
 21
166.4067172435
  0
LINE
  8
1
  6
CONTINUOUS
 10
60.0015027962
 20
166.4067172435
 11
66.8515028014
 21
166.4067172435
  0
LINE
  8
1
  6
CONTINUOUS
 10
67.00150254660001
 20
168.9067176533
 11
59.851503051
 21
168.9067176533
  0
LINE
  8
1
  6
CONTINUOUS
 10
67.00150254660001
 20
166.2567174983
 11
67.00150254660001
 21
168.9067176533
  0
LINE
  8
1
  6
CONTINUOUS
 10
59.851503051
 20
166.2567174983
 11
67.00150254660001
 21
166.2567174983
  0
LINE
  8
1
  6
CONTINUOUS
 10
59.851503051
 20
168.9067176533
 11
59.851503051
 21
166.2567174983
  0
LINE
  8
1
  6
CONTINUOUS
 10
70.50150265470001
 20
168.7567169768
 11
70.50150265470001
 21
166.4067172435
  0
LINE
  8
1
  6
CONTINUOUS
 10
77.5015026379
 20
168.9067176533
 11
70.3515024438
 21
168.9067176533
  0
LINE
  8
1
  6
CONTINUOUS
 10
77.5015026379
 20
166.2567174983
 11
77.5015026379
 21
168.9067176533
  0
LINE
  8
1
  6
CONTINUOUS
 10
70.3515024438
 20
166.2567174983
 11
77.5015026379
 21
166.2567174983
  0
LINE
  8
1
  6
CONTINUOUS
 10
70.3515024438
 20
168.9067176533
 11
70.3515024438
 21
166.2567174983
  0
LINE
  8
1
  6
CONTINUOUS
 10
77.35150265990001
 20
168.7567169768
 11
70.50150265470001
 21
168.7567169768
  0
LINE
  8
1
  6
CONTINUOUS
 10
77.35150265990001
 20
166.4067172435
 11
77.35150265990001
 21
168.7567169768
  0
LINE
  8
1
  6
CONTINUOUS
 10
70.50150265470001
 20
166.4067172435
 11
77.35150265990001
 21
166.4067172435
  0
ARC
  8
1
  6
CONTINUOUS
 10
97.92650261779998
 20
196.8692362412
 40
0.9999999999999716
 50
90.0
 51
180.0000000000016
  0
LINE
  8
1
  6
CONTINUOUS
 10
96.92650200350001
 20
196.8692365092
 11
96.92650200350001
 21
195.7941987542
  0
ARC
  8
1
  6
CONTINUOUS
 10
97.92650261779998
 20
195.7941983138
 40
0.9999999999999858
 50
179.9999999999984
 51
270.0
  0
LINE
  8
1
  6
CONTINUOUS
 10
97.9265021674
 20
194.7941985902
 11
102.4265019737
 21
194.7941985902
  0
ARC
  8
1
  6
CONTINUOUS
 10
102.4265026178
 20
195.7941983138
 40
0.9999999999999716
 50
270.0
 51
1.628443996909367E-012
  0
LINE
  8
1
  6
CONTINUOUS
 10
103.4265021376
 20
195.7941987542
 11
103.4265021376
 21
196.8692365092
  0
ARC
  8
1
  6
CONTINUOUS
 10
102.4265026178
 20
196.8692362412
 40
0.9999999999999858
 50
359.9999999999984
 51
90.0
  0
LINE
  8
1
  6
CONTINUOUS
 10
102.4265019737
 20
197.8692357418
 11
97.9265021674
 21
197.8692357418
  0
LINE
  8
1
  6
CONTINUOUS
 10
103.7765024744
 20
195.7941987542
 11
103.7765024744
 21
196.8692365092
  0
ARC
  8
1
  6
CONTINUOUS
 10
102.4265026178
 20
195.7941983138
 40
1.350000000000023
 50
270.0
 51
0.0
  0
LINE
  8
1
  6
CONTINUOUS
 10
97.9265021674
 20
194.4441982535
 11
102.4265019737
 21
194.4441982535
  0
ARC
  8
1
  6
CONTINUOUS
 10
97.92650261779998
 20
195.7941983138
 40
1.34999999999998
 50
179.9999999999988
 51
270.0
  0
LINE
  8
1
  6
CONTINUOUS
 10
96.5765035294
 20
196.8692365092
 11
96.5765035294
 21
195.7941987542
  0
ARC
  8
1
  6
CONTINUOUS
 10
97.92650261779998
 20
196.8692362412
 40
1.350000000000023
 50
90.0
 51
180.0
  0
LINE
  8
1
  6
CONTINUOUS
 10
102.4265019737
 20
198.2192360786
 11
97.9265021674
 21
198.2192360786
  0
ARC
  8
1
  6
CONTINUOUS
 10
102.4265026178
 20
196.8692362412
 40
1.350000000000009
 50
0.0
 51
90.0
  0
LINE
  8
1
  6
CONTINUOUS
 10
100.3015032552
 20
199.6567175713
 11
100.6765021525
 21
199.6567175713
  0
LINE
  8
1
  6
CONTINUOUS
 10
100.3015032552
 20
198.7817176608
 11
100.3015032552
 21
199.6567175713
  0
LINE
  8
1
  6
CONTINUOUS
 10
100.0515027485
 20
198.7817176608
 11
100.3015032552
 21
198.7817176608
  0
LINE
  8
1
  6
CONTINUOUS
 10
100.0515027485
 20
199.906718078
 11
100.0515027485
 21
198.7817176608
  0
LINE
  8
1
  6
CONTINUOUS
 10
100.6765021525
 20
199.906718078
 11
100.0515027485
 21
199.906718078
  0
LINE
  8
1
  6
CONTINUOUS
 10
100.6765021525
 20
199.6567175713
 11
100.6765021525
 21
199.906718078
  0
LINE
  8
1
  6
CONTINUOUS
 10
103.7765024744
 20
187.7941983742
 11
103.7765024744
 21
188.8692361293
  0
ARC
  8
1
  6
CONTINUOUS
 10
97.92650261779998
 20
188.8692362412
 40
1.350000000000023
 50
90.0
 51
180.0
  0
ARC
  8
1
  6
CONTINUOUS
 10
102.4265026178
 20
188.8692362412
 40
0.9999999999999858
 50
359.9999999999984
 51
90.0
  0
LINE
  8
1
  6
CONTINUOUS
 10
97.9265021674
 20
186.4441983392
 11
102.4265019737
 21
186.4441983392
  0
ARC
  8
1
  6
CONTINUOUS
 10
97.92650261779998
 20
187.7941983138
 40
1.34999999999998
 50
179.9999999999988
 51
270.0
  0
LINE
  8
1
  6
CONTINUOUS
 10
96.5765035294
 20
188.8692361293
 11
96.5765035294
 21
187.7941983742
  0
LINE
  8
1
  6
CONTINUOUS
 10
102.4265019737
 20
190.2192366299
 11
97.9265021674
 21
190.2192366299
  0
ARC
  8
1
  6
CONTINUOUS
 10
102.4265026178
 20
188.8692362412
 40
1.350000000000009
 50
0.0
 51
90.0
  0
LINE
  8
1
  6
CONTINUOUS
 10
97.9265021674
 20
186.7941982103
 11
102.4265019737
 21
186.7941982103
  0
LINE
  8
1
  6
CONTINUOUS
 10
96.92650200350001
 20
188.8692361293
 11
96.92650200350001
 21
187.7941983742
  0
ARC
  8
1
  6
CONTINUOUS
 10
102.4265026178
 20
187.7941983138
 40
1.350000000000023
 50
270.0
 51
0.0
  0
LINE
  8
1
  6
CONTINUOUS
 10
102.4265019737
 20
189.8692362932
 11
97.9265021674
 21
189.8692362932
  0
ARC
  8
1
  6
CONTINUOUS
 10
97.92650261779998
 20
187.7941983138
 40
0.9999999999999858
 50
179.9999999999984
 51
270.0
  0
ARC
  8
1
  6
CONTINUOUS
 10
97.92650261779998
 20
188.8692362412
 40
0.9999999999999716
 50
90.0
 51
180.0000000000016
  0
ARC
  8
1
  6
CONTINUOUS
 10
102.4265026178
 20
187.7941983138
 40
0.9999999999999716
 50
270.0
 51
1.628443996909367E-012
  0
LINE
  8
1
  6
CONTINUOUS
 10
103.4265021376
 20
187.7941983742
 11
103.4265021376
 21
188.8692361293
  0
LINE
  8
1
  6
CONTINUOUS
 10
113.6765024207
 20
201.3817169693
 11
46.7765024445
 21
201.3817169693
  0
LINE
  8
1
  6
CONTINUOUS
 10
45.27650313
 20
199.8817176548
 11
45.27650313
 21
181.2817172775
  0
LINE
  8
1
  6
CONTINUOUS
 10
88.0765030674
 20
179.781717224
 11
94.1765020184
 21
184.3317172946
  0
CIRCLE
  8
1
  6
CONTINUOUS
 10
120.1765026178
 20
180.8317172775
 40
1.25
  0
ARC
  8
1
  6
CONTINUOUS
 10
113.6765026178
 20
185.8317172775
 40
1.5
 50
270.0
 51
0.0
  0
ARC
  8
1
  6
CONTINUOUS
 10
113.6765026178
 20
199.8817172775
 40
1.499999999999986
 50
0.0
 51
90.0
  0
ARC
  8
1
  6
CONTINUOUS
 10
46.77650261779998
 20
181.2817172775
 40
1.499999999999986
 50
179.9999999999989
 51
270.0
  0
LINE
  8
1
  6
CONTINUOUS
 10
46.7765024445
 20
179.781717224
 11
88.0765030674
 21
179.781717224
  0
LINE
  8
1
  6
CONTINUOUS
 10
115.1765017353
 20
185.8317173076
 11
115.1765017353
 21
199.8817176548
  0
ARC
  8
1
  6
CONTINUOUS
 10
46.77650261779998
 20
199.8817172775
 40
1.499999999999972
 50
90.0
 51
180.0000000000011
  0
LINE
  8
1
  6
CONTINUOUS
 10
94.1765020184
 20
184.3317172946
 11
113.6765024207
 21
184.3317172946
  0
LINE
  8
1
  6
CONTINUOUS
 10
108.3015008412
 20
198.7817176608
 11
108.3015008412
 21
199.906718078
  0
LINE
  8
1
  6
CONTINUOUS
 10
108.0515040598
 20
199.6567175713
 11
108.0515040598
 21
198.7817176608
  0
LINE
  8
1
  6
CONTINUOUS
 10
107.6765014372
 20
199.6567175713
 11
108.0515040598
 21
199.6567175713
  0
LINE
  8
1
  6
CONTINUOUS
 10
108.0515040598
 20
198.7817176608
 11
108.3015008412
 21
198.7817176608
  0
LINE
  8
1
  6
CONTINUOUS
 10
107.6765014372
 20
199.906718078
 11
107.6765014372
 21
199.6567175713
  0
LINE
  8
1
  6
CONTINUOUS
 10
108.3015008412
 20
199.906718078
 11
107.6765014372
 21
199.906718078
  0
ARC
  8
1
  6
CONTINUOUS
 10
110.4265026178
 20
196.8692362412
 40
1.350000000000009
 50
0.0
 51
90.0
  0
LINE
  8
1
  6
CONTINUOUS
 10
105.926501616
 20
194.4441982535
 11
110.426503285
 21
194.4441982535
  0
LINE
  8
1
  6
CONTINUOUS
 10
105.926501616
 20
194.7941985902
 11
110.426503285
 21
194.7941985902
  0
ARC
  8
1
  6
CONTINUOUS
 10
110.4265026178
 20
195.7941983138
 40
1.350000000000023
 50
270.0
 51
0.0
  0
LINE
  8
1
  6
CONTINUOUS
 10
111.7765037857
 20
195.7941987542
 11
111.7765037857
 21
196.8692365092
  0
LINE
  8
1
  6
CONTINUOUS
 10
104.576502978
 20
196.8692365092
 11
104.576502978
 21
195.7941987542
  0
LINE
  8
1
  6
CONTINUOUS
 10
110.426503285
 20
198.2192360786
 11
105.926501616
 21
198.2192360786
  0
ARC
  8
1
  6
CONTINUOUS
 10
105.9265026178
 20
196.8692362412
 40
1.350000000000023
 50
90.0
 51
180.0
  0
ARC
  8
1
  6
CONTINUOUS
 10
110.4265026178
 20
195.7941983138
 40
0.9999999999999716
 50
270.0
 51
1.628443996909367E-012
  0
ARC
  8
1
  6
CONTINUOUS
 10
105.9265026178
 20
196.8692362412
 40
0.9999999999999716
 50
90.0
 51
180.0000000000016
  0
LINE
  8
1
  6
CONTINUOUS
 10
110.426503285
 20
197.8692357418
 11
105.926501616
 21
197.8692357418
  0
ARC
  8
1
  6
CONTINUOUS
 10
110.4265026178
 20
196.8692362412
 40
0.9999999999999858
 50
359.9999999999984
 51
90.0
  0
ARC
  8
1
  6
CONTINUOUS
 10
105.9265026178
 20
195.7941983138
 40
1.34999999999998
 50
179.9999999999988
 51
270.0
  0
LINE
  8
1
  6
CONTINUOUS
 10
111.4265015862
 20
195.7941987542
 11
111.4265015862
 21
196.8692365092
  0
ARC
  8
1
  6
CONTINUOUS
 10
105.9265026178
 20
195.7941983138
 40
0.9999999999999858
 50
179.9999999999984
 51
270.0
  0
LINE
  8
1
  6
CONTINUOUS
 10
104.9265033148
 20
196.8692365092
 11
104.9265033148
 21
195.7941987542
  0
LINE
  8
1
  6
CONTINUOUS
 10
51.7765032641
 20
181.7817172608
 11
86.0765027396
 21
181.7817172608
  0
LINE
  8
1
  6
CONTINUOUS
 10
51.7765032641
 20
199.3817166415
 11
51.7765032641
 21
181.7817172608
  0
LINE
  8
1
  6
CONTINUOUS
 10
86.0765027396
 20
199.3817166415
 11
51.7765032641
 21
199.3817166415
  0
LINE
  8
1
  6
CONTINUOUS
 10
86.0765027396
 20
181.7817172608
 11
86.0765027396
 21
199.3817166415
  0
LINE
  8
3
  6
CONTINUOUS
 10
173.3597588911
 20
158.4817172018
 11
173.3597591623
 21
219.5817177174
  0
LINE
  8
1
  6
CONTINUOUS
 10
170.2007350697
 20
210.5817181048
 11
164.5187837723
 21
210.5817181048
  0
LINE
  8
1
  6
CONTINUOUS
 10
176.4972589164
 20
220.1817166981
 11
176.4972589164
 21
219.5817177174
  0
LINE
  8
1
  6
CONTINUOUS
 10
182.722259052
 20
219.5817177174
 11
182.722259052
 21
220.1817166981
  0
LINE
  8
1
  6
CONTINUOUS
 10
177.6097591221
 20
225.5817187009
 11
177.6097591221
 21
220.1817166981
  0
LINE
  8
1
  6
CONTINUOUS
 10
181.6097588464
 20
220.1817166981
 11
181.6097588464
 21
225.5817187009
  0
LINE
  8
1
  6
CONTINUOUS
 10
178.6097583547
 20
139.5817157802
 11
178.8597588613
 21
137.0817181644
  0
LINE
  8
1
  6
CONTINUOUS
 10
182.859759517
 20
137.0817181644
 11
183.1097600236
 21
139.5817157802
  0
LINE
  8
1
  6
CONTINUOUS
 10
163.6097591556
 20
139.5817157802
 11
163.8597591966
 21
137.0817181644
  0
LINE
  8
1
  6
CONTINUOUS
 10
167.8597593866
 20
137.0817181644
 11
168.1097589619
 21
139.5817157802
  0
LINE
  8
1
  6
CONTINUOUS
 10
185.609759502
 20
207.3317171064
 11
188.1097589805
 21
207.5817176131
  0
LINE
  8
1
  6
CONTINUOUS
 10
188.1097589805
 20
211.5817164061
 11
185.609759502
 21
211.8317169127
  0
LINE
  8
1
  6
CONTINUOUS
 10
185.609759502
 20
147.3317165849
 11
188.1097589805
 21
147.5817170915
  0
LINE
  8
1
  6
CONTINUOUS
 10
188.1097589805
 20
151.5817177472
 11
185.609759502
 21
151.8317163912
  0
LINE
  8
1
  6
CONTINUOUS
 10
161.1097592115
 20
149.0817164061
 11
161.05975918
 21
149.0817164061
  0
LINE
  8
1
  6
CONTINUOUS
 10
161.05975918
 20
145.0817157504
 11
161.1097592115
 21
145.0817157504
  0
LINE
  8
1
  6
CONTINUOUS
 10
167.2347590513
 20
155.0567169664
 11
167.2347590513
 21
149.0567159829
  0
LINE
  8
1
  6
CONTINUOUS
 10
173.2347595691
 20
149.0567159829
 11
173.2347595691
 21
155.0567169664
  0
LINE
  8
1
  6
CONTINUOUS
 10
167.2347590513
 20
149.0567159829
 11
173.2347595691
 21
149.0567159829
  0
LINE
  8
1
  6
CONTINUOUS
 10
173.2347595691
 20
155.0567169664
 11
167.2347590513
 21
155.0567169664
  0
LINE
  8
1
  6
CONTINUOUS
 10
165.8347591012
 20
156.4567164508
 11
165.8347591012
 21
147.6567183611
  0
LINE
  8
1
  6
CONTINUOUS
 10
174.6347590535
 20
156.4567164508
 11
165.8347591012
 21
156.4567164508
  0
LINE
  8
1
  6
CONTINUOUS
 10
174.6347590535
 20
147.6567183611
 11
174.6347590535
 21
156.4567164508
  0
LINE
  8
1
  6
CONTINUOUS
 10
165.8347591012
 20
147.6567183611
 11
174.6347590535
 21
147.6567183611
  0
LINE
  8
1
  6
CONTINUOUS
 10
173.9222590997
 20
174.0817172443
 11
179.4722599163
 21
174.0817172443
  0
LINE
  8
1
  6
CONTINUOUS
 10
173.9722590148
 20
173.8317172033
 11
173.9722590148
 21
178.8317173244
  0
CIRCLE
  8
1
  6
CONTINUOUS
 10
177.2222591623
 20
176.3317172775
 40
1.624999999999972
  0
LINE
  8
1
  6
CONTINUOUS
 10
173.9222590997
 20
178.5817172834
 11
179.4722599163
 21
178.5817172834
  0
LINE
  8
1
  6
CONTINUOUS
 10
179.4722599163
 20
174.0817172443
 11
179.4722599163
 21
178.5817172834
  0
CIRCLE
  8
1
  6
CONTINUOUS
 10
177.2222591623
 20
176.3317172775
 40
0.75
  0
LINE
  8
1
  6
CONTINUOUS
 10
173.9222590997
 20
175.5817174901
 11
173.9722590148
 21
175.5817174901
  0
LINE
  8
1
  6
CONTINUOUS
 10
173.9222590997
 20
177.0817172703
 11
173.9722590148
 21
177.0817172703
  0
LINE
  8
1
  6
CONTINUOUS
 10
176.2222589179
 20
174.0817172443
 11
176.2222589179
 21
173.8317172033
  0
LINE
  8
1
  6
CONTINUOUS
 10
173.9222590997
 20
175.4567172368
 11
173.9722590148
 21
175.4567172368
  0
LINE
  8
1
  6
CONTINUOUS
 10
173.9222590997
 20
177.206717058
 11
173.9722590148
 21
177.206717058
  0
LINE
  8
1
  6
CONTINUOUS
 10
173.9222590997
 20
178.5817172834
 11
173.9222590997
 21
174.0817172443
  0
LINE
  8
1
  6
CONTINUOUS
 10
172.9422907531
 20
208.305573183
 11
172.9422907531
 21
208.3590050218
  0
LINE
  8
1
  6
CONTINUOUS
 10
172.9422907531
 20
208.305573183
 11
170.3597593307
 21
208.305573183
  0
LINE
  8
1
  6
CONTINUOUS
 10
172.9422907531
 20
208.3590050218
 11
170.3597593307
 21
208.3590050218
  0
LINE
  8
1
  6
CONTINUOUS
 10
161.7772273905
 20
208.3590050218
 11
164.3597592785
 21
208.3590050218
  0
LINE
  8
1
  6
CONTINUOUS
 10
161.7772273905
 20
208.3590050218
 11
167.3597593046
 21
218.0193942961
  0
LINE
  8
1
  6
CONTINUOUS
 10
170.7772274687
 20
209.6078620282
 11
170.3597593307
 21
209.6078620282
  0
LINE
  8
1
  6
CONTINUOUS
 10
167.3597593046
 20
215.5216802833
 11
170.272045508
 21
210.482062864
  0
LINE
  8
1
  6
CONTINUOUS
 10
170.3597593307
 20
210.3302777735
 11
170.7772274687
 21
209.6078620282
  0
LINE
  8
1
  6
CONTINUOUS
 10
163.9422909077
 20
209.6078620282
 11
164.3597592785
 21
210.3302777735
  0
LINE
  8
1
  6
CONTINUOUS
 10
164.4474724028
 20
210.482062864
 11
167.3597593046
 21
215.5216802833
  0
LINE
  8
1
  6
CONTINUOUS
 10
163.9422909077
 20
209.6078620282
 11
164.3597592785
 21
209.6078620282
  0
LINE
  8
1
  6
CONTINUOUS
 10
167.3597593046
 20
218.0193942961
 11
172.9422907531
 21
208.3590050218
  0
LINE
  8
1
  6
CONTINUOUS
 10
161.7772273905
 20
208.305573183
 11
164.3597592785
 21
208.305573183
  0
LINE
  8
1
  6
CONTINUOUS
 10
161.7772273905
 20
208.305573183
 11
161.7772273905
 21
208.3590050218
  0
LINE
  8
1
  6
CONTINUOUS
 10
167.3597593046
 20
215.4682484445
 11
170.1835801079
 21
210.5817181048
  0
LINE
  8
1
  6
CONTINUOUS
 10
170.3597593307
 20
210.2768459347
 11
170.7463504001
 21
209.6078620282
  0
LINE
  8
1
  6
CONTINUOUS
 10
167.3597593046
 20
215.4682484445
 11
167.3597593046
 21
215.5216802833
  0
LINE
  8
1
  6
CONTINUOUS
 10
163.9731683255
 20
209.6078620282
 11
164.3597592785
 21
210.2768459347
  0
LINE
  8
1
  6
CONTINUOUS
 10
164.5359382685
 20
210.5817181048
 11
167.3597593046
 21
215.4682484445
  0
LINE
  8
1
  6
CONTINUOUS
 10
164.3597592785
 20
206.5817174492
 11
170.3597593307
 21
206.5817174492
  0
LINE
  8
1
  6
CONTINUOUS
 10
164.3597592785
 20
197.5817178366
 11
164.3597592785
 21
210.482062864
  0
LINE
  8
1
  6
CONTINUOUS
 10
170.3597593307
 20
197.5817178366
 11
170.3597593307
 21
210.482062864
  0
LINE
  8
1
  6
CONTINUOUS
 10
164.3597592785
 20
197.5817178366
 11
170.3597593307
 21
197.5817178366
  0
LINE
  8
1
  6
CONTINUOUS
 10
176.4972589164
 20
220.1817166981
 11
182.722259052
 21
220.1817166981
  0
LINE
  8
1
  6
CONTINUOUS
 10
177.6097591221
 20
225.5817187009
 11
181.6097588464
 21
225.5817187009
  0
CIRCLE
  8
1
  6
CONTINUOUS
 10
175.1097591623
 20
165.5817172775
 40
1.375
  0
CIRCLE
  8
1
  6
CONTINUOUS
 10
175.1097591623
 20
165.5817172775
 40
1.5
  0
CIRCLE
  8
1
  6
CONTINUOUS
 10
167.3597591623
 20
204.5817172775
 40
1.375
  0
CIRCLE
  8
1
  6
CONTINUOUS
 10
167.3597591623
 20
204.5817172775
 40
1.5
  0
CIRCLE
  8
1
  6
CONTINUOUS
 10
175.1097591623
 20
213.0817172775
 40
1.375
  0
CIRCLE
  8
1
  6
CONTINUOUS
 10
175.1097591623
 20
213.0817172775
 40
1.5
  0
CIRCLE
  8
1
  6
CONTINUOUS
 10
167.3597591623
 20
200.5817172775
 40
1.375
  0
CIRCLE
  8
1
  6
CONTINUOUS
 10
167.3597591623
 20
200.5817172775
 40
1.5
  0
LINE
  8
1
  6
CONTINUOUS
 10
178.8597588613
 20
137.0817181644
 11
182.859759517
 21
137.0817181644
  0
LINE
  8
1
  6
CONTINUOUS
 10
163.8597591966
 20
137.0817181644
 11
167.8597593866
 21
137.0817181644
  0
LINE
  8
1
  6
CONTINUOUS
 10
188.1097589805
 20
207.5817176131
 11
188.1097589805
 21
211.5817164061
  0
LINE
  8
1
  6
CONTINUOUS
 10
188.1097589805
 20
147.5817170915
 11
188.1097589805
 21
151.5817177472
  0
LINE
  8
1
  6
CONTINUOUS
 10
185.609759502
 20
141.0817188201
 11
185.609759502
 21
218.0817184028
  0
ARC
  8
1
  6
CONTINUOUS
 10
173.8597591623
 20
145.4817172775
 40
0.5
 50
90.0
 51
180.0
  0
LINE
  8
1
  6
CONTINUOUS
 10
173.8597589731
 20
145.9817160842
 11
174.5097588002
 21
145.9817160842
  0
ARC
  8
1
  6
CONTINUOUS
 10
174.5097591623
 20
146.4817172775
 40
0.5
 50
270.0
 51
0.0
  0
LINE
  8
1
  6
CONTINUOUS
 10
175.0097588822
 20
146.4817170975
 11
175.0097588822
 21
157.4817170379
  0
ARC
  8
1
  6
CONTINUOUS
 10
174.5097591623
 20
157.4817172775
 40
0.5
 50
0.0
 51
90.0
  0
LINE
  8
1
  6
CONTINUOUS
 10
174.5097588002
 20
157.9817180512
 11
173.8597589731
 21
157.9817180512
  0
ARC
  8
1
  6
CONTINUOUS
 10
173.8597591623
 20
158.4817172775
 40
0.5
 50
180.0
 51
270.0
  0
ARC
  8
1
  6
CONTINUOUS
 10
173.8597591623
 20
173.3317172775
 40
0.5
 50
90.0
 51
180.0
  0
LINE
  8
1
  6
CONTINUOUS
 10
173.8597589731
 20
173.8317172033
 11
179.3597598746
 21
173.8317172033
  0
ARC
  8
1
  6
CONTINUOUS
 10
179.3597591623
 20
174.3317172775
 40
0.5
 50
270.0
 51
0.0
  0
LINE
  8
1
  6
CONTINUOUS
 10
179.8597590252
 20
174.3317172852
 11
179.8597590252
 21
178.3317172424
  0
ARC
  8
1
  6
CONTINUOUS
 10
179.3597591623
 20
178.3317172775
 40
0.5
 50
0.0
 51
90.0
  0
LINE
  8
1
  6
CONTINUOUS
 10
179.3597598746
 20
178.8317173244
 11
173.8597589731
 21
178.8317173244
  0
ARC
  8
1
  6
CONTINUOUS
 10
173.8597591623
 20
179.3317172775
 40
0.5
 50
180.0
 51
270.0
  0
ARC
  8
1
  6
CONTINUOUS
 10
184.1097591623
 20
218.0817172775001
 40
1.499999999999972
 50
359.9999999999989
 51
90.0
  0
ARC
  8
1
  6
CONTINUOUS
 10
184.1097591623
 20
141.0817172775001
 40
1.500000000000085
 50
270.0
 51
359.9999999999978
  0
LINE
  8
1
  6
CONTINUOUS
 10
162.6097591663
 20
219.5817177174
 11
184.1097583249
 21
219.5817177174
  0
LINE
  8
1
  6
CONTINUOUS
 10
173.3597588911
 20
139.5817157802
 11
173.3597588911
 21
145.4817187962
  0
LINE
  8
1
  6
CONTINUOUS
 10
162.6097591663
 20
139.5817157802
 11
184.1097583249
 21
139.5817157802
  0
LINE
  8
1
  6
CONTINUOUS
 10
173.6254670843
 20
145.9234264669
 11
173.0940506979
 21
145.9234264669
  0
LINE
  8
1
  6
CONTINUOUS
 10
173.6254670843
 20
158.0400076685
 11
173.0940506979
 21
158.0400076685
  0
LINE
  8
1
  6
CONTINUOUS
 10
175.0097588822
 20
156.8853073743
 11
165.4597592726
 21
156.8853073743
  0
LINE
  8
1
  6
CONTINUOUS
 10
175.0097588822
 20
147.0781286237
 11
165.4597592726
 21
147.0781286237
  0
ARC
  8
1
  6
CONTINUOUS
 10
165.9597591623
 20
157.4817172775
 40
0.5
 50
90.0
 51
180.0
  0
LINE
  8
1
  6
CONTINUOUS
 10
165.4597592726
 20
157.4817170379
 11
165.4597592726
 21
146.4817170975
  0
ARC
  8
1
  6
CONTINUOUS
 10
165.9597591623
 20
146.4817172775
 40
0.5
 50
180.0
 51
270.0
  0
LINE
  8
1
  6
CONTINUOUS
 10
165.9597591217
 20
145.9817160842
 11
172.8597588091
 21
145.9817160842
  0
ARC
  8
1
  6
CONTINUOUS
 10
172.8597591623
 20
145.4817172775
 40
0.5
 50
0.0
 51
90.0
  0
ARC
  8
1
  6
CONTINUOUS
 10
172.8597591623
 20
158.4817172775
 40
0.5
 50
270.0
 51
0.0
  0
LINE
  8
1
  6
CONTINUOUS
 10
172.8597588091
 20
157.9817180512
 11
165.9597591217
 21
157.9817180512
  0
ARC
  8
1
  6
CONTINUOUS
 10
162.6097591623
 20
141.0817172775
 40
1.499999999999972
 50
179.9999999999989
 51
270.0
  0
LINE
  8
1
  6
CONTINUOUS
 10
161.1097592115
 20
141.0817188201
 11
161.1097592115
 21
218.0817184028
  0
ARC
  8
1
  6
CONTINUOUS
 10
162.6097591623
 20
218.0817172775001
 40
1.499999999999972
 50
90.0
 51
180.0000000000011
  0
LINE
  8
1
  6
CONTINUOUS
 10
161.05975918
 20
215.5632656989
 11
161.1097592115
 21
215.5632656989
  0
LINE
  8
1
  6
CONTINUOUS
 10
161.05975918
 20
217.3915040669
 11
161.05975918
 21
215.5632656989
  0
LINE
  8
1
  6
CONTINUOUS
 10
161.05975918
 20
217.3915040669
 11
161.1097592115
 21
217.3915040669
  0
LINE
  8
1
  6
CONTINUOUS
 10
161.05975918
 20
213.9567156312
 11
161.1097592115
 21
213.9567156312
  0
LINE
  8
1
  6
CONTINUOUS
 10
161.05975918
 20
213.1622080681
 11
161.05975918
 21
215.0817160484
  0
LINE
  8
1
  6
CONTINUOUS
 10
161.05975918
 20
215.0817160484
 11
161.1097592115
 21
215.0817160484
  0
LINE
  8
1
  6
CONTINUOUS
 10
161.05975918
 20
213.1622080681
 11
161.1097592115
 21
213.1622080681
  0
LINE
  8
1
  6
CONTINUOUS
 10
161.05975918
 20
210.9789513973
 11
161.1097592115
 21
210.9789513973
  0
LINE
  8
1
  6
CONTINUOUS
 10
161.05975918
 20
211.5646452633
 11
161.05975918
 21
210.9789513973
  0
LINE
  8
1
  6
CONTINUOUS
 10
161.05975918
 20
211.5646452633
 11
161.1097592115
 21
211.5646452633
  0
LINE
  8
1
  6
CONTINUOUS
 10
161.05975918
 20
211.8734811423
 11
161.1097592115
 21
211.8734811423
  0
LINE
  8
1
  6
CONTINUOUS
 10
161.05975918
 20
212.1066843149
 11
161.1097592115
 21
212.1066843149
  0
POLYLINE
  8
1
  6
CONTINUOUS
 66
     1
 10
0.0
 20
0.0
 70
     0
 40
0.0
 41
0.0
  0
VERTEX
  8
1
 10
161.0597591799986
 20
212.1066842231032
  0
VERTEX
  8
1
 10
161.0597591799986
 20
212.1043432709067
  0
VERTEX
  8
1
 10
161.0597591799986
 20
212.1015613455224
  0
VERTEX
  8
1
 10
161.0597591799986
 20
212.0984207535352
  0
VERTEX
  8
1
 10
161.0597591799986
 20
212.0950038015296
  0
VERTEX
  8
1
 10
161.0597591799986
 20
212.0913927960901
  0
VERTEX
  8
1
 10
161.0597591799986
 20
212.0876700438014
  0
VERTEX
  8
1
 10
161.0597591799986
 20
212.0839178512482
  0
VERTEX
  8
1
 10
161.0597591799986
 20
212.0802185250151
  0
VERTEX
  8
1
 10
161.0597591799986
 20
212.0766368511875
  0
VERTEX
  8
1
 10
161.0597591799986
 20
212.0731675338551
  0
VERTEX
  8
1
 10
161.0597591799986
 20
212.0697877566082
  0
VERTEX
  8
1
 10
161.0597591799986
 20
212.0664747030373
  0
VERTEX
  8
1
 10
161.0597591799986
 20
212.0632055567329
  0
VERTEX
  8
1
 10
161.0597591799986
 20
212.0599575012853
  0
VERTEX
  8
1
 10
161.0597591799986
 20
212.0567077202851
  0
VERTEX
  8
1
 10
161.0597591799986
 20
212.0534333973226
  0
VERTEX
  8
1
 10
161.0597591799986
 20
212.0501163902401
  0
VERTEX
  8
1
 10
161.0597591799986
 20
212.0467572538858
  0
VERTEX
  8
1
 10
161.0597591799986
 20
212.0433612173599
  0
VERTEX
  8
1
 10
161.0597591799986
 20
212.0399335097625
  0
VERTEX
  8
1
 10
161.0597591799986
 20
212.0364793601936
  0
VERTEX
  8
1
 10
161.0597591799986
 20
212.0330039977533
  0
VERTEX
  8
1
 10
161.0597591799986
 20
212.0295126515418
  0
VERTEX
  8
1
 10
161.0597591799986
 20
212.0260105506591
  0
VERTEX
  8
1
 10
161.0597591799986
 20
212.0225017453384
  0
VERTEX
  8
1
 10
161.0597591799986
 20
212.0189855703458
  0
VERTEX
  8
1
 10
161.0597591799986
 20
212.0154601815807
  0
VERTEX
  8
1
 10
161.0597591799986
 20
212.0119237349422
  0
VERTEX
  8
1
 10
161.0597591799986
 20
212.0083743863297
  0
VERTEX
  8
1
 10
161.0597591799986
 20
212.0048102916425
  0
VERTEX
  8
1
 10
161.0597591799986
 20
212.0012296067797
  0
VERTEX
  8
1
 10
161.0597591799986
 20
211.9976304876406
  0
VERTEX
  8
1
 10
161.0597591799986
 20
211.9940111691874
  0
VERTEX
  8
1
 10
161.0597591799986
 20
211.9903702026329
  0
VERTEX
  8
1
 10
161.0597591799986
 20
211.9867062182529
  0
VERTEX
  8
1
 10
161.0597591799986
 20
211.983017846323
  0
VERTEX
  8
1
 10
161.0597591799986
 20
211.9793037171191
  0
VERTEX
  8
1
 10
161.0597591799986
 20
211.9755624609168
  0
VERTEX
  8
1
 10
161.0597591799986
 20
211.9717927079919
  0
VERTEX
  8
1
 10
161.0597591799986
 20
211.9679930886199
  0
VERTEX
  8
1
 10
161.0597591799986
 20
211.9641638022563
  0
VERTEX
  8
1
 10
161.0597591799986
 20
211.9603113250747
  0
VERTEX
  8
1
 10
161.0597591799986
 20
211.9564437024282
  0
VERTEX
  8
1
 10
161.0597591799986
 20
211.9525689796701
  0
VERTEX
  8
1
 10
161.0597591799986
 20
211.9486952021535
  0
VERTEX
  8
1
 10
161.0597591799986
 20
211.9448304152315
  0
VERTEX
  8
1
 10
161.0597591799986
 20
211.9409826642575
  0
VERTEX
  8
1
 10
161.0597591799986
 20
211.9371599945846
  0
VERTEX
  8
1
 10
161.0597591799986
 20
211.9333647383699
  0
VERTEX
  8
1
 10
161.0597591799986
 20
211.9295763749871
  0
VERTEX
  8
1
 10
161.0597591799986
 20
211.9257686706137
  0
VERTEX
  8
1
 10
161.0597591799986
 20
211.9219153914272
  0
VERTEX
  8
1
 10
161.0597591799986
 20
211.9179903036052
  0
VERTEX
  8
1
 10
161.0597591799986
 20
211.9139671733253
  0
VERTEX
  8
1
 10
161.0597591799986
 20
211.9098197667649
  0
VERTEX
  8
1
 10
161.0597591799986
 20
211.9055218501017
  0
VERTEX
  8
1
 10
161.0597591799986
 20
211.9010684962473
  0
VERTEX
  8
1
 10
161.0597591799986
 20
211.8965400050497
  0
VERTEX
  8
1
 10
161.0597591799986
 20
211.8920379830909
  0
VERTEX
  8
1
 10
161.0597591799986
 20
211.8876640369531
  0
VERTEX
  8
1
 10
161.0597591799986
 20
211.8835197732184
  0
VERTEX
  8
1
 10
161.0597591799986
 20
211.8797067984687
  0
VERTEX
  8
1
 10
161.0597591799986
 20
211.8763267192862
  0
VERTEX
  8
1
 10
161.0597591799986
 20
211.873481142253
  0
SEQEND
  8
1
  0
LINE
  8
1
  6
CONTINUOUS
 10
161.05975918
 20
211.6465811608
 11
161.1097592115
 21
211.6465811608
  0
POLYLINE
  8
1
  6
CONTINUOUS
 66
     1
 10
0.0
 20
0.0
 70
     0
 40
0.0
 41
0.0
  0
VERTEX
  8
1
 10
161.0597591799986
 20
211.8734810516441
  0
VERTEX
  8
1
 10
161.0597591799986
 20
211.8706943304717
  0
VERTEX
  8
1
 10
161.0597591799986
 20
211.8673840638708
  0
VERTEX
  8
1
 10
161.0597591799986
 20
211.8636496795656
  0
VERTEX
  8
1
 10
161.0597591799986
 20
211.8595906052802
  0
VERTEX
  8
1
 10
161.0597591799986
 20
211.8553062687386
  0
VERTEX
  8
1
 10
161.0597591799986
 20
211.850896097665
  0
VERTEX
  8
1
 10
161.0597591799986
 20
211.8464595197834
  0
VERTEX
  8
1
 10
161.0597591799986
 20
211.842095962818
  0
VERTEX
  8
1
 10
161.0597591799986
 20
211.8378839976387
  0
VERTEX
  8
1
 10
161.0597591799986
 20
211.8338187676982
  0
VERTEX
  8
1
 10
161.0597591799986
 20
211.8298745595953
  0
VERTEX
  8
1
 10
161.0597591799986
 20
211.8260256599284
  0
VERTEX
  8
1
 10
161.0597591799986
 20
211.8222463552963
  0
VERTEX
  8
1
 10
161.0597591799986
 20
211.8185109322974
  0
VERTEX
  8
1
 10
161.0597591799986
 20
211.8147936775305
  0
VERTEX
  8
1
 10
161.0597591799986
 20
211.811068877594
  0
VERTEX
  8
1
 10
161.0597591799986
 20
211.8073163770464
  0
VERTEX
  8
1
 10
161.0597591799986
 20
211.8035382522846
  0
VERTEX
  8
1
 10
161.0597591799986
 20
211.7997421376656
  0
VERTEX
  8
1
 10
161.0597591799986
 20
211.7959356675461
  0
VERTEX
  8
1
 10
161.0597591799986
 20
211.7921264762828
  0
VERTEX
  8
1
 10
161.0597591799986
 20
211.7883221982326
  0
VERTEX
  8
1
 10
161.0597591799986
 20
211.7845304677523
  0
VERTEX
  8
1
 10
161.0597591799986
 20
211.7807589191986
  0
VERTEX
  8
1
 10
161.0597591799986
 20
211.7770138096276
  0
VERTEX
  8
1
 10
161.0597591799986
 20
211.7732958868919
  0
VERTEX
  8
1
 10
161.0597591799986
 20
211.7696045215435
  0
VERTEX
  8
1
 10
161.0597591799986
 20
211.7659390841344
  0
VERTEX
  8
1
 10
161.0597591799986
 20
211.7622989452164
  0
VERTEX
  8
1
 10
161.0597591799986
 20
211.7586834753414
  0
VERTEX
  8
1
 10
161.0597591799986
 20
211.7550920450615
  0
VERTEX
  8
1
 10
161.0597591799986
 20
211.7515240249284
  0
VERTEX
  8
1
 10
161.0597591799986
 20
211.7479787007185
  0
VERTEX
  8
1
 10
161.0597591799986
 20
211.7444550191054
  0
VERTEX
  8
1
 10
161.0597591799986
 20
211.7409518419871
  0
VERTEX
  8
1
 10
161.0597591799986
 20
211.7374680312618
  0
VERTEX
  8
1
 10
161.0597591799986
 20
211.7340024488273
  0
VERTEX
  8
1
 10
161.0597591799986
 20
211.7305539565817
  0
VERTEX
  8
1
 10
161.0597591799986
 20
211.727121416423
  0
VERTEX
  8
1
 10
161.0597591799986
 20
211.7237036902492
  0
VERTEX
  8
1
 10
161.0597591799986
 20
211.7203005728601
  0
VERTEX
  8
1
 10
161.0597591799986
 20
211.7169155906627
  0
VERTEX
  8
1
 10
161.0597591799986
 20
211.7135532029656
  0
VERTEX
  8
1
 10
161.0597591799986
 20
211.7102178690776
  0
VERTEX
  8
1
 10
161.0597591799986
 20
211.7069140483072
  0
VERTEX
  8
1
 10
161.0597591799986
 20
211.7036461999633
  0
VERTEX
  8
1
 10
161.0597591799986
 20
211.7004187833544
  0
VERTEX
  8
1
 10
161.0597591799986
 20
211.6972362577894
  0
VERTEX
  8
1
 10
161.0597591799986
 20
211.6940986948805
  0
VERTEX
  8
1
 10
161.0597591799986
 20
211.690988615454
  0
VERTEX
  8
1
 10
161.0597591799986
 20
211.6878841526399
  0
VERTEX
  8
1
 10
161.0597591799986
 20
211.6847634395683
  0
VERTEX
  8
1
 10
161.0597591799986
 20
211.6816046093689
  0
VERTEX
  8
1
 10
161.0597591799986
 20
211.6783857951719
  0
VERTEX
  8
1
 10
161.0597591799986
 20
211.6750851301072
  0
VERTEX
  8
1
 10
161.0597591799986
 20
211.6716807473048
  0
VERTEX
  8
1
 10
161.0597591799986
 20
211.668167368447
  0
VERTEX
  8
1
 10
161.0597591799986
 20
211.6646060694258
  0
VERTEX
  8
1
 10
161.0597591799986
 20
211.6610745146857
  0
VERTEX
  8
1
 10
161.0597591799986
 20
211.6576503686709
  0
VERTEX
  8
1
 10
161.0597591799986
 20
211.654411295826
  0
VERTEX
  8
1
 10
161.0597591799986
 20
211.6514349605953
  0
VERTEX
  8
1
 10
161.0597591799986
 20
211.6487990274233
  0
VERTEX
  8
1
 10
161.0597591799986
 20
211.6465811607542
  0
SEQEND
  8
1
  0
LINE
  8
1
  6
CONTINUOUS
 10
161.05975918
 20
212.207529786
 11
161.1097592115
 21
212.207529786
  0
POLYLINE
  8
1
  6
CONTINUOUS
 66
     1
 10
0.0
 20
0.0
 70
     0
 40
0.0
 41
0.0
  0
VERTEX
  8
1
 10
161.0597591799986
 20
212.2075297480844
  0
VERTEX
  8
1
 10
161.0597591799986
 20
212.2072590825727
  0
VERTEX
  8
1
 10
161.0597591799986
 20
212.2069353948473
  0
VERTEX
  8
1
 10
161.0597591799986
 20
212.2065660934935
  0
VERTEX
  8
1
 10
161.0597591799986
 20
212.2061585870967
  0
VERTEX
  8
1
 10
161.0597591799986
 20
212.2057202842422
  0
VERTEX
  8
1
 10
161.0597591799986
 20
212.2052585935154
  0
VERTEX
  8
1
 10
161.0597591799986
 20
212.2047809235018
  0
VERTEX
  8
1
 10
161.0597591799986
 20
212.2042946827865
  0
VERTEX
  8
1
 10
161.0597591799986
 20
212.2038052543314
  0
VERTEX
  8
1
 10
161.0597591799986
 20
212.2033099186034
  0
VERTEX
  8
1
 10
161.0597591799986
 20
212.2028039304458
  0
VERTEX
  8
1
 10
161.0597591799986
 20
212.2022825447019
  0
VERTEX
  8
1
 10
161.0597591799986
 20
212.2017410162149
  0
VERTEX
  8
1
 10
161.0597591799986
 20
212.2011745998282
  0
VERTEX
  8
1
 10
161.0597591799986
 20
212.2005785503851
  0
VERTEX
  8
1
 10
161.0597591799986
 20
212.1999481227287
  0
VERTEX
  8
1
 10
161.0597591799986
 20
212.1992791212813
  0
VERTEX
  8
1
 10
161.0597591799986
 20
212.1985695487799
  0
VERTEX
  8
1
 10
161.0597591799986
 20
212.1978179575407
  0
VERTEX
  8
1
 10
161.0597591799986
 20
212.1970228998796
  0
VERTEX
  8
1
 10
161.0597591799986
 20
212.1961829281125
  0
VERTEX
  8
1
 10
161.0597591799986
 20
212.1952965945556
  0
VERTEX
  8
1
 10
161.0597591799986
 20
212.1943624515248
  0
VERTEX
  8
1
 10
161.0597591799986
 20
212.1933790513361
  0
VERTEX
  8
1
 10
161.0597591799986
 20
212.1923447726238
  0
VERTEX
  8
1
 10
161.0597591799986
 20
212.1912572992957
  0
VERTEX
  8
1
 10
161.0597591799986
 20
212.1901141415781
  0
VERTEX
  8
1
 10
161.0597591799986
 20
212.1889128096969
  0
VERTEX
  8
1
 10
161.0597591799986
 20
212.1876508138785
  0
VERTEX
  8
1
 10
161.0597591799986
 20
212.1863256643489
  0
VERTEX
  8
1
 10
161.0597591799986
 20
212.1849348713343
  0
VERTEX
  8
1
 10
161.0597591799986
 20
212.1834759450607
  0
VERTEX
  8
1
 10
161.0597591799986
 20
212.1819466587803
  0
VERTEX
  8
1
 10
161.0597591799986
 20
212.1803458378485
  0
VERTEX
  8
1
 10
161.0597591799986
 20
212.1786725706466
  0
VERTEX
  8
1
 10
161.0597591799986
 20
212.176925945556
  0
VERTEX
  8
1
 10
161.0597591799986
 20
212.1751050509579
  0
VERTEX
  8
1
 10
161.0597591799986
 20
212.1732089752336
  0
VERTEX
  8
1
 10
161.0597591799986
 20
212.1712368067645
  0
VERTEX
  8
1
 10
161.0597591799986
 20
212.1691876339319
  0
VERTEX
  8
1
 10
161.0597591799986
 20
212.1670620973413
  0
VERTEX
  8
1
 10
161.0597591799986
 20
212.1648670464948
  0
VERTEX
  8
1
 10
161.0597591799986
 20
212.1626108831187
  0
VERTEX
  8
1
 10
161.0597591799986
 20
212.1603020089394
  0
VERTEX
  8
1
 10
161.0597591799986
 20
212.1579488256832
  0
VERTEX
  8
1
 10
161.0597591799986
 20
212.1555597350764
  0
VERTEX
  8
1
 10
161.0597591799986
 20
212.1531431388452
  0
VERTEX
  8
1
 10
161.0597591799986
 20
212.1507074387161
  0
VERTEX
  8
1
 10
161.0597591799986
 20
212.1482568564393
  0
VERTEX
  8
1
 10
161.0597591799986
 20
212.145778893861
  0
VERTEX
  8
1
 10
161.0597591799986
 20
212.1432568728515
  0
VERTEX
  8
1
 10
161.0597591799986
 20
212.1406741152809
  0
VERTEX
  8
1
 10
161.0597591799986
 20
212.1380139430195
  0
VERTEX
  8
1
 10
161.0597591799986
 20
212.1352596779375
  0
VERTEX
  8
1
 10
161.0597591799986
 20
212.1323946419051
  0
VERTEX
  8
1
 10
161.0597591799986
 20
212.1294021567923
  0
VERTEX
  8
1
 10
161.0597591799986
 20
212.1262808014648
  0
VERTEX
  8
1
 10
161.0597591799986
 20
212.1230901827683
  0
VERTEX
  8
1
 10
161.0597591799986
 20
212.1199051645437
  0
VERTEX
  8
1
 10
161.0597591799986
 20
212.1168006106323
  0
VERTEX
  8
1
 10
161.0597591799986
 20
212.1138513848748
  0
VERTEX
  8
1
 10
161.0597591799986
 20
212.1111323511124
  0
VERTEX
  8
1
 10
161.0597591799986
 20
212.108718373186
  0
VERTEX
  8
1
 10
161.0597591799986
 20
212.1066843149367
  0
SEQEND
  8
1
  0
POLYLINE
  8
1
  6
CONTINUOUS
 66
     1
 10
0.0
 20
0.0
 70
     0
 40
0.0
 41
0.0
  0
VERTEX
  8
1
 10
161.0597591799986
 20
211.6465809995861
  0
VERTEX
  8
1
 10
161.0597591799986
 20
211.6454347721664
  0
VERTEX
  8
1
 10
161.0597591799986
 20
211.6440735202648
  0
VERTEX
  8
1
 10
161.0597591799986
 20
211.6425384622024
  0
VERTEX
  8
1
 10
161.0597591799986
 20
211.6408708163003
  0
VERTEX
  8
1
 10
161.0597591799986
 20
211.6391118008795
  0
VERTEX
  8
1
 10
161.0597591799986
 20
211.6373026342611
  0
VERTEX
  8
1
 10
161.0597591799986
 20
211.6354845347662
  0
VERTEX
  8
1
 10
161.0597591799986
 20
211.6336987207158
  0
VERTEX
  8
1
 10
161.0597591799986
 20
211.631977832644
  0
VERTEX
  8
1
 10
161.0597591799986
 20
211.6303201999372
  0
VERTEX
  8
1
 10
161.0597591799986
 20
211.6287155741945
  0
VERTEX
  8
1
 10
161.0597591799986
 20
211.6271537070153
  0
VERTEX
  8
1
 10
161.0597591799986
 20
211.6256243499987
  0
VERTEX
  8
1
 10
161.0597591799986
 20
211.624117254744
  0
VERTEX
  8
1
 10
161.0597591799986
 20
211.6226221728506
  0
VERTEX
  8
1
 10
161.0597591799986
 20
211.6211288559176
  0
VERTEX
  8
1
 10
161.0597591799986
 20
211.6196293391818
  0
VERTEX
  8
1
 10
161.0597591799986
 20
211.6181247924302
  0
VERTEX
  8
1
 10
161.0597591799986
 20
211.6166186690871
  0
VERTEX
  8
1
 10
161.0597591799986
 20
211.6151144225768
  0
VERTEX
  8
1
 10
161.0597591799986
 20
211.6136155063239
  0
VERTEX
  8
1
 10
161.0597591799986
 20
211.6121253737526
  0
VERTEX
  8
1
 10
161.0597591799986
 20
211.6106474782873
  0
VERTEX
  8
1
 10
161.0597591799986
 20
211.6091852733524
  0
VERTEX
  8
1
 10
161.0597591799986
 20
211.6077416523442
  0
VERTEX
  8
1
 10
161.0597591799986
 20
211.6063172685465
  0
VERTEX
  8
1
 10
161.0597591799986
 20
211.6049122152148
  0
VERTEX
  8
1
 10
161.0597591799986
 20
211.6035265856049
  0
VERTEX
  8
1
 10
161.0597591799986
 20
211.6021604729723
  0
VERTEX
  8
1
 10
161.0597591799986
 20
211.6008139705726
  0
VERTEX
  8
1
 10
161.0597591799986
 20
211.5994871716616
  0
VERTEX
  8
1
 10
161.0597591799986
 20
211.5981801694949
  0
VERTEX
  8
1
 10
161.0597591799986
 20
211.5968929840354
  0
VERTEX
  8
1
 10
161.0597591799986
 20
211.5956253420765
  0
VERTEX
  8
1
 10
161.0597591799986
 20
211.5943768971185
  0
VERTEX
  8
1
 10
161.0597591799986
 20
211.593147302662
  0
VERTEX
  8
1
 10
161.0597591799986
 20
211.5919362122077
  0
VERTEX
  8
1
 10
161.0597591799986
 20
211.590743279256
  0
VERTEX
  8
1
 10
161.0597591799986
 20
211.5895681573076
  0
VERTEX
  8
1
 10
161.0597591799986
 20
211.5884104998629
  0
VERTEX
  8
1
 10
161.0597591799986
 20
211.5872701314885
  0
VERTEX
  8
1
 10
161.0597591799986
 20
211.5861475610155
  0
VERTEX
  8
1
 10
161.0597591799986
 20
211.5850434683404
  0
VERTEX
  8
1
 10
161.0597591799986
 20
211.5839585333604
  0
VERTEX
  8
1
 10
161.0597591799986
 20
211.5828934359722
  0
VERTEX
  8
1
 10
161.0597591799986
 20
211.5818488560726
  0
VERTEX
  8
1
 10
161.0597591799986
 20
211.5808254735586
  0
VERTEX
  8
1
 10
161.0597591799986
 20
211.579823968327
  0
VERTEX
  8
1
 10
161.0597591799986
 20
211.5788437586915
  0
VERTEX
  8
1
 10
161.0597591799986
 20
211.5778792166325
  0
VERTEX
  8
1
 10
161.0597591799986
 20
211.5769234525475
  0
VERTEX
  8
1
 10
161.0597591799986
 20
211.5759695768336
  0
VERTEX
  8
1
 10
161.0597591799986
 20
211.5750106998881
  0
VERTEX
  8
1
 10
161.0597591799986
 20
211.5740399321083
  0
VERTEX
  8
1
 10
161.0597591799986
 20
211.5730503838916
  0
VERTEX
  8
1
 10
161.0597591799986
 20
211.5720351656352
  0
VERTEX
  8
1
 10
161.0597591799986
 20
211.570992236794
  0
VERTEX
  8
1
 10
161.0597591799986
 20
211.5699389530527
  0
VERTEX
  8
1
 10
161.0597591799986
 20
211.568897519154
  0
VERTEX
  8
1
 10
161.0597591799986
 20
211.5678901398403
  0
VERTEX
  8
1
 10
161.0597591799986
 20
211.5669390198541
  0
VERTEX
  8
1
 10
161.0597591799986
 20
211.5660663639378
  0
VERTEX
  8
1
 10
161.0597591799986
 20
211.5652943768338
  0
VERTEX
  8
1
 10
161.0597591799986
 20
211.5646452632847
  0
SEQEND
  8
1
  0
LINE
  8
1
  6
CONTINUOUS
 10
161.05975918
 20
212.2453247187
 11
161.05975918
 21
212.331717926
  0
LINE
  8
1
  6
CONTINUOUS
 10
161.05975918
 20
212.331717926
 11
161.1097592115
 21
212.331717926
  0
LINE
  8
1
  6
CONTINUOUS
 10
161.05975918
 20
210.8317167488
 11
161.1097592115
 21
210.8317167488
  0
LINE
  8
1
  6
CONTINUOUS
 10
161.05975918
 20
210.8317167488
 11
161.05975918
 21
210.9450922337
  0
LINE
  8
1
  6
CONTINUOUS
 10
161.05975918
 20
186.3849238482
 11
161.1097592115
 21
186.3849238482
  0
LINE
  8
1
  6
CONTINUOUS
 10
161.05975918
 20
186.5961180058
 11
161.1097592115
 21
186.5961180058
  0
LINE
  8
1
  6
CONTINUOUS
 10
161.05975918
 20
185.0344721218
 11
161.1097592115
 21
185.0344721218
  0
POLYLINE
  8
1
  6
CONTINUOUS
 66
     1
 10
0.0
 20
0.0
 70
     0
 40
0.0
 41
0.0
  0
VERTEX
  8
1
 10
161.0597591799988
 20
185.3557248128298
  0
VERTEX
  8
1
 10
161.0597591799988
 20
185.3518387038067
  0
VERTEX
  8
1
 10
161.0597591799988
 20
185.3472223968235
  0
VERTEX
  8
1
 10
161.0597591799988
 20
185.3420144022342
  0
VERTEX
  8
1
 10
161.0597591799988
 20
185.3363532303931
  0
VERTEX
  8
1
 10
161.0597591799988
 20
185.3303773916543
  0
VERTEX
  8
1
 10
161.0597591799988
 20
185.3242253963719
  0
VERTEX
  8
1
 10
161.0597591799988
 20
185.3180357549002
  0
VERTEX
  8
1
 10
161.0597591799988
 20
185.3119469775931
  0
VERTEX
  8
1
 10
161.0597591799988
 20
185.3060684898121
  0
VERTEX
  8
1
 10
161.0597591799988
 20
185.3003933769473
  0
VERTEX
  8
1
 10
161.0597591799988
 20
185.2948856393959
  0
VERTEX
  8
1
 10
161.0597591799988
 20
185.2895092775552
  0
VERTEX
  8
1
 10
161.0597591799988
 20
185.2842282918224
  0
VERTEX
  8
1
 10
161.0597591799988
 20
185.2790066825948
  0
VERTEX
  8
1
 10
161.0597591799988
 20
185.2738084502697
  0
VERTEX
  8
1
 10
161.0597591799988
 20
185.2685975952442
  0
VERTEX
  8
1
 10
161.0597591799988
 20
185.2633458700576
  0
VERTEX
  8
1
 10
161.0597591799988
 20
185.2580560358157
  0
VERTEX
  8
1
 10
161.0597591799988
 20
185.2527386057664
  0
VERTEX
  8
1
 10
161.0597591799988
 20
185.2474040931574
  0
VERTEX
  8
1
 10
161.0597591799988
 20
185.2420630112366
  0
VERTEX
  8
1
 10
161.0597591799988
 20
185.2367258732518
  0
VERTEX
  8
1
 10
161.0597591799988
 20
185.2314031924507
  0
VERTEX
  8
1
 10
161.0597591799988
 20
185.2261054820812
  0
VERTEX
  8
1
 10
161.0597591799988
 20
185.2208413310726
  0
VERTEX
  8
1
 10
161.0597591799988
 20
185.2156116310803
  0
VERTEX
  8
1
 10
161.0597591799988
 20
185.2104153494414
  0
VERTEX
  8
1
 10
161.0597591799988
 20
185.2052514534929
  0
VERTEX
  8
1
 10
161.0597591799988
 20
185.2001189105719
  0
VERTEX
  8
1
 10
161.0597591799988
 20
185.1950166880152
  0
VERTEX
  8
1
 10
161.0597591799988
 20
185.18994375316
  0
VERTEX
  8
1
 10
161.0597591799988
 20
185.1848990733432
  0
VERTEX
  8
1
 10
161.0597591799988
 20
185.1798815198702
  0
VERTEX
  8
1
 10
161.0597591799988
 20
185.1748895799194
  0
VERTEX
  8
1
 10
161.0597591799988
 20
185.1699216446376
  0
VERTEX
  8
1
 10
161.0597591799988
 20
185.1649761051715
  0
VERTEX
  8
1
 10
161.0597591799988
 20
185.160051352668
  0
VERTEX
  8
1
 10
161.0597591799988
 20
185.1551457782736
  0
VERTEX
  8
1
 10
161.0597591799988
 20
185.1502577731354
  0
VERTEX
  8
1
 10
161.0597591799988
 20
185.1453857283998
  0
VERTEX
  8
1
 10
161.0597591799988
 20
185.1405294195547
  0
VERTEX
  8
1
 10
161.0597591799988
 20
185.1356941594515
  0
VERTEX
  8
1
 10
161.0597591799988
 20
185.1308866452826
  0
VERTEX
  8
1
 10
161.0597591799988
 20
185.1261135742402
  0
VERTEX
  8
1
 10
161.0597591799988
 20
185.1213816435167
  0
VERTEX
  8
1
 10
161.0597591799988
 20
185.1166975503046
  0
VERTEX
  8
1
 10
161.0597591799988
 20
185.1120679917961
  0
VERTEX
  8
1
 10
161.0597591799988
 20
185.1074996651838
  0
VERTEX
  8
1
 10
161.0597591799988
 20
185.1029929207248
  0
VERTEX
  8
1
 10
161.0597591799988
 20
185.0985227209377
  0
VERTEX
  8
1
 10
161.0597591799988
 20
185.0940576814057
  0
VERTEX
  8
1
 10
161.0597591799988
 20
185.0895664177123
  0
VERTEX
  8
1
 10
161.0597591799988
 20
185.0850175454409
  0
VERTEX
  8
1
 10
161.0597591799988
 20
185.0803796801748
  0
VERTEX
  8
1
 10
161.0597591799988
 20
185.0756214374975
  0
VERTEX
  8
1
 10
161.0597591799988
 20
185.0707114329923
  0
VERTEX
  8
1
 10
161.0597591799988
 20
185.0656422476345
  0
VERTEX
  8
1
 10
161.0597591799988
 20
185.0605023239667
  0
VERTEX
  8
1
 10
161.0597591799988
 20
185.0554040699232
  0
VERTEX
  8
1
 10
161.0597591799988
 20
185.0504598934385
  0
VERTEX
  8
1
 10
161.0597591799988
 20
185.045782202447
  0
VERTEX
  8
1
 10
161.0597591799988
 20
185.041483404883
  0
VERTEX
  8
1
 10
161.0597591799988
 20
185.037675908681
  0
VERTEX
  8
1
 10
161.0597591799988
 20
185.0344721217754
  0
SEQEND
  8
1
  0
LINE
  8
1
  6
CONTINUOUS
 10
161.05975918
 20
185.355724859
 11
161.1097592115
 21
185.355724859
  0
LINE
  8
1
  6
CONTINUOUS
 10
161.05975918
 20
185.3646487919
 11
161.05975918
 21
185.355724859
  0
LINE
  8
1
  6
CONTINUOUS
 10
161.05975918
 20
185.3646487919
 11
161.1097592115
 21
185.3646487919
  0
POLYLINE
  8
1
  6
CONTINUOUS
 66
     1
 10
0.0
 20
0.0
 70
     0
 40
0.0
 41
0.0
  0
VERTEX
  8
1
 10
161.0597591799988
 20
185.6859015276073
  0
VERTEX
  8
1
 10
161.0597591799988
 20
185.683886536653
  0
VERTEX
  8
1
 10
161.0597591799988
 20
185.6814916147346
  0
VERTEX
  8
1
 10
161.0597591799988
 20
185.6787872174456
  0
VERTEX
  8
1
 10
161.0597591799988
 20
185.6758438003793
  0
VERTEX
  8
1
 10
161.0597591799988
 20
185.6727318191289
  0
VERTEX
  8
1
 10
161.0597591799988
 20
185.6695217292879
  0
VERTEX
  8
1
 10
161.0597591799988
 20
185.6662839864495
  0
VERTEX
  8
1
 10
161.0597591799988
 20
185.663089046207
  0
VERTEX
  8
1
 10
161.0597591799988
 20
185.659992289179
  0
VERTEX
  8
1
 10
161.0597591799988
 20
185.6569887960852
  0
VERTEX
  8
1
 10
161.0597591799988
 20
185.6540585726704
  0
VERTEX
  8
1
 10
161.0597591799988
 20
185.6511816246795
  0
VERTEX
  8
1
 10
161.0597591799988
 20
185.6483379578574
  0
VERTEX
  8
1
 10
161.0597591799988
 20
185.6455075779489
  0
VERTEX
  8
1
 10
161.0597591799988
 20
185.6426704906991
  0
VERTEX
  8
1
 10
161.0597591799988
 20
185.6398067018525
  0
VERTEX
  8
1
 10
161.0597591799988
 20
185.6369002189155
  0
VERTEX
  8
1
 10
161.0597591799988
 20
185.6339510564385
  0
VERTEX
  8
1
 10
161.0597591799988
 20
185.6309632307332
  0
VERTEX
  8
1
 10
161.0597591799988
 20
185.6279407581113
  0
VERTEX
  8
1
 10
161.0597591799988
 20
185.6248876548846
  0
VERTEX
  8
1
 10
161.0597591799988
 20
185.6218079373647
  0
VERTEX
  8
1
 10
161.0597591799988
 20
185.6187056218635
  0
VERTEX
  8
1
 10
161.0597591799988
 20
185.6155847246925
  0
VERTEX
  8
1
 10
161.0597591799988
 20
185.6124484083957
  0
VERTEX
  8
1
 10
161.0597591799988
 20
185.609296420446
  0
VERTEX
  8
1
 10
161.0597591799988
 20
185.6061276545486
  0
VERTEX
  8
1
 10
161.0597591799988
 20
185.6029410044085
  0
VERTEX
  8
1
 10
161.0597591799988
 20
185.599735363731
  0
VERTEX
  8
1
 10
161.0597591799988
 20
185.5965096262212
  0
VERTEX
  8
1
 10
161.0597591799988
 20
185.5932626855842
  0
VERTEX
  8
1
 10
161.0597591799988
 20
185.589993435525
  0
VERTEX
  8
1
 10
161.0597591799988
 20
185.5867011733563
  0
VERTEX
  8
1
 10
161.0597591799988
 20
185.5833868108196
  0
VERTEX
  8
1
 10
161.0597591799988
 20
185.580051663264
  0
VERTEX
  8
1
 10
161.0597591799988
 20
185.5766970460383
  0
VERTEX
  8
1
 10
161.0597591799988
 20
185.5733242744916
  0
VERTEX
  8
1
 10
161.0597591799988
 20
185.5699346639728
  0
VERTEX
  8
1
 10
161.0597591799988
 20
185.5665295298309
  0
VERTEX
  8
1
 10
161.0597591799988
 20
185.5631101874149
  0
VERTEX
  8
1
 10
161.0597591799988
 20
185.5596778637736
  0
VERTEX
  8
1
 10
161.0597591799988
 20
185.5562334327556
  0
VERTEX
  8
1
 10
161.0597591799988
 20
185.5527776799092
  0
VERTEX
  8
1
 10
161.0597591799988
 20
185.549311390783
  0
VERTEX
  8
1
 10
161.0597591799988
 20
185.5458353509253
  0
VERTEX
  8
1
 10
161.0597591799988
 20
185.5423503458845
  0
VERTEX
  8
1
 10
161.0597591799988
 20
185.5388571612091
  0
VERTEX
  8
1
 10
161.0597591799988
 20
185.5353565824473
  0
VERTEX
  8
1
 10
161.0597591799988
 20
185.5318493558119
  0
VERTEX
  8
1
 10
161.0597591799988
 20
185.528336070172
  0
VERTEX
  8
1
 10
161.0597591799988
 20
185.5248172750607
  0
VERTEX
  8
1
 10
161.0597591799988
 20
185.5212935200114
  0
VERTEX
  8
1
 10
161.0597591799988
 20
185.5177653545573
  0
VERTEX
  8
1
 10
161.0597591799988
 20
185.5142333282316
  0
VERTEX
  8
1
 10
161.0597591799988
 20
185.5106979905677
  0
VERTEX
  8
1
 10
161.0597591799988
 20
185.5071598910986
  0
VERTEX
  8
1
 10
161.0597591799988
 20
185.5036195583391
  0
VERTEX
  8
1
 10
161.0597591799988
 20
185.500077436729
  0
VERTEX
  8
1
 10
161.0597591799988
 20
185.4965339496894
  0
VERTEX
  8
1
 10
161.0597591799988
 20
185.4929895206414
  0
VERTEX
  8
1
 10
161.0597591799988
 20
185.4894445730062
  0
VERTEX
  8
1
 10
161.0597591799988
 20
185.4858995302048
  0
VERTEX
  8
1
 10
161.0597591799988
 20
185.4823548156585
  0
VERTEX
  8
1
 10
161.0597591799988
 20
185.4788108527885
  0
VERTEX
  8
1
 10
161.0597591799988
 20
185.4752677187031
  0
VERTEX
  8
1
 10
161.0597591799988
 20
185.4717241052599
  0
VERTEX
  8
1
 10
161.0597591799988
 20
185.4681783580041
  0
VERTEX
  8
1
 10
161.0597591799988
 20
185.4646288224805
  0
VERTEX
  8
1
 10
161.0597591799988
 20
185.4610738442341
  0
VERTEX
  8
1
 10
161.0597591799988
 20
185.45751176881
  0
VERTEX
  8
1
 10
161.0597591799988
 20
185.453940941753
  0
VERTEX
  8
1
 10
161.0597591799988
 20
185.4503597086082
  0
VERTEX
  8
1
 10
161.0597591799988
 20
185.446767772858
  0
VERTEX
  8
1
 10
161.0597591799988
 20
185.4431702697342
  0
VERTEX
  8
1
 10
161.0597591799988
 20
185.439573692406
  0
VERTEX
  8
1
 10
161.0597591799988
 20
185.4359845340429
  0
VERTEX
  8
1
 10
161.0597591799988
 20
185.432409287814
  0
VERTEX
  8
1
 10
161.0597591799988
 20
185.4288544468886
  0
VERTEX
  8
1
 10
161.0597591799988
 20
185.425326504436
  0
VERTEX
  8
1
 10
161.0597591799988
 20
185.4218319536254
  0
VERTEX
  8
1
 10
161.0597591799988
 20
185.4183722022926
  0
VERTEX
  8
1
 10
161.0597591799988
 20
185.4149283169388
  0
VERTEX
  8
1
 10
161.0597591799988
 20
185.4114762787318
  0
VERTEX
  8
1
 10
161.0597591799988
 20
185.4079920688394
  0
VERTEX
  8
1
 10
161.0597591799988
 20
185.4044516684292
  0
VERTEX
  8
1
 10
161.0597591799988
 20
185.400831058669
  0
VERTEX
  8
1
 10
161.0597591799988
 20
185.3971062207266
  0
VERTEX
  8
1
 10
161.0597591799988
 20
185.3932531357696
  0
VERTEX
  8
1
 10
161.0597591799988
 20
185.389266768341
  0
VERTEX
  8
1
 10
161.0597591799988
 20
185.3852180164853
  0
VERTEX
  8
1
 10
161.0597591799988
 20
185.381196761622
  0
VERTEX
  8
1
 10
161.0597591799988
 20
185.3772928851709
  0
VERTEX
  8
1
 10
161.0597591799988
 20
185.3735962685514
  0
VERTEX
  8
1
 10
161.0597591799988
 20
185.3701967931833
  0
VERTEX
  8
1
 10
161.0597591799988
 20
185.3671843404861
  0
VERTEX
  8
1
 10
161.0597591799988
 20
185.3646487918797
  0
SEQEND
  8
1
  0
LINE
  8
1
  6
CONTINUOUS
 10
161.05975918
 20
185.6859015291
 11
161.1097592115
 21
185.6859015291
  0
LINE
  8
1
  6
CONTINUOUS
 10
161.05975918
 20
183.770282519
 11
161.1097592115
 21
183.770282519
  0
LINE
  8
1
  6
CONTINUOUS
 10
161.05975918
 20
183.9814764437
 11
161.1097592115
 21
183.9814764437
  0
LINE
  8
1
  6
CONTINUOUS
 10
161.05975918
 20
183.2854287689
 11
161.1097592115
 21
183.2854287689
  0
LINE
  8
1
  6
CONTINUOUS
 10
161.05975918
 20
183.5352919054
 11
161.1097592115
 21
183.5352919054
  0
LINE
  8
1
  6
CONTINUOUS
 10
161.05975918
 20
182.821396714
 11
161.1097592115
 21
182.821396714
  0
LINE
  8
1
  6
CONTINUOUS
 10
161.05975918
 20
182.6012790891
 11
161.1097592115
 21
182.6012790891
  0
LINE
  8
1
  6
CONTINUOUS
 10
161.05975918
 20
182.8124730139
 11
161.1097592115
 21
182.8124730139
  0
LINE
  8
1
  6
CONTINUOUS
 10
161.05975918
 20
182.0361119801
 11
161.1097592115
 21
182.0361119801
  0
LINE
  8
1
  6
CONTINUOUS
 10
161.05975918
 20
182.0361119801
 11
161.05975918
 21
181.8249179389
  0
LINE
  8
1
  6
CONTINUOUS
 10
161.05975918
 20
181.8249179389
 11
161.1097592115
 21
181.8249179389
  0
LINE
  8
1
  6
CONTINUOUS
 10
161.05975918
 20
185.8197567974
 11
161.1097592115
 21
185.8197567974
  0
POLYLINE
  8
1
  6
CONTINUOUS
 66
     1
 10
0.0
 20
0.0
 70
     0
 40
0.0
 41
0.0
  0
VERTEX
  8
1
 10
161.0597591799988
 20
185.8197567473437
  0
VERTEX
  8
1
 10
161.0597591799988
 20
185.8194714766021
  0
VERTEX
  8
1
 10
161.0597591799988
 20
185.8191295643943
  0
VERTEX
  8
1
 10
161.0597591799988
 20
185.8187380341796
  0
VERTEX
  8
1
 10
161.0597591799988
 20
185.818303909417
  0
VERTEX
  8
1
 10
161.0597591799988
 20
185.8178342135657
  0
VERTEX
  8
1
 10
161.0597591799988
 20
185.8173359700851
  0
VERTEX
  8
1
 10
161.0597591799988
 20
185.8168162024341
  0
VERTEX
  8
1
 10
161.0597591799988
 20
185.816281934072
  0
VERTEX
  8
1
 10
161.0597591799988
 20
185.8157380536123
  0
VERTEX
  8
1
 10
161.0597591799988
 20
185.8151809102857
  0
VERTEX
  8
1
 10
161.0597591799988
 20
185.8146047184775
  0
VERTEX
  8
1
 10
161.0597591799988
 20
185.8140036925727
  0
VERTEX
  8
1
 10
161.0597591799988
 20
185.8133720469564
  0
VERTEX
  8
1
 10
161.0597591799988
 20
185.8127039960137
  0
VERTEX
  8
1
 10
161.0597591799988
 20
185.8119937541298
  0
VERTEX
  8
1
 10
161.0597591799988
 20
185.8112355356898
  0
VERTEX
  8
1
 10
161.0597591799988
 20
185.8104241375825
  0
VERTEX
  8
1
 10
161.0597591799988
 20
185.8095566867119
  0
VERTEX
  8
1
 10
161.0597591799988
 20
185.8086308924856
  0
VERTEX
  8
1
 10
161.0597591799988
 20
185.8076444643116
  0
VERTEX
  8
1
 10
161.0597591799988
 20
185.8065951115973
  0
VERTEX
  8
1
 10
161.0597591799988
 20
185.8054805437505
  0
VERTEX
  8
1
 10
161.0597591799988
 20
185.804298470179
  0
VERTEX
  8
1
 10
161.0597591799988
 20
185.8030466002905
  0
VERTEX
  8
1
 10
161.0597591799988
 20
185.8017224470119
  0
VERTEX
  8
1
 10
161.0597591799988
 20
185.8003227373479
  0
VERTEX
  8
1
 10
161.0597591799988
 20
185.7988440018222
  0
VERTEX
  8
1
 10
161.0597591799988
 20
185.7972827709588
  0
VERTEX
  8
1
 10
161.0597591799988
 20
185.7956355752815
  0
VERTEX
  8
1
 10
161.0597591799988
 20
185.7938989453142
  0
VERTEX
  8
1
 10
161.0597591799988
 20
185.7920694115807
  0
VERTEX
  8
1
 10
161.0597591799988
 20
185.7901435046049
  0
VERTEX
  8
1
 10
161.0597591799988
 20
185.788118121297
  0
VERTEX
  8
1
 10
161.0597591799988
 20
185.7859916241126
  0
VERTEX
  8
1
 10
161.0597591799988
 20
185.7837627418934
  0
VERTEX
  8
1
 10
161.0597591799988
 20
185.7814302034814
  0
VERTEX
  8
1
 10
161.0597591799988
 20
185.7789927377185
  0
VERTEX
  8
1
 10
161.0597591799988
 20
185.7764490734463
  0
VERTEX
  8
1
 10
161.0597591799988
 20
185.773797939507
  0
VERTEX
  8
1
 10
161.0597591799988
 20
185.7710380647422
  0
VERTEX
  8
1
 10
161.0597591799988
 20
185.7681703323322
  0
VERTEX
  8
1
 10
161.0597591799988
 20
185.7652042428095
  0
VERTEX
  8
1
 10
161.0597591799988
 20
185.7621514510454
  0
VERTEX
  8
1
 10
161.0597591799988
 20
185.7590236119106
  0
VERTEX
  8
1
 10
161.0597591799988
 20
185.7558323802764
  0
VERTEX
  8
1
 10
161.0597591799988
 20
185.7525894110136
  0
VERTEX
  8
1
 10
161.0597591799988
 20
185.7493063589933
  0
VERTEX
  8
1
 10
161.0597591799988
 20
185.7459948790864
  0
VERTEX
  8
1
 10
161.0597591799988
 20
185.7426609048561
  0
VERTEX
  8
1
 10
161.0597591799988
 20
185.7392874846333
  0
VERTEX
  8
1
 10
161.0597591799988
 20
185.7358519454414
  0
VERTEX
  8
1
 10
161.0597591799988
 20
185.7323316143035
  0
VERTEX
  8
1
 10
161.0597591799988
 20
185.7287038182427
  0
VERTEX
  8
1
 10
161.0597591799988
 20
185.7249458842824
  0
VERTEX
  8
1
 10
161.0597591799988
 20
185.7210351394456
  0
VERTEX
  8
1
 10
161.0597591799988
 20
185.7169489107555
  0
VERTEX
  8
1
 10
161.0597591799988
 20
185.7126853858286
  0
VERTEX
  8
1
 10
161.0597591799988
 20
185.7083261946547
  0
VERTEX
  8
1
 10
161.0597591799988
 20
185.7039738278168
  0
VERTEX
  8
1
 10
161.0597591799988
 20
185.699730775898
  0
VERTEX
  8
1
 10
161.0597591799988
 20
185.6956995294812
  0
VERTEX
  8
1
 10
161.0597591799988
 20
185.6919825791496
  0
VERTEX
  8
1
 10
161.0597591799988
 20
185.6886824154861
  0
VERTEX
  8
1
 10
161.0597591799988
 20
185.685901529074
  0
SEQEND
  8
1
  0
LINE
  8
1
  6
CONTINUOUS
 10
161.05975918
 20
184.8946675648
 11
161.1097592115
 21
184.8946675648
  0
POLYLINE
  8
1
  6
CONTINUOUS
 66
     1
 10
0.0
 20
0.0
 70
     0
 40
0.0
 41
0.0
  0
VERTEX
  8
1
 10
161.0597591799988
 20
185.0344720633301
  0
VERTEX
  8
1
 10
161.0597591799989
 20
185.0115425409993
  0
VERTEX
  8
1
 10
161.0597591799988
 20
185.003389659417
  0
VERTEX
  8
1
 10
161.0597591799988
 20
184.9992790375953
  0
VERTEX
  8
1
 10
161.0597591799988
 20
184.9953368418191
  0
VERTEX
  8
1
 10
161.0597591799988
 20
184.9915399084407
  0
VERTEX
  8
1
 10
161.0597591799988
 20
184.9878650738127
  0
VERTEX
  8
1
 10
161.0597591799988
 20
184.9842891742875
  0
VERTEX
  8
1
 10
161.0597591799988
 20
184.9807890462175
  0
VERTEX
  8
1
 10
161.0597591799988
 20
184.9773415259552
  0
VERTEX
  8
1
 10
161.0597591799988
 20
184.9739234498529
  0
VERTEX
  8
1
 10
161.0597591799988
 20
184.9705171838472
  0
VERTEX
  8
1
 10
161.0597591799988
 20
184.9671272122102
  0
VERTEX
  8
1
 10
161.0597591799988
 20
184.9637635487982
  0
VERTEX
  8
1
 10
161.0597591799988
 20
184.9604362074674
  0
VERTEX
  8
1
 10
161.0597591799988
 20
184.9571552020741
  0
VERTEX
  8
1
 10
161.0597591799988
 20
184.9539305464743
  0
VERTEX
  8
1
 10
161.0597591799988
 20
184.9507722545245
  0
VERTEX
  8
1
 10
161.0597591799988
 20
184.9476903400808
  0
VERTEX
  8
1
 10
161.0597591799988
 20
184.9446934892754
  0
VERTEX
  8
1
 10
161.0597591799988
 20
184.9417850773451
  0
VERTEX
  8
1
 10
161.0597591799988
 20
184.9389671518025
  0
VERTEX
  8
1
 10
161.0597591799988
 20
184.9362417601603
  0
VERTEX
  8
1
 10
161.0597591799988
 20
184.9336109499313
  0
VERTEX
  8
1
 10
161.0597591799988
 20
184.9310767686282
  0
VERTEX
  8
1
 10
161.0597591799988
 20
184.9286412637636
  0
VERTEX
  8
1
 10
161.0597591799988
 20
184.9263064828504
  0
VERTEX
  8
1
 10
161.0597591799988
 20
184.9240740736891
  0
VERTEX
  8
1
 10
161.0597591799988
 20
184.921944085232
  0
VERTEX
  8
1
 10
161.0597591799988
 20
184.9199161667196
  0
VERTEX
  8
1
 10
161.0597591799988
 20
184.9179899673919
  0
VERTEX
  8
1
 10
161.0597591799988
 20
184.9161651364894
  0
VERTEX
  8
1
 10
161.0597591799988
 20
184.9144413232523
  0
VERTEX
  8
1
 10
161.0597591799988
 20
184.9128181769208
  0
VERTEX
  8
1
 10
161.0597591799988
 20
184.9112953467352
  0
VERTEX
  8
1
 10
161.0597591799988
 20
184.909871831882
  0
VERTEX
  8
1
 10
161.0597591799988
 20
184.9085440313322
  0
VERTEX
  8
1
 10
161.0597591799988
 20
184.907307694003
  0
VERTEX
  8
1
 10
161.0597591799988
 20
184.9061585688115
  0
VERTEX
  8
1
 10
161.0597591799988
 20
184.9050924046751
  0
VERTEX
  8
1
 10
161.0597591799988
 20
184.9041049505107
  0
VERTEX
  8
1
 10
161.0597591799988
 20
184.9031919552358
  0
VERTEX
  8
1
 10
161.0597591799988
 20
184.9023491677674
  0
VERTEX
  8
1
 10
161.0597591799988
 20
184.9015720696023
  0
VERTEX
  8
1
 10
161.0597591799988
 20
184.9008550725558
  0
VERTEX
  8
1
 10
161.0597591799988
 20
184.9001923210226
  0
VERTEX
  8
1
 10
161.0597591799988
 20
184.8995779593976
  0
VERTEX
  8
1
 10
161.0597591799988
 20
184.8990061320755
  0
VERTEX
  8
1
 10
161.0597591799988
 20
184.8984709834512
  0
VERTEX
  8
1
 10
161.0597591799988
 20
184.8979666579194
  0
VERTEX
  8
1
 10
161.0597591799988
 20
184.8974872998751
  0
VERTEX
  8
1
 10
161.0597591799988
 20
184.8970286532683
  0
VERTEX
  8
1
 10
161.0597591799988
 20
184.8965928602709
  0
VERTEX
  8
1
 10
161.0597591799988
 20
184.8961836626102
  0
VERTEX
  8
1
 10
161.0597591799988
 20
184.8958048020133
  0
VERTEX
  8
1
 10
161.0597591799988
 20
184.8954600202076
  0
VERTEX
  8
1
 10
161.0597591799988
 20
184.8951530589202
  0
VERTEX
  8
1
 10
161.0597591799988
 20
184.8948876598785
  0
VERTEX
  8
1
 10
161.0597591799988
 20
184.8946675648096
  0
SEQEND
  8
1
  0
LINE
  8
1
  6
CONTINUOUS
 10
161.05975918
 20
145.0817157504
 11
161.05975918
 21
149.0817164061
  0
LINE
  8
1
  6
CONTINUOUS
 10
161.05975918
 20
161.956716421
 11
161.1097592115
 21
161.956716421
  0
LINE
  8
1
  6
CONTINUOUS
 10
161.05975918
 20
161.956716421
 11
161.05975918
 21
180.581717262
  0
LINE
  8
1
  6
CONTINUOUS
 10
161.05975918
 20
180.581717262
 11
161.1097592115
 21
180.581717262
  0
LINE
  8
1
  6
CONTINUOUS
 10
161.05975918
 20
207.2067168531
 11
161.1097592115
 21
207.2067168531
  0
LINE
  8
1
  6
CONTINUOUS
 10
161.05975918
 20
188.5817172927
 11
161.05975918
 21
207.5221725729
  0
LINE
  8
1
  6
CONTINUOUS
 10
161.05975918
 20
188.5817172927
 11
161.1097592115
 21
188.5817172927
  0
LINE
  8
1
  6
CONTINUOUS
 10
161.05975918
 20
184.2402635132
 11
161.1097592115
 21
184.2402635132
  0
LINE
  8
1
  6
CONTINUOUS
 10
161.05975918
 20
183.770282519
 11
161.05975918
 21
184.2402635132
  0
LINE
  8
1
  6
CONTINUOUS
 10
161.05975918
 20
184.5793638834
 11
161.1097592115
 21
184.5793638834
  0
POLYLINE
  8
1
  6
CONTINUOUS
 66
     1
 10
0.0
 20
0.0
 70
     0
 40
0.0
 41
0.0
  0
VERTEX
  8
1
 10
161.0597591799988
 20
184.5793638350938
  0
VERTEX
  8
1
 10
161.0597591799988
 20
184.5759795000878
  0
VERTEX
  8
1
 10
161.0597591799988
 20
184.5719576198826
  0
VERTEX
  8
1
 10
161.0597591799988
 20
184.5674171270048
  0
VERTEX
  8
1
 10
161.0597591799988
 20
184.5624769539805
  0
VERTEX
  8
1
 10
161.0597591799988
 20
184.5572560333363
  0
VERTEX
  8
1
 10
161.0597591799988
 20
184.5518732975985
  0
VERTEX
  8
1
 10
161.0597591799988
 20
184.5464476792934
  0
VERTEX
  8
1
 10
161.0597591799988
 20
184.5410981109475
  0
VERTEX
  8
1
 10
161.0597591799988
 20
184.535918195681
  0
VERTEX
  8
1
 10
161.0597591799988
 20
184.5309002189903
  0
VERTEX
  8
1
 10
161.0597591799988
 20
184.5260111369658
  0
VERTEX
  8
1
 10
161.0597591799988
 20
184.5212179056977
  0
VERTEX
  8
1
 10
161.0597591799988
 20
184.5164874812764
  0
VERTEX
  8
1
 10
161.0597591799988
 20
184.5117868197922
  0
VERTEX
  8
1
 10
161.0597591799988
 20
184.5070828773355
  0
VERTEX
  8
1
 10
161.0597591799988
 20
184.5023426099966
  0
VERTEX
  8
1
 10
161.0597591799988
 20
184.4975397325164
  0
VERTEX
  8
1
 10
161.0597591799988
 20
184.4926749942388
  0
VERTEX
  8
1
 10
161.0597591799988
 20
184.4877559031584
  0
VERTEX
  8
1
 10
161.0597591799988
 20
184.4827899672698
  0
VERTEX
  8
1
 10
161.0597591799988
 20
184.4777846945674
  0
VERTEX
  8
1
 10
161.0597591799988
 20
184.4727475930458
  0
VERTEX
  8
1
 10
161.0597591799988
 20
184.4676861706996
  0
VERTEX
  8
1
 10
161.0597591799988
 20
184.4626079355233
  0
VERTEX
  8
1
 10
161.0597591799988
 20
184.457518689536
  0
VERTEX
  8
1
 10
161.0597591799988
 20
184.4524174108543
  0
VERTEX
  8
1
 10
161.0597591799988
 20
184.4473013716197
  0
VERTEX
  8
1
 10
161.0597591799988
 20
184.4421678439734
  0
VERTEX
  8
1
 10
161.0597591799988
 20
184.4370141000566
  0
VERTEX
  8
1
 10
161.0597591799988
 20
184.4318374120106
  0
VERTEX
  8
1
 10
161.0597591799988
 20
184.4266350519768
  0
VERTEX
  8
1
 10
161.0597591799988
 20
184.4214042920964
  0
VERTEX
  8
1
 10
161.0597591799988
 20
184.4161425253084
  0
VERTEX
  8
1
 10
161.0597591799988
 20
184.4108476277435
  0
VERTEX
  8
1
 10
161.0597591799988
 20
184.4055175963299
  0
VERTEX
  8
1
 10
161.0597591799988
 20
184.4001504279961
  0
VERTEX
  8
1
 10
161.0597591799988
 20
184.3947441196703
  0
VERTEX
  8
1
 10
161.0597591799988
 20
184.389296668281
  0
VERTEX
  8
1
 10
161.0597591799988
 20
184.3838060707565
  0
VERTEX
  8
1
 10
161.0597591799988
 20
184.3782703240251
  0
VERTEX
  8
1
 10
161.0597591799988
 20
184.3726897306535
  0
VERTEX
  8
1
 10
161.0597591799988
 20
184.3670738157612
  0
VERTEX
  8
1
 10
161.0597591799988
 20
184.3614344101062
  0
VERTEX
  8
1
 10
161.0597591799988
 20
184.3557833444463
  0
VERTEX
  8
1
 10
161.0597591799988
 20
184.3501324495394
  0
VERTEX
  8
1
 10
161.0597591799988
 20
184.3444935561433
  0
VERTEX
  8
1
 10
161.0597591799988
 20
184.338878495016
  0
VERTEX
  8
1
 10
161.0597591799988
 20
184.3332990969153
  0
VERTEX
  8
1
 10
161.0597591799988
 20
184.327758839364
  0
VERTEX
  8
1
 10
161.0597591799988
 20
184.322227786945
  0
VERTEX
  8
1
 10
161.0597591799988
 20
184.3166676510059
  0
VERTEX
  8
1
 10
161.0597591799988
 20
184.3110401428946
  0
VERTEX
  8
1
 10
161.0597591799988
 20
184.3053069739587
  0
VERTEX
  8
1
 10
161.0597591799988
 20
184.299429855546
  0
VERTEX
  8
1
 10
161.0597591799988
 20
184.2933704990043
  0
VERTEX
  8
1
 10
161.0597591799988
 20
184.2870906156812
  0
VERTEX
  8
1
 10
161.0597591799988
 20
184.2805830606092
  0
VERTEX
  8
1
 10
161.0597591799988
 20
184.2739652635589
  0
VERTEX
  8
1
 10
161.0597591799988
 20
184.2673857979856
  0
VERTEX
  8
1
 10
161.0597591799988
 20
184.2609932373445
  0
VERTEX
  8
1
 10
161.0597591799988
 20
184.2549361550909
  0
VERTEX
  8
1
 10
161.0597591799988
 20
184.24936312468
  0
VERTEX
  8
1
 10
161.0597591799988
 20
184.2444227195672
  0
VERTEX
  8
1
 10
161.0597591799988
 20
184.2402635132077
  0
SEQEND
  8
1
  0
LINE
  8
1
  6
CONTINUOUS
 10
161.05975918
 20
184.7132191518
 11
161.1097592115
 21
184.7132191518
  0
POLYLINE
  8
1
  6
CONTINUOUS
 66
     1
 10
0.0
 20
0.0
 70
     0
 40
0.0
 41
0.0
  0
VERTEX
  8
1
 10
161.0597591799988
 20
184.7132191017251
  0
VERTEX
  8
1
 10
161.0597591799988
 20
184.712959256703
  0
VERTEX
  8
1
 10
161.0597591799988
 20
184.7126474906969
  0
VERTEX
  8
1
 10
161.0597591799988
 20
184.7122898617299
  0
VERTEX
  8
1
 10
161.0597591799988
 20
184.7118924278252
  0
VERTEX
  8
1
 10
161.0597591799988
 20
184.711461247006
  0
VERTEX
  8
1
 10
161.0597591799988
 20
184.7110023772954
  0
VERTEX
  8
1
 10
161.0597591799988
 20
184.7105218767165
  0
VERTEX
  8
1
 10
161.0597591799988
 20
184.7100258032927
  0
VERTEX
  8
1
 10
161.0597591799988
 20
184.7095182705169
  0
VERTEX
  8
1
 10
161.0597591799988
 20
184.708995613762
  0
VERTEX
  8
1
 10
161.0597591799988
 20
184.7084522238707
  0
VERTEX
  8
1
 10
161.0597591799988
 20
184.7078824916857
  0
VERTEX
  8
1
 10
161.0597591799988
 20
184.7072808080498
  0
VERTEX
  8
1
 10
161.0597591799988
 20
184.7066415638057
  0
VERTEX
  8
1
 10
161.0597591799988
 20
184.7059591497961
  0
VERTEX
  8
1
 10
161.0597591799988
 20
184.7052279568638
  0
VERTEX
  8
1
 10
161.0597591799988
 20
184.7044429078316
  0
VERTEX
  8
1
 10
161.0597591799988
 20
184.7036010534426
  0
VERTEX
  8
1
 10
161.0597591799988
 20
184.7026999764204
  0
VERTEX
  8
1
 10
161.0597591799988
 20
184.7017372594881
  0
VERTEX
  8
1
 10
161.0597591799988
 20
184.7007104853691
  0
VERTEX
  8
1
 10
161.0597591799988
 20
184.6996172367868
  0
VERTEX
  8
1
 10
161.0597591799988
 20
184.6984550964645
  0
VERTEX
  8
1
 10
161.0597591799988
 20
184.6972216471255
  0
VERTEX
  8
1
 10
161.0597591799988
 20
184.6959142867925
  0
VERTEX
  8
1
 10
161.0597591799988
 20
184.6945296746864
  0
VERTEX
  8
1
 10
161.0597591799988
 20
184.6930642853272
  0
VERTEX
  8
1
 10
161.0597591799988
 20
184.6915145932351
  0
VERTEX
  8
1
 10
161.0597591799988
 20
184.6898770729302
  0
VERTEX
  8
1
 10
161.0597591799988
 20
184.6881481989327
  0
VERTEX
  8
1
 10
161.0597591799988
 20
184.6863244457627
  0
VERTEX
  8
1
 10
161.0597591799988
 20
184.6844022879404
  0
VERTEX
  8
1
 10
161.0597591799988
 20
184.6823785715273
  0
VERTEX
  8
1
 10
161.0597591799988
 20
184.6802516287503
  0
VERTEX
  8
1
 10
161.0597591799988
 20
184.6780201633778
  0
VERTEX
  8
1
 10
161.0597591799988
 20
184.6756828791782
  0
VERTEX
  8
1
 10
161.0597591799988
 20
184.6732384799197
  0
VERTEX
  8
1
 10
161.0597591799988
 20
184.6706856693708
  0
VERTEX
  8
1
 10
161.0597591799988
 20
184.6680231512997
  0
VERTEX
  8
1
 10
161.0597591799988
 20
184.6652496294749
  0
VERTEX
  8
1
 10
161.0597591799988
 20
184.6623659952602
  0
VERTEX
  8
1
 10
161.0597591799988
 20
184.6593818904011
  0
VERTEX
  8
1
 10
161.0597591799988
 20
184.6563091442388
  0
VERTEX
  8
1
 10
161.0597591799988
 20
184.6531595861145
  0
VERTEX
  8
1
 10
161.0597591799988
 20
184.6499450453692
  0
VERTEX
  8
1
 10
161.0597591799988
 20
184.6466773513441
  0
VERTEX
  8
1
 10
161.0597591799988
 20
184.6433683333804
  0
VERTEX
  8
1
 10
161.0597591799988
 20
184.640029820819
  0
VERTEX
  8
1
 10
161.0597591799988
 20
184.6366678618629
  0
VERTEX
  8
1
 10
161.0597591799988
 20
184.6332653801615
  0
VERTEX
  8
1
 10
161.0597591799988
 20
184.6297995182258
  0
VERTEX
  8
1
 10
161.0597591799988
 20
184.626247418567
  0
VERTEX
  8
1
 10
161.0597591799988
 20
184.6225862236962
  0
VERTEX
  8
1
 10
161.0597591799988
 20
184.6187930761246
  0
VERTEX
  8
1
 10
161.0597591799988
 20
184.6148451183632
  0
VERTEX
  8
1
 10
161.0597591799988
 20
184.6107194929231
  0
VERTEX
  8
1
 10
161.0597591799988
 20
184.6064144132707
  0
VERTEX
  8
1
 10
161.0597591799988
 20
184.6020123766934
  0
VERTEX
  8
1
 10
161.0597591799988
 20
184.5976169514337
  0
VERTEX
  8
1
 10
161.0597591799988
 20
184.5933317057343
  0
VERTEX
  8
1
 10
161.0597591799988
 20
184.5892602078378
  0
VERTEX
  8
1
 10
161.0597591799988
 20
184.5855060259867
  0
VERTEX
  8
1
 10
161.0597591799988
 20
184.5821727284236
  0
VERTEX
  8
1
 10
161.0597591799988
 20
184.5793638833913
  0
SEQEND
  8
1
  0
LINE
  8
1
  6
CONTINUOUS
 10
161.05975918
 20
182.6012790891
 11
161.05975918
 21
183.5352919054
  0
LINE
  8
1
  6
CONTINUOUS
 10
161.05975918
 20
186.9619890106
 11
161.1097592115
 21
186.9619890106
  0
LINE
  8
1
  6
CONTINUOUS
 10
161.05975918
 20
186.0428490666
 11
161.05975918
 21
186.9619890106
  0
LINE
  8
1
  6
CONTINUOUS
 10
161.05975918
 20
186.0428490666
 11
161.1097592115
 21
186.0428490666
  0
LINE
  8
1
  6
CONTINUOUS
 10
161.05975918
 20
207.8612727103
 11
161.05975918
 21
208.334228116
  0
LINE
  8
1
  6
CONTINUOUS
 10
161.05975918
 20
208.334228116
 11
161.1097592115
 21
208.334228116
  0
LINE
  8
1
  6
CONTINUOUS
 10
161.05975918
 20
208.1230339584
 11
161.1097592115
 21
208.1230339584
  0
LINE
  8
1
  6
CONTINUOUS
 10
161.05975918
 20
207.3109784153
 11
161.1097592115
 21
207.3109784153
  0
LINE
  8
1
  6
CONTINUOUS
 10
161.05975918
 20
207.5221725729
 11
161.1097592115
 21
207.5221725729
  0
LINE
  8
1
  6
CONTINUOUS
 10
161.05975918
 20
161.4134629247
 11
161.1097592115
 21
161.4134629247
  0
POLYLINE
  8
1
  6
CONTINUOUS
 66
     1
 10
0.0
 20
0.0
 70
     0
 40
0.0
 41
0.0
  0
VERTEX
  8
1
 10
161.0597591799988
 20
161.7079452182305
  0
VERTEX
  8
1
 10
161.0597591799988
 20
161.7050682862848
  0
VERTEX
  8
1
 10
161.0597591799988
 20
161.7016492242978
  0
VERTEX
  8
1
 10
161.0597591799988
 20
161.6977889569703
  0
VERTEX
  8
1
 10
161.0597591799988
 20
161.6935884090028
  0
VERTEX
  8
1
 10
161.0597591799988
 20
161.6891485050961
  0
VERTEX
  8
1
 10
161.0597591799988
 20
161.6845701699508
  0
VERTEX
  8
1
 10
161.0597591799988
 20
161.6799543282676
  0
VERTEX
  8
1
 10
161.0597591799988
 20
161.6754019047473
  0
VERTEX
  8
1
 10
161.0597591799988
 20
161.6709922922763
  0
VERTEX
  8
1
 10
161.0597591799988
 20
161.6667187564848
  0
VERTEX
  8
1
 10
161.0597591799988
 20
161.6625530311885
  0
VERTEX
  8
1
 10
161.0597591799988
 20
161.6584668502034
  0
VERTEX
  8
1
 10
161.0597591799988
 20
161.6544319473453
  0
VERTEX
  8
1
 10
161.0597591799988
 20
161.6504200564303
  0
VERTEX
  8
1
 10
161.0597591799988
 20
161.6464029112741
  0
VERTEX
  8
1
 10
161.0597591799988
 20
161.6423522456927
  0
VERTEX
  8
1
 10
161.0597591799988
 20
161.6382455395599
  0
VERTEX
  8
1
 10
161.0597591799988
 20
161.6340832569807
  0
VERTEX
  8
1
 10
161.0597591799988
 20
161.6298716081184
  0
VERTEX
  8
1
 10
161.0597591799988
 20
161.6256168031358
  0
VERTEX
  8
1
 10
161.0597591799988
 20
161.621325052196
  0
VERTEX
  8
1
 10
161.0597591799988
 20
161.6170025654621
  0
VERTEX
  8
1
 10
161.0597591799988
 20
161.6126555530972
  0
VERTEX
  8
1
 10
161.0597591799988
 20
161.6082902252641
  0
VERTEX
  8
1
 10
161.0597591799988
 20
161.6039113390331
  0
VERTEX
  8
1
 10
161.0597591799988
 20
161.5995178391023
  0
VERTEX
  8
1
 10
161.0597591799988
 20
161.595107217077
  0
VERTEX
  8
1
 10
161.0597591799988
 20
161.5906769645623
  0
VERTEX
  8
1
 10
161.0597591799988
 20
161.5862245731634
  0
VERTEX
  8
1
 10
161.0597591799988
 20
161.5817475344857
  0
VERTEX
  8
1
 10
161.0597591799988
 20
161.5772433401342
  0
VERTEX
  8
1
 10
161.0597591799988
 20
161.5727094817142
  0
VERTEX
  8
1
 10
161.0597591799988
 20
161.5681435717174
  0
VERTEX
  8
1
 10
161.0597591799988
 20
161.5635437061807
  0
VERTEX
  8
1
 10
161.0597591799988
 20
161.5589081020275
  0
VERTEX
  8
1
 10
161.0597591799988
 20
161.5542349761813
  0
VERTEX
  8
1
 10
161.0597591799988
 20
161.5495225455655
  0
VERTEX
  8
1
 10
161.0597591799988
 20
161.5447690271034
  0
VERTEX
  8
1
 10
161.0597591799988
 20
161.5399726377184
  0
VERTEX
  8
1
 10
161.0597591799988
 20
161.535131594334
  0
VERTEX
  8
1
 10
161.0597591799988
 20
161.5302461932565
  0
VERTEX
  8
1
 10
161.0597591799988
 20
161.5253250483246
  0
VERTEX
  8
1
 10
161.0597591799988
 20
161.5203788527597
  0
VERTEX
  8
1
 10
161.0597591799988
 20
161.5154182997835
  0
VERTEX
  8
1
 10
161.0597591799988
 20
161.5104540826175
  0
VERTEX
  8
1
 10
161.0597591799988
 20
161.5054968944833
  0
VERTEX
  8
1
 10
161.0597591799988
 20
161.5005574286024
  0
VERTEX
  8
1
 10
161.0597591799988
 20
161.4956463781964
  0
VERTEX
  8
1
 10
161.0597591799988
 20
161.490767037723
  0
VERTEX
  8
1
 10
161.0597591799988
 20
161.4858931065846
  0
VERTEX
  8
1
 10
161.0597591799988
 20
161.4809908854196
  0
VERTEX
  8
1
 10
161.0597591799988
 20
161.4760266748664
  0
VERTEX
  8
1
 10
161.0597591799988
 20
161.4709667755636
  0
VERTEX
  8
1
 10
161.0597591799988
 20
161.4657774881495
  0
VERTEX
  8
1
 10
161.0597591799988
 20
161.4604251132627
  0
VERTEX
  8
1
 10
161.0597591799988
 20
161.4548759515415
  0
VERTEX
  8
1
 10
161.0597591799988
 20
161.4491238593205
  0
VERTEX
  8
1
 10
161.0597591799988
 20
161.4432729157179
  0
VERTEX
  8
1
 10
161.0597591799988
 20
161.437454755548
  0
VERTEX
  8
1
 10
161.0597591799988
 20
161.4318010136252
  0
VERTEX
  8
1
 10
161.0597591799988
 20
161.4264433247636
  0
VERTEX
  8
1
 10
161.0597591799988
 20
161.4215133237776
  0
VERTEX
  8
1
 10
161.0597591799988
 20
161.4171426454814
  0
VERTEX
  8
1
 10
161.0597591799988
 20
161.4134629246893
  0
SEQEND
  8
1
  0
LINE
  8
1
  6
CONTINUOUS
 10
161.05975918
 20
161.7079452601
 11
161.1097592115
 21
161.7079452601
  0
LINE
  8
1
  6
CONTINUOUS
 10
161.05975918
 20
161.1189805892
 11
161.1097592115
 21
161.1189805892
  0
POLYLINE
  8
1
  6
CONTINUOUS
 66
     1
 10
0.0
 20
0.0
 70
     0
 40
0.0
 41
0.0
  0
VERTEX
  8
1
 10
161.0597591799988
 20
161.4134628823211
  0
VERTEX
  8
1
 10
161.0597591799988
 20
161.4097696166019
  0
VERTEX
  8
1
 10
161.0597591799988
 20
161.4053826879785
  0
VERTEX
  8
1
 10
161.0597591799988
 20
161.4004340448952
  0
VERTEX
  8
1
 10
161.0597591799988
 20
161.3950556357959
  0
VERTEX
  8
1
 10
161.0597591799988
 20
161.3893794091248
  0
VERTEX
  8
1
 10
161.0597591799988
 20
161.383537313326
  0
VERTEX
  8
1
 10
161.0597591799988
 20
161.3776612968437
  0
VERTEX
  8
1
 10
161.0597591799988
 20
161.3718833081218
  0
VERTEX
  8
1
 10
161.0597591799988
 20
161.3663076539437
  0
VERTEX
  8
1
 10
161.0597591799988
 20
161.3609280744491
  0
VERTEX
  8
1
 10
161.0597591799988
 20
161.3557106681169
  0
VERTEX
  8
1
 10
161.0597591799988
 20
161.350621533426
  0
VERTEX
  8
1
 10
161.0597591799988
 20
161.3456267688552
  0
VERTEX
  8
1
 10
161.0597591799988
 20
161.3406924728835
  0
VERTEX
  8
1
 10
161.0597591799988
 20
161.3357847439898
  0
VERTEX
  8
1
 10
161.0597591799988
 20
161.3308696806529
  0
VERTEX
  8
1
 10
161.0597591799988
 20
161.3259207472285
  0
VERTEX
  8
1
 10
161.0597591799988
 20
161.3209408715797
  0
VERTEX
  8
1
 10
161.0597591799988
 20
161.3159403474463
  0
VERTEX
  8
1
 10
161.0597591799988
 20
161.3109294685682
  0
VERTEX
  8
1
 10
161.0597591799988
 20
161.3059185286852
  0
VERTEX
  8
1
 10
161.0597591799988
 20
161.3009178215373
  0
VERTEX
  8
1
 10
161.0597591799988
 20
161.2959376408642
  0
VERTEX
  8
1
 10
161.0597591799988
 20
161.2909882804058
  0
VERTEX
  8
1
 10
161.0597591799988
 20
161.2860782113721
  0
VERTEX
  8
1
 10
161.0597591799988
 20
161.2812086148533
  0
VERTEX
  8
1
 10
161.0597591799988
 20
161.2763788494098
  0
VERTEX
  8
1
 10
161.0597591799988
 20
161.2715882736018
  0
VERTEX
  8
1
 10
161.0597591799988
 20
161.2668362459898
  0
VERTEX
  8
1
 10
161.0597591799988
 20
161.262122125134
  0
VERTEX
  8
1
 10
161.0597591799988
 20
161.2574452695949
  0
VERTEX
  8
1
 10
161.0597591799988
 20
161.2528050379327
  0
VERTEX
  8
1
 10
161.0597591799988
 20
161.2482006518194
  0
VERTEX
  8
1
 10
161.0597591799988
 20
161.2436307853735
  0
VERTEX
  8
1
 10
161.0597591799988
 20
161.2390939758251
  0
VERTEX
  8
1
 10
161.0597591799988
 20
161.2345887604044
  0
VERTEX
  8
1
 10
161.0597591799988
 20
161.2301136763415
  0
VERTEX
  8
1
 10
161.0597591799988
 20
161.2256672608664
  0
VERTEX
  8
1
 10
161.0597591799989
 20
161.2212480512093
  0
VERTEX
  8
1
 10
161.0597591799988
 20
161.2168545846004
  0
VERTEX
  8
1
 10
161.0597591799988
 20
161.2124865233385
  0
VERTEX
  8
1
 10
161.0597591799988
 20
161.2081480299984
  0
VERTEX
  8
1
 10
161.0597591799988
 20
161.2038443922236
  0
VERTEX
  8
1
 10
161.0597591799988
 20
161.1995808976574
  0
VERTEX
  8
1
 10
161.0597591799988
 20
161.1953628339434
  0
VERTEX
  8
1
 10
161.0597591799988
 20
161.1911954887251
  0
VERTEX
  8
1
 10
161.0597591799988
 20
161.1870841496459
  0
VERTEX
  8
1
 10
161.0597591799988
 20
161.1830341043494
  0
VERTEX
  8
1
 10
161.0597591799988
 20
161.1790451204885
  0
VERTEX
  8
1
 10
161.0597591799988
 20
161.1750948857546
  0
VERTEX
  8
1
 10
161.0597591799988
 20
161.1711555678482
  0
VERTEX
  8
1
 10
161.0597591799988
 20
161.1671993344702
  0
VERTEX
  8
1
 10
161.0597591799988
 20
161.1631983533214
  0
VERTEX
  8
1
 10
161.0597591799988
 20
161.1591247921024
  0
VERTEX
  8
1
 10
161.0597591799988
 20
161.1549508185141
  0
VERTEX
  8
1
 10
161.0597591799988
 20
161.1506486002572
  0
VERTEX
  8
1
 10
161.0597591799988
 20
161.1435207856465
  0
VERTEX
  8
1
 10
161.0597591799989
 20
161.1189805892411
  0
SEQEND
  8
1
  0
LINE
  8
1
  6
CONTINUOUS
 10
161.05975918
 20
161.8774943975
 11
161.1097592115
 21
161.8774943975
  0
LINE
  8
1
  6
CONTINUOUS
 10
161.05975918
 20
160.8958878544
 11
161.1097592115
 21
160.8958878544
  0
LINE
  8
1
  6
CONTINUOUS
 10
161.05975918
 20
207.8612727103
 11
161.1097592115
 21
207.8612727103
  0
LINE
  8
1
  6
CONTINUOUS
 10
177.3597595468
 20
173.8317172033
 11
177.3597595468
 21
174.0817172443
  0
LINE
  8
1
  6
CONTINUOUS
 10
177.3597595468
 20
178.5817172834
 11
177.3597595468
 21
178.8317173244
  0
POLYLINE
  8
100
  6
CONTINUOUS
 66
     1
 70
     0
 40
0.0
 41
0.0
  0
VERTEX
  8
100
 10
52.2507727137
 20
195.2217063043
  0
VERTEX
  8
100
 10
66.38738809680001
 20
195.2217063043
  0
VERTEX
  8
100
 10
66.38738809680001
 20
199.2217063043
  0
VERTEX
  8
100
 10
52.2507727137
 20
199.2217063043
  0
VERTEX
  8
100
 10
52.2507727137
 20
195.2217063043
  0
SEQEND
  8
100
  0
POLYLINE
  8
100
  6
CONTINUOUS
 66
     1
 70
     0
 40
0.0
 41
0.0
  0
VERTEX
  8
100
 10
61.5758617349
 20
194.6840513788
  0
VERTEX
  8
100
 10
75.71247711800001
 20
194.6840513788
  0
VERTEX
  8
100
 10
75.71247711800001
 20
190.6840513788
  0
VERTEX
  8
100
 10
61.5758617349
 20
190.6840513788
  0
VERTEX
  8
100
 10
61.5758617349
 20
194.6840513788
  0
SEQEND
  8
100
  0
POLYLINE
  8
100
  6
CONTINUOUS
 66
     1
 70
     0
 40
0.0
 41
0.0
  0
VERTEX
  8
100
 10
70.8176910326
 20
190.1463964533
  0
VERTEX
  8
100
 10
84.9543064157
 20
190.1463964533
  0
VERTEX
  8
100
 10
84.9543064157
 20
186.1463964533
  0
VERTEX
  8
100
 10
70.8176910326
 20
186.1463964533
  0
VERTEX
  8
100
 10
70.8176910326
 20
190.1463964533
  0
SEQEND
  8
100
  0
POLYLINE
  8
100
  6
CONTINUOUS
 66
     1
 70
     0
 40
0.0
 41
0.0
  0
VERTEX
  8
100
 10
52.3428012348
 20
190.1233471392
  0
VERTEX
  8
100
 10
66.4794166179
 20
190.1233471392
  0
VERTEX
  8
100
 10
66.4794166179
 20
186.1233471392
  0
VERTEX
  8
100
 10
52.3428012348
 20
186.1233471392
  0
VERTEX
  8
100
 10
52.3428012348
 20
190.1233471392
  0
SEQEND
  8
100
  0
POLYLINE
  8
100
  6
CONTINUOUS
 66
     1
 70
     0
 40
0.0
 41
0.0
  0
VERTEX
  8
100
 10
70.77606117090001
 20
199.2217063043
  0
VERTEX
  8
100
 10
84.912676554
 20
199.2217063043
  0
VERTEX
  8
100
 10
84.912676554
 20
195.2217063043
  0
VERTEX
  8
100
 10
70.77606117090001
 20
195.2217063043
  0
VERTEX
  8
100
 10
70.77606117090001
 20
199.2217063043
  0
SEQEND
  8
100
  0
INSERT
  8
100
  6
CONTINUOUS
  2
NMB-WAKU_0001
 10
33.47525593341493
 20
210.8341123257546
 41
1.0
 42
1.0
 50
0.0
  0
POLYLINE
  8
100
  6
CONTINUOUS
 66
     1
 70
     0
 40
0.0
 41
0.0
  0
VERTEX
  8
100
 10
52.2507727137
 20
199.2217063043
  0
VERTEX
  8
100
 10
66.38738809680001
 20
199.2217063043
  0
VERTEX
  8
100
 10
66.38738809680001
 20
195.2217063043
  0
VERTEX
  8
100
 10
52.2507727137
 20
195.2217063043
  0
VERTEX
  8
100
 10
52.2507727137
 20
199.2217063043
  0
SEQEND
  8
100
  0
POLYLINE
  8
100
  6
CONTINUOUS
 66
     1
 70
     0
 40
0.0
 41
0.0
  0
VERTEX
  8
100
 10
61.5758617349
 20
194.6840513788
  0
VERTEX
  8
100
 10
75.71247711800001
 20
194.6840513788
  0
VERTEX
  8
100
 10
75.71247711800001
 20
190.6840513788
  0
VERTEX
  8
100
 10
61.5758617349
 20
190.6840513788
  0
VERTEX
  8
100
 10
61.5758617349
 20
194.6840513788
  0
SEQEND
  8
100
  0
POLYLINE
  8
100
  6
CONTINUOUS
 66
     1
 70
     0
 40
0.0
 41
0.0
  0
VERTEX
  8
100
 10
70.77606117090001
 20
199.2217063043
  0
VERTEX
  8
100
 10
84.912676554
 20
199.2217063043
  0
VERTEX
  8
100
 10
84.912676554
 20
195.2217063043
  0
VERTEX
  8
100
 10
70.77606117090001
 20
195.2217063043
  0
VERTEX
  8
100
 10
70.77606117090001
 20
199.2217063043
  0
SEQEND
  8
100
  0
POLYLINE
  8
100
  6
CONTINUOUS
 66
     1
 70
     0
 40
0.0
 41
0.0
  0
VERTEX
  8
100
 10
52.3428012348
 20
190.1233471392
  0
VERTEX
  8
100
 10
66.4794166179
 20
190.1233471392
  0
VERTEX
  8
100
 10
66.4794166179
 20
186.1233471392
  0
VERTEX
  8
100
 10
52.3428012348
 20
186.1233471392
  0
VERTEX
  8
100
 10
52.3428012348
 20
190.1233471392
  0
SEQEND
  8
100
  0
POLYLINE
  8
100
  6
CONTINUOUS
 66
     1
 70
     0
 40
0.0
 41
0.0
  0
VERTEX
  8
100
 10
70.8176910326
 20
190.1463964533
  0
VERTEX
  8
100
 10
84.9543064157
 20
190.1463964533
  0
VERTEX
  8
100
 10
84.9543064157
 20
186.1463964533
  0
VERTEX
  8
100
 10
70.8176910326
 20
186.1463964533
  0
VERTEX
  8
100
 10
70.8176910326
 20
190.1463964533
  0
SEQEND
  8
100
  0
INSERT
  8
4
  6
CONTINUOUS
  2
COMP1
 10
0.0
 20
0.0
 41
1.0
 42
1.0
 50
0.0
  0
INSERT
  8
4
  6
CONTINUOUS
  2
COMP2
 10
0.0
 20
0.0
 41
1.0
 42
1.0
 50
0.0
  0
INSERT
  8
4
  6
CONTINUOUS
  2
COMP3
 10
0.0
 20
0.0
 41
1.0
 42
1.0
 50
0.0
  0
INSERT
  8
4
  6
CONTINUOUS
  2
COMP4
 10
0.0
 20
0.0
 41
1.0
 42
1.0
 50
0.0
  0
INSERT
  8
4
  6
CONTINUOUS
  2
COMP5
 10
0.0
 20
0.0
 41
1.0
 42
1.0
 50
0.0
  0
INSERT
  8
4
  6
CONTINUOUS
  2
COMP6
 10
0.0
 20
0.0
 41
1.0
 42
1.0
 50
0.0
  0
INSERT
  8
4
  6
CONTINUOUS
  2
COMP7
 10
0.0
 20
0.0
 41
1.0
 42
1.0
 50
0.0
  0
INSERT
  8
4
  6
CONTINUOUS
  2
COMP8
 10
0.0
 20
0.0
 41
1.0
 42
1.0
 50
0.0
  0
INSERT
  8
4
  6
CONTINUOUS
  2
COMP9
 10
0.0
 20
0.0
 41
1.0
 42
1.0
 50
0.0
  0
INSERT
  8
4
  6
CONTINUOUS
  2
COMP10
 10
0.0
 20
0.0
 41
1.0
 42
1.0
 50
0.0
  0
INSERT
  8
4
  6
CONTINUOUS
  2
COMP11
 10
0.0
 20
0.0
 41
1.0
 42
1.0
 50
0.0
  0
INSERT
  8
4
  6
CONTINUOUS
  2
COMP12
 10
0.0
 20
0.0
 41
1.0
 42
1.0
 50
0.0
  0
INSERT
  8
4
  6
CONTINUOUS
  2
COMP13
 10
0.0
 20
0.0
 41
1.0
 42
1.0
 50
0.0
  0
INSERT
  8
4
  6
CONTINUOUS
  2
COMP14
 10
0.0
 20
0.0
 41
1.0
 42
1.0
 50
0.0
  0
INSERT
  8
4
  6
CONTINUOUS
  2
COMP15
 10
0.0
 20
0.0
 41
1.0
 42
1.0
 50
0.0
  0
INSERT
  8
4
  6
CONTINUOUS
  2
COMP16
 10
0.0
 20
0.0
 41
1.0
 42
1.0
 50
0.0
  0
INSERT
  8
4
  6
CONTINUOUS
  2
COMP17
 10
0.0
 20
0.0
 41
1.0
 42
1.0
 50
0.0
  0
INSERT
  8
4
  6
CONTINUOUS
  2
COMP18
 10
0.0
 20
0.0
 41
1.0
 42
1.0
 50
0.0
  0
INSERT
  8
4
  6
CONTINUOUS
  2
COMP19
 10
0.0
 20
0.0
 41
1.0
 42
1.0
 50
0.0
  0
INSERT
  8
4
  6
CONTINUOUS
  2
COMP20
 10
0.0
 20
0.0
 41
1.0
 42
1.0
 50
0.0
  0
INSERT
  8
4
  6
CONTINUOUS
  2
COMP21
 10
0.0
 20
0.0
 41
1.0
 42
1.0
 50
0.0
  0
INSERT
  8
4
  6
CONTINUOUS
  2
COMP22
 10
0.0
 20
0.0
 41
1.0
 42
1.0
 50
0.0
  0
INSERT
  8
4
  6
CONTINUOUS
  2
COMP23
 10
0.0
 20
0.0
 41
1.0
 42
1.0
 50
0.0
  0
INSERT
  8
4
  6
CONTINUOUS
  2
COMP24
 10
0.0
 20
0.0
 41
1.0
 42
1.0
 50
0.0
  0
INSERT
  8
4
  6
CONTINUOUS
  2
COMP25
 10
0.0
 20
0.0
 41
1.0
 42
1.0
 50
0.0
  0
INSERT
  8
4
  6
CONTINUOUS
  2
COMP26
 10
0.0
 20
0.0
 41
1.0
 42
1.0
 50
0.0
  0
INSERT
  8
4
  6
CONTINUOUS
  2
COMP27
 10
0.0
 20
0.0
 41
1.0
 42
1.0
 50
0.0
  0
INSERT
  8
4
  6
CONTINUOUS
  2
COMP28
 10
0.0
 20
0.0
 41
1.0
 42
1.0
 50
0.0
  0
INSERT
  8
4
  6
CONTINUOUS
  2
COMP29
 10
0.0
 20
0.0
 41
1.0
 42
1.0
 50
0.0
  0
INSERT
  8
4
  6
CONTINUOUS
  2
COMP30
 10
0.0
 20
0.0
 41
1.0
 42
1.0
 50
0.0
  0
INSERT
  8
4
  6
CONTINUOUS
  2
COMP31
 10
0.0
 20
0.0
 41
1.0
 42
1.0
 50
0.0
  0
INSERT
  8
4
  6
CONTINUOUS
  2
COMP32
 10
0.0
 20
0.0
 41
1.0
 42
1.0
 50
0.0
  0
INSERT
  8
4
  6
CONTINUOUS
  2
COMP33
 10
0.0
 20
0.0
 41
1.0
 42
1.0
 50
0.0
  0
INSERT
  8
4
  6
CONTINUOUS
  2
COMP34
 10
0.0
 20
0.0
 41
1.0
 42
1.0
 50
0.0
  0
INSERT
  8
4
  6
CONTINUOUS
  2
COMP35
 10
0.0
 20
0.0
 41
1.0
 42
1.0
 50
0.0
  0
INSERT
  8
4
  6
CONTINUOUS
  2
COMP36
 10
0.0
 20
0.0
 41
1.0
 42
1.0
 50
0.0
  0
INSERT
  8
4
  6
CONTINUOUS
  2
COMP37
 10
0.0
 20
0.0
 41
1.0
 42
1.0
 50
0.0
  0
INSERT
  8
4
  6
CONTINUOUS
  2
COMP38
 10
0.0
 20
0.0
 41
1.0
 42
1.0
 50
0.0
  0
INSERT
  8
4
  6
CONTINUOUS
  2
COMP39
 10
0.0
 20
0.0
 41
1.0
 42
1.0
 50
0.0
  0
INSERT
  8
4
  6
CONTINUOUS
  2
COMP40
 10
0.0
 20
0.0
 41
1.0
 42
1.0
 50
0.0
  0
INSERT
  8
4
  6
CONTINUOUS
  2
COMP41
 10
0.0
 20
0.0
 41
1.0
 42
1.0
 50
0.0
  0
INSERT
  8
4
  6
CONTINUOUS
  2
COMP42
 10
0.0
 20
0.0
 41
1.0
 42
1.0
 50
0.0
  0
INSERT
  8
4
  6
CONTINUOUS
  2
COMP43
 10
0.0
 20
0.0
 41
1.0
 42
1.0
 50
0.0
  0
INSERT
  8
4
  6
CONTINUOUS
  2
COMP44
 10
0.0
 20
0.0
 41
1.0
 42
1.0
 50
0.0
  0
INSERT
  8
4
  6
CONTINUOUS
  2
COMP45
 10
0.0
 20
0.0
 41
1.0
 42
1.0
 50
0.0
  0
INSERT
  8
4
  6
CONTINUOUS
  2
COMP46
 10
0.0
 20
0.0
 41
1.0
 42
1.0
 50
0.0
  0
INSERT
  8
4
  6
CONTINUOUS
  2
COMP47
 10
0.0
 20
0.0
 41
1.0
 42
1.0
 50
0.0
  0
INSERT
  8
4
  6
CONTINUOUS
  2
COMP48
 10
0.0
 20
0.0
 41
1.0
 42
1.0
 50
0.0
  0
INSERT
  8
4
  6
CONTINUOUS
  2
COMP49
 10
0.0
 20
0.0
 41
1.0
 42
1.0
 50
0.0
  0
INSERT
  8
4
  6
CONTINUOUS
  2
COMP50
 10
0.0
 20
0.0
 41
1.0
 42
1.0
 50
0.0
  0
INSERT
  8
4
  6
CONTINUOUS
  2
COMP51
 10
0.0
 20
0.0
 41
1.0
 42
1.0
 50
0.0
  0
INSERT
  8
4
  6
CONTINUOUS
  2
COMP52
 10
0.0
 20
0.0
 41
1.0
 42
1.0
 50
0.0
  0
INSERT
  8
4
  6
CONTINUOUS
  2
COMP53
 10
0.0
 20
0.0
 41
1.0
 42
1.0
 50
0.0
  0
INSERT
  8
4
  6
CONTINUOUS
  2
COMP54
 10
0.0
 20
0.0
 41
1.0
 42
1.0
 50
0.0
  0
INSERT
  8
4
  6
CONTINUOUS
  2
COMP55
 10
0.0
 20
0.0
 41
1.0
 42
1.0
 50
0.0
  0
INSERT
  8
4
  6
CONTINUOUS
  2
COMP56
 10
0.0
 20
0.0
 41
1.0
 42
1.0
 50
0.0
  0
INSERT
  8
4
  6
CONTINUOUS
  2
COMP57
 10
0.0
 20
0.0
 41
1.0
 42
1.0
 50
0.0
  0
INSERT
  8
4
  6
CONTINUOUS
  2
COMP58
 10
0.0
 20
0.0
 41
1.0
 42
1.0
 50
0.0
  0
INSERT
  8
4
  6
CONTINUOUS
  2
COMP59
 10
0.0
 20
0.0
 41
1.0
 42
1.0
 50
0.0
  0
INSERT
  8
4
  6
CONTINUOUS
  2
COMP60
 10
0.0
 20
0.0
 41
1.0
 42
1.0
 50
0.0
  0
INSERT
  8
4
  6
CONTINUOUS
  2
COMP61
 10
0.0
 20
0.0
 41
1.0
 42
1.0
 50
0.0
  0
INSERT
  8
4
  6
CONTINUOUS
  2
COMP62
 10
0.0
 20
0.0
 41
1.0
 42
1.0
 50
0.0
  0
INSERT
  8
4
  6
CONTINUOUS
  2
COMP63
 10
0.0
 20
0.0
 41
1.0
 42
1.0
 50
0.0
  0
INSERT
  8
4
  6
CONTINUOUS
  2
COMP64
 10
0.0
 20
0.0
 41
1.0
 42
1.0
 50
0.0
  0
INSERT
  8
4
  6
CONTINUOUS
  2
COMP65
 10
0.0
 20
0.0
 41
1.0
 42
1.0
 50
0.0
  0
ENDSEC
  0
EOF
