  0
SECTION
  2
HEADER
  9
$ACADVER
  1
AC1006
  9
$INSBASE
 10
0.0
 20
0.0
 30
0.0
  9
$EXTMIN
 10
-24.0
 20
-48.0
  9
$EXTMAX
 10
304.6447184085846
 20
48.0
  9
$LIMMIN
 10
-24.0
 20
-48.0
  9
$LIMMAX
 10
304.6447184085846
 20
48.0
  9
$ORTHOMODE
 70
     0
  9
$REGENMODE
 70
     1
  9
$FILLMODE
 70
     1
  9
$QTEXTMODE
 70
     0
  9
$MIRRTEXT
 70
     1
  9
$DRAGMODE
 70
     2
  9
$LTSCALE
 40
1.0
  9
$OSMODE
 70
     0
  9
$ATTMODE
 70
     1
  9
$TEXTSIZE
 40
3.0
  9
$TRACEWID
 40
0.5
  9
$TEXTSTYLE
  7
STANDARD
  9
$CLAYER
  8
0
  9
$CELTYPE
  6
BYLAYER
  9
$CECOLOR
 62
   256
  9
$DIMSCALE
 40
1.0
  9
$DIMASZ
 40
3.0
  9
$DIMEXO
 40
1.0
  9
$DIMDLI
 40
5.0
  9
$DIMRND
 40
0.0
  9
$DIMDLE
 40
5.0
  9
$DIMEXE
 40
2.0
  9
$DIMTP
 40
0.0
  9
$DIMTM
 40
0.0
  9
$DIMTXT
 40
3.0
  9
$DIMCEN
 40
2.0
  9
$DIMTSZ
 40
0.0
  9
$DIMTOL
 70
     0
  9
$DIMLIM
 70
     0
  9
$DIMTIH
 70
     0
  9
$DIMTOH
 70
     0
  9
$DIMSE1
 70
     0
  9
$DIMSE2
 70
     0
  9
$DIMTAD
 70
     1
  9
$DIMZIN
 70
     8
  9
$DIMBLK
  1

  9
$DIMASO
 70
     1
  9
$DIMSHO
 70
     0
  9
$DIMPOST
  1

  9
$DIMAPOST
  1

  9
$DIMALT
 70
     0
  9
$DIMALTD
 70
     4
  9
$DIMALTF
 40
25.4
  9
$DIMLFAC
 40
1.0
  9
$DIMTOFL
 70
     1
  9
$DIMTVP
 40
1.0
  9
$DIMTIX
 70
     0
  9
$DIMSOXD
 70
     0
  9
$DIMSAH
 70
     0
  9
$DIMBLK1
  1

  9
$DIMBLK2
  1

  9
$LUNITS
 70
     2
  9
$LUPREC
 70
     4
  9
$AXISMODE
 70
     0
  9
$AXISUNIT
 10
0.0
 20
0.0
  9
$SKETCHINC
 40
1.0
  9
$FILLETRAD
 40
0.0
  9
$AUNITS
 70
     0
  9
$AUPREC
 70
     0
  9
$MENU
  1
acad
  9
$ELEVATION
 40
0.0
  9
$THICKNESS
 40
0.0
  9
$LIMCHECK
 70
     0
  9
$BLIPMODE
 70
     1
  9
$CHAMFERA
 40
0.0
  9
$CHAMFERB
 40
0.0
  9
$SKPOLY
 70
     0
  9
$TDCREATE
 40
2454078.704143519
  9
$TDUPDATE
 40
2454078.704143519
  9
$TDINDWG
 40
0.0
  9
$TDUSRTIMER
 40
0.0
  9
$USRTIMER
 70
     1
  9
$ANGBASE
 50
0.0
  9
$ANGDIR
 70
     0
  9
$PDMODE
 70
     0
  9
$PDSIZE
 40
0.0
  9
$PLINEWID
 40
0.0
  9
$COORDS
 70
     0
  9
$SPLFRAME
 70
     0
  9
$SPLINETYPE
 70
     6
  9
$SPLINESEGS
 70
     8
  9
$ATTDIA
 70
     0
  9
$ATTREQ
 70
     1
  9
$HANDLING
 70
     0
  9
$HANDSEED
  5
0
  9
$SURFTAB1
 70
     6
  9
$SURFTAB2
 70
     6
  9
$SURFTYPE
 70
     6
  9
$SURFU
 70
     6
  9
$SURFV
 70
     6
  9
$FLATLAND
 70
     0
  9
$UCSNAME
  2

  9
$UCSORG
 10
0.0
 20
0.0
 30
0.0
  9
$UCSXDIR
 10
1.0
 20
0.0
 30
0.0
  9
$UCSYDIR
 10
0.0
 20
1.0
 30
0.0
  9
$USERI1
 70
     0
  9
$USERI2
 70
     0
  9
$USERI3
 70
     0
  9
$USERI4
 70
     0
  9
$USERI5
 70
     0
  9
$USERR1
 40
0.0
  9
$USERR2
 40
0.0
  9
$USERR3
 40
0.0
  9
$USERR4
 40
0.0
  9
$USERR5
 40
0.0
  9
$WORLDVIEW
 70
     1
  0
ENDSEC
  0
SECTION
  2
TABLES
  0
TABLE
  2
VPORT
 70
     1
  0
VPORT
  2
*ACTIVE
 70
     0
 10
0.0
 20
0.0
 11
1.0
 21
1.0
 12
140.3223592042923
 22
0.0
 13
0.0
 23
0.0
 14
0.0
 24
0.0
 15
0.0
 25
0.0
 16
0.0
 26
0.0
 36
1.0
 17
0.0
 27
0.0
 37
0.0
 40
328.6447184085846
 41
1.5
 42
50.0
 43
0.0
 44
0.0
 50
0.0
 51
0.0
 71
     0
 72
   100
 73
     1
 74
     1
 75
     0
 76
     0
 77
     0
 78
     0
  0
ENDTAB
  0
TABLE
  2
LTYPE
 70
    20
  0
LTYPE
  2
CONTINUOUS
 70
    64
  3
solid line
 72
    65
 73
     0
 40
0.0
  0
ENDTAB
  0
TABLE
  2
LAYER
 70
    20
  0
LAYER
  2
0
 70
    64
 62
     7
  6
CONTINUOUS
  0
LAYER
  2
10
 70
    64
 62
     7
  6
CONTINUOUS
  0
LAYER
  2
11
 70
    64
 62
     7
  6
CONTINUOUS
  0
LAYER
  2
4
 70
    64
 62
     7
  6
CONTINUOUS
  0
LAYER
  2
12
 70
    64
 62
     7
  6
CONTINUOUS
  0
LAYER
  2
30
 70
    64
 62
     7
  6
CONTINUOUS
  0
LAYER
  2
1
 70
    64
 62
     7
  6
CONTINUOUS
  0
LAYER
  2
14
 70
    64
 62
     7
  6
CONTINUOUS
  0
LAYER
  2
15
 70
    64
 62
     7
  6
CONTINUOUS
  0
LAYER
  2
20
 70
    64
 62
     7
  6
CONTINUOUS
  0
ENDTAB
  0
TABLE
  2
STYLE
 70
     4
  0
ENDTAB
  0
TABLE
  2
VIEW
 70
     0
  0
ENDTAB
  0
TABLE
  2
UCS
 70
     0
  0
ENDTAB
  0
TABLE
  2
DWGMGR
 70
     0
  0
ENDTAB
  0
ENDSEC
  0
SECTION
  2
BLOCKS
  0
BLOCK
  8
14
  2
COMP1
 70
    64
 10
0.0
 20
0.0
  0
ARC
  8
14
  6
CONTINUOUS
 10
201.8759672021866
 20
26.67000000000002
 40
8.089999999999977
 50
339.7506566892043
 51
20.24934331079568
  0
ARC
  8
14
  6
CONTINUOUS
 10
202.8759672021866
 20
26.67000000000002
 40
8.089999999999977
 50
339.7506566892043
 51
20.24934331079568
  0
LINE
  8
14
  6
CONTINUOUS
 10
210.4659672021866
 20
29.47000000000001
 11
209.4659672021866
 21
29.47000000000001
  0
LINE
  8
14
  6
CONTINUOUS
 10
210.4659672021866
 20
23.87000000000002
 11
209.4659672021866
 21
23.87000000000002
  0
LINE
  8
10
  6
CONTINUOUS
 10
210.9659672021866
 20
23.92000000000002
 11
210.9659672021866
 21
29.42000000000002
  0
LINE
  8
10
  6
CONTINUOUS
 10
211.8132160850648
 20
29.34587532756317
 11
210.9659672021866
 21
29.42000000000002
  0
LINE
  8
10
  6
CONTINUOUS
 10
211.8132160850648
 20
23.99412467243686
 11
210.9659672021866
 21
23.92000000000002
  0
ARC
  8
10
  6
CONTINUOUS
 10
205.9659672021866
 20
26.67000000000002
 40
7.0
 50
343.7429721033964
 51
16.25702789660359
  0
ARC
  8
10
  6
CONTINUOUS
 10
211.7260603423171
 20
28.34968062947143
 40
1.0
 50
16.25702789660349
 51
85.00000000000019
  0
ARC
  8
10
  6
CONTINUOUS
 10
211.7260603423171
 20
24.9903193705286
 40
1.0
 50
274.9999999999998
 51
343.7429721033965
  0
ENDBLK
  8
10
  0
BLOCK
  8
14
  2
COMP2
 70
    64
 10
0.0
 20
0.0
  0
ARC
  8
14
  6
CONTINUOUS
 10
201.8759672021866
 20
19.05000000000002
 40
8.089999999999977
 50
339.7506566892043
 51
20.24934331079568
  0
ARC
  8
14
  6
CONTINUOUS
 10
202.8759672021866
 20
19.05000000000002
 40
8.089999999999977
 50
339.7506566892043
 51
20.24934331079568
  0
LINE
  8
14
  6
CONTINUOUS
 10
210.4659672021866
 20
21.85000000000001
 11
209.4659672021866
 21
21.85000000000001
  0
LINE
  8
14
  6
CONTINUOUS
 10
210.4659672021866
 20
16.25000000000001
 11
209.4659672021866
 21
16.25000000000001
  0
LINE
  8
10
  6
CONTINUOUS
 10
210.9659672021866
 20
16.30000000000002
 11
210.9659672021866
 21
21.80000000000002
  0
LINE
  8
10
  6
CONTINUOUS
 10
211.8132160850648
 20
21.72587532756317
 11
210.9659672021866
 21
21.80000000000002
  0
LINE
  8
10
  6
CONTINUOUS
 10
211.8132160850648
 20
16.37412467243686
 11
210.9659672021866
 21
16.30000000000002
  0
ARC
  8
10
  6
CONTINUOUS
 10
205.9659672021866
 20
19.05000000000002
 40
7.0
 50
343.7429721033964
 51
16.25702789660359
  0
ARC
  8
10
  6
CONTINUOUS
 10
211.7260603423171
 20
20.72968062947143
 40
1.0
 50
16.25702789660349
 51
85.00000000000019
  0
ARC
  8
10
  6
CONTINUOUS
 10
211.7260603423171
 20
17.3703193705286
 40
1.0
 50
274.9999999999998
 51
343.7429721033965
  0
ENDBLK
  8
10
  0
BLOCK
  8
14
  2
COMP3
 70
    64
 10
0.0
 20
0.0
  0
ARC
  8
14
  6
CONTINUOUS
 10
201.8759672021866
 20
11.43000000000002
 40
8.089999999999977
 50
339.7506566892043
 51
20.24934331079566
  0
ARC
  8
14
  6
CONTINUOUS
 10
202.8759672021866
 20
11.43000000000002
 40
8.089999999999977
 50
339.7506566892043
 51
20.24934331079566
  0
LINE
  8
14
  6
CONTINUOUS
 10
210.4659672021866
 20
14.23000000000001
 11
209.4659672021866
 21
14.23000000000001
  0
LINE
  8
14
  6
CONTINUOUS
 10
210.4659672021866
 20
8.630000000000015
 11
209.4659672021866
 21
8.630000000000015
  0
LINE
  8
10
  6
CONTINUOUS
 10
210.9659672021866
 20
8.680000000000016
 11
210.9659672021866
 21
14.18000000000001
  0
LINE
  8
10
  6
CONTINUOUS
 10
211.8132160850648
 20
14.10587532756317
 11
210.9659672021866
 21
14.18000000000001
  0
LINE
  8
10
  6
CONTINUOUS
 10
211.8132160850648
 20
8.754124672436857
 11
210.9659672021866
 21
8.680000000000016
  0
ARC
  8
10
  6
CONTINUOUS
 10
205.9659672021866
 20
11.43000000000002
 40
7.0
 50
343.7429721033964
 51
16.25702789660357
  0
ARC
  8
10
  6
CONTINUOUS
 10
211.7260603423171
 20
13.10968062947143
 40
1.0
 50
16.25702789660349
 51
85.00000000000019
  0
ARC
  8
10
  6
CONTINUOUS
 10
211.7260603423171
 20
9.750319370528603
 40
1.0
 50
274.9999999999998
 51
343.7429721033965
  0
ENDBLK
  8
10
  0
BLOCK
  8
14
  2
COMP4
 70
    64
 10
0.0
 20
0.0
  0
ARC
  8
14
  6
CONTINUOUS
 10
201.8759672021866
 20
3.810000000000017
 40
8.089999999999977
 50
339.7506566892043
 51
20.24934331079568
  0
ARC
  8
14
  6
CONTINUOUS
 10
202.8759672021866
 20
3.810000000000017
 40
8.089999999999977
 50
339.7506566892043
 51
20.24934331079568
  0
LINE
  8
14
  6
CONTINUOUS
 10
210.4659672021866
 20
6.610000000000014
 11
209.4659672021866
 21
6.610000000000014
  0
LINE
  8
14
  6
CONTINUOUS
 10
210.4659672021866
 20
1.010000000000016
 11
209.4659672021866
 21
1.010000000000016
  0
LINE
  8
10
  6
CONTINUOUS
 10
210.9659672021866
 20
1.060000000000017
 11
210.9659672021866
 21
6.560000000000017
  0
LINE
  8
10
  6
CONTINUOUS
 10
211.8132160850648
 20
6.485875327563171
 11
210.9659672021866
 21
6.560000000000017
  0
LINE
  8
10
  6
CONTINUOUS
 10
211.8132160850648
 20
1.134124672436858
 11
210.9659672021866
 21
1.060000000000017
  0
ARC
  8
10
  6
CONTINUOUS
 10
205.9659672021866
 20
3.810000000000017
 40
7.0
 50
343.7429721033964
 51
16.25702789660359
  0
ARC
  8
10
  6
CONTINUOUS
 10
211.7260603423171
 20
5.48968062947143
 40
1.0
 50
16.25702789660349
 51
85.00000000000019
  0
ARC
  8
10
  6
CONTINUOUS
 10
211.7260603423171
 20
2.130319370528603
 40
1.0
 50
274.9999999999998
 51
343.7429721033965
  0
ENDBLK
  8
10
  0
BLOCK
  8
14
  2
COMP5
 70
    64
 10
0.0
 20
0.0
  0
ARC
  8
14
  6
CONTINUOUS
 10
201.8759672021866
 20
-3.809999999999985
 40
8.089999999999977
 50
339.7506566892043
 51
20.24934331079568
  0
ARC
  8
14
  6
CONTINUOUS
 10
202.8759672021866
 20
-3.809999999999985
 40
8.089999999999977
 50
339.7506566892043
 51
20.24934331079568
  0
LINE
  8
14
  6
CONTINUOUS
 10
210.4659672021866
 20
-1.009999999999987
 11
209.4659672021866
 21
-1.009999999999987
  0
LINE
  8
14
  6
CONTINUOUS
 10
210.4659672021866
 20
-6.609999999999985
 11
209.4659672021866
 21
-6.609999999999985
  0
LINE
  8
10
  6
CONTINUOUS
 10
210.9659672021866
 20
-6.559999999999985
 11
210.9659672021866
 21
-1.059999999999985
  0
LINE
  8
10
  6
CONTINUOUS
 10
211.8132160850648
 20
-1.13412467243683
 11
210.9659672021866
 21
-1.059999999999985
  0
LINE
  8
10
  6
CONTINUOUS
 10
211.8132160850648
 20
-6.485875327563143
 11
210.9659672021866
 21
-6.559999999999985
  0
ARC
  8
10
  6
CONTINUOUS
 10
205.9659672021866
 20
-3.809999999999985
 40
7.0
 50
343.7429721033964
 51
16.25702789660359
  0
ARC
  8
10
  6
CONTINUOUS
 10
211.7260603423171
 20
-2.130319370528572
 40
1.0
 50
16.25702789660349
 51
85.00000000000019
  0
ARC
  8
10
  6
CONTINUOUS
 10
211.7260603423171
 20
-5.489680629471398
 40
1.0
 50
274.9999999999998
 51
343.7429721033965
  0
ENDBLK
  8
10
  0
BLOCK
  8
14
  2
COMP6
 70
    64
 10
0.0
 20
0.0
  0
ARC
  8
14
  6
CONTINUOUS
 10
201.8759672021866
 20
-11.42999999999999
 40
8.089999999999977
 50
339.7506566892043
 51
20.24934331079568
  0
ARC
  8
14
  6
CONTINUOUS
 10
202.8759672021866
 20
-11.42999999999999
 40
8.089999999999977
 50
339.7506566892043
 51
20.24934331079568
  0
LINE
  8
14
  6
CONTINUOUS
 10
210.4659672021866
 20
-8.629999999999988
 11
209.4659672021866
 21
-8.629999999999988
  0
LINE
  8
14
  6
CONTINUOUS
 10
210.4659672021866
 20
-14.22999999999999
 11
209.4659672021866
 21
-14.22999999999999
  0
LINE
  8
10
  6
CONTINUOUS
 10
210.9659672021866
 20
-14.17999999999999
 11
210.9659672021866
 21
-8.679999999999986
  0
LINE
  8
10
  6
CONTINUOUS
 10
211.8132160850648
 20
-8.754124672436831
 11
210.9659672021866
 21
-8.679999999999986
  0
LINE
  8
10
  6
CONTINUOUS
 10
211.8132160850648
 20
-14.10587532756314
 11
210.9659672021866
 21
-14.17999999999999
  0
ARC
  8
10
  6
CONTINUOUS
 10
205.9659672021866
 20
-11.42999999999999
 40
7.0
 50
343.7429721033964
 51
16.25702789660359
  0
ARC
  8
10
  6
CONTINUOUS
 10
211.7260603423171
 20
-9.750319370528572
 40
1.0
 50
16.25702789660349
 51
85.00000000000019
  0
ARC
  8
10
  6
CONTINUOUS
 10
211.7260603423171
 20
-13.1096806294714
 40
1.0
 50
274.9999999999998
 51
343.7429721033965
  0
ENDBLK
  8
10
  0
BLOCK
  8
14
  2
COMP7
 70
    64
 10
0.0
 20
0.0
  0
ARC
  8
14
  6
CONTINUOUS
 10
201.8759672021866
 20
-19.04999999999998
 40
8.089999999999977
 50
339.7506566892043
 51
20.24934331079568
  0
ARC
  8
14
  6
CONTINUOUS
 10
202.8759672021866
 20
-19.04999999999998
 40
8.089999999999977
 50
339.7506566892043
 51
20.24934331079568
  0
LINE
  8
14
  6
CONTINUOUS
 10
210.4659672021866
 20
-16.24999999999999
 11
209.4659672021866
 21
-16.24999999999999
  0
LINE
  8
14
  6
CONTINUOUS
 10
210.4659672021866
 20
-21.84999999999998
 11
209.4659672021866
 21
-21.84999999999998
  0
LINE
  8
10
  6
CONTINUOUS
 10
210.9659672021866
 20
-21.79999999999998
 11
210.9659672021866
 21
-16.29999999999998
  0
LINE
  8
10
  6
CONTINUOUS
 10
211.8132160850648
 20
-16.37412467243683
 11
210.9659672021866
 21
-16.29999999999998
  0
LINE
  8
10
  6
CONTINUOUS
 10
211.8132160850648
 20
-21.72587532756314
 11
210.9659672021866
 21
-21.79999999999998
  0
ARC
  8
10
  6
CONTINUOUS
 10
205.9659672021866
 20
-19.04999999999998
 40
7.0
 50
343.7429721033964
 51
16.25702789660359
  0
ARC
  8
10
  6
CONTINUOUS
 10
211.7260603423171
 20
-17.37031937052857
 40
1.0
 50
16.25702789660349
 51
85.00000000000019
  0
ARC
  8
10
  6
CONTINUOUS
 10
211.7260603423171
 20
-20.7296806294714
 40
1.0
 50
274.9999999999998
 51
343.7429721033965
  0
ENDBLK
  8
10
  0
BLOCK
  8
14
  2
COMP8
 70
    64
 10
0.0
 20
0.0
  0
ARC
  8
14
  6
CONTINUOUS
 10
201.8759672021866
 20
-26.66999999999999
 40
8.089999999999977
 50
339.7506566892043
 51
20.24934331079568
  0
ARC
  8
14
  6
CONTINUOUS
 10
202.8759672021866
 20
-26.66999999999999
 40
8.089999999999977
 50
339.7506566892043
 51
20.24934331079568
  0
LINE
  8
14
  6
CONTINUOUS
 10
210.4659672021866
 20
-23.86999999999999
 11
209.4659672021866
 21
-23.86999999999999
  0
LINE
  8
14
  6
CONTINUOUS
 10
210.4659672021866
 20
-29.46999999999999
 11
209.4659672021866
 21
-29.46999999999999
  0
LINE
  8
10
  6
CONTINUOUS
 10
210.9659672021866
 20
-29.41999999999999
 11
210.9659672021866
 21
-23.91999999999999
  0
LINE
  8
10
  6
CONTINUOUS
 10
211.8132160850648
 20
-23.99412467243683
 11
210.9659672021866
 21
-23.91999999999999
  0
LINE
  8
10
  6
CONTINUOUS
 10
211.8132160850648
 20
-29.34587532756315
 11
210.9659672021866
 21
-29.41999999999999
  0
ARC
  8
10
  6
CONTINUOUS
 10
205.9659672021866
 20
-26.66999999999999
 40
7.0
 50
343.7429721033964
 51
16.25702789660359
  0
ARC
  8
10
  6
CONTINUOUS
 10
211.7260603423171
 20
-24.99031937052857
 40
1.0
 50
16.25702789660349
 51
85.00000000000019
  0
ARC
  8
10
  6
CONTINUOUS
 10
211.7260603423171
 20
-28.3496806294714
 40
1.0
 50
274.9999999999998
 51
343.7429721033965
  0
ENDBLK
  8
10
  0
BLOCK
  8
14
  2
COMP9
 70
    64
 10
0.0
 20
0.0
  0
ARC
  8
14
  6
CONTINUOUS
 10
193.8759672021866
 20
22.86000000000001
 40
8.089999999999977
 50
339.7506566892043
 51
20.24934331079568
  0
ARC
  8
14
  6
CONTINUOUS
 10
194.8759672021866
 20
22.86000000000001
 40
8.089999999999977
 50
339.7506566892043
 51
20.24934331079568
  0
LINE
  8
14
  6
CONTINUOUS
 10
202.4659672021866
 20
25.66000000000001
 11
201.4659672021866
 21
25.66000000000001
  0
LINE
  8
14
  6
CONTINUOUS
 10
202.4659672021866
 20
20.06000000000001
 11
201.4659672021866
 21
20.06000000000001
  0
LINE
  8
10
  6
CONTINUOUS
 10
202.9659672021866
 20
20.11000000000001
 11
202.9659672021866
 21
25.61000000000001
  0
LINE
  8
10
  6
CONTINUOUS
 10
203.8132160850648
 20
25.53587532756317
 11
202.9659672021866
 21
25.61000000000001
  0
LINE
  8
10
  6
CONTINUOUS
 10
203.8132160850648
 20
20.18412467243686
 11
202.9659672021866
 21
20.11000000000001
  0
ARC
  8
10
  6
CONTINUOUS
 10
197.9659672021866
 20
22.86000000000001
 40
7.0
 50
343.7429721033964
 51
16.25702789660359
  0
ARC
  8
10
  6
CONTINUOUS
 10
203.7260603423171
 20
24.53968062947143
 40
1.0
 50
16.25702789660349
 51
85.00000000000019
  0
ARC
  8
10
  6
CONTINUOUS
 10
203.7260603423171
 20
21.1803193705286
 40
1.0
 50
274.9999999999998
 51
343.7429721033965
  0
ENDBLK
  8
10
  0
BLOCK
  8
14
  2
COMP10
 70
    64
 10
0.0
 20
0.0
  0
ARC
  8
14
  6
CONTINUOUS
 10
193.8759672021866
 20
15.24000000000001
 40
8.089999999999977
 50
339.7506566892043
 51
20.24934331079568
  0
ARC
  8
14
  6
CONTINUOUS
 10
194.8759672021866
 20
15.24000000000001
 40
8.089999999999977
 50
339.7506566892043
 51
20.24934331079568
  0
LINE
  8
14
  6
CONTINUOUS
 10
202.4659672021866
 20
18.04000000000001
 11
201.4659672021866
 21
18.04000000000001
  0
LINE
  8
14
  6
CONTINUOUS
 10
202.4659672021866
 20
12.44000000000001
 11
201.4659672021866
 21
12.44000000000001
  0
LINE
  8
10
  6
CONTINUOUS
 10
202.9659672021866
 20
12.49000000000001
 11
202.9659672021866
 21
17.99000000000001
  0
LINE
  8
10
  6
CONTINUOUS
 10
203.8132160850648
 20
17.91587532756317
 11
202.9659672021866
 21
17.99000000000001
  0
LINE
  8
10
  6
CONTINUOUS
 10
203.8132160850648
 20
12.56412467243685
 11
202.9659672021866
 21
12.49000000000001
  0
ARC
  8
10
  6
CONTINUOUS
 10
197.9659672021866
 20
15.24000000000001
 40
7.0
 50
343.7429721033964
 51
16.25702789660359
  0
ARC
  8
10
  6
CONTINUOUS
 10
203.7260603423171
 20
16.91968062947143
 40
1.0
 50
16.25702789660349
 51
85.00000000000019
  0
ARC
  8
10
  6
CONTINUOUS
 10
203.7260603423171
 20
13.5603193705286
 40
1.0
 50
274.9999999999998
 51
343.7429721033965
  0
ENDBLK
  8
10
  0
BLOCK
  8
14
  2
COMP11
 70
    64
 10
0.0
 20
0.0
  0
ARC
  8
14
  6
CONTINUOUS
 10
193.8759672021866
 20
7.620000000000013
 40
8.089999999999977
 50
339.7506566892043
 51
20.24934331079568
  0
ARC
  8
14
  6
CONTINUOUS
 10
194.8759672021866
 20
7.620000000000013
 40
8.089999999999977
 50
339.7506566892043
 51
20.24934331079568
  0
LINE
  8
14
  6
CONTINUOUS
 10
202.4659672021866
 20
10.42000000000001
 11
201.4659672021866
 21
10.42000000000001
  0
LINE
  8
14
  6
CONTINUOUS
 10
202.4659672021866
 20
4.820000000000013
 11
201.4659672021866
 21
4.820000000000013
  0
LINE
  8
10
  6
CONTINUOUS
 10
202.9659672021866
 20
4.870000000000013
 11
202.9659672021866
 21
10.37000000000001
  0
LINE
  8
10
  6
CONTINUOUS
 10
203.8132160850648
 20
10.29587532756317
 11
202.9659672021866
 21
10.37000000000001
  0
LINE
  8
10
  6
CONTINUOUS
 10
203.8132160850648
 20
4.944124672436855
 11
202.9659672021866
 21
4.870000000000013
  0
ARC
  8
10
  6
CONTINUOUS
 10
197.9659672021866
 20
7.620000000000013
 40
7.0
 50
343.7429721033964
 51
16.25702789660359
  0
ARC
  8
10
  6
CONTINUOUS
 10
203.7260603423171
 20
9.299680629471427
 40
1.0
 50
16.25702789660349
 51
85.00000000000019
  0
ARC
  8
10
  6
CONTINUOUS
 10
203.7260603423171
 20
5.9403193705286
 40
1.0
 50
274.9999999999998
 51
343.7429721033965
  0
ENDBLK
  8
10
  0
BLOCK
  8
14
  2
COMP12
 70
    64
 10
0.0
 20
0.0
  0
ARC
  8
14
  6
CONTINUOUS
 10
193.8759672021866
 20
1.421085471520200E-014
 40
8.089999999999977
 50
339.7506566892043
 51
20.24934331079568
  0
ARC
  8
14
  6
CONTINUOUS
 10
194.8759672021866
 20
1.421085471520200E-014
 40
8.089999999999977
 50
339.7506566892043
 51
20.24934331079568
  0
LINE
  8
14
  6
CONTINUOUS
 10
202.4659672021866
 20
2.800000000000011
 11
201.4659672021866
 21
2.800000000000011
  0
LINE
  8
14
  6
CONTINUOUS
 10
202.4659672021866
 20
-2.799999999999987
 11
201.4659672021866
 21
-2.799999999999987
  0
LINE
  8
10
  6
CONTINUOUS
 10
202.9659672021866
 20
-2.749999999999986
 11
202.9659672021866
 21
2.750000000000014
  0
LINE
  8
10
  6
CONTINUOUS
 10
203.8132160850648
 20
2.675875327563169
 11
202.9659672021866
 21
2.750000000000014
  0
LINE
  8
10
  6
CONTINUOUS
 10
203.8132160850648
 20
-2.675875327563144
 11
202.9659672021866
 21
-2.749999999999986
  0
ARC
  8
10
  6
CONTINUOUS
 10
197.9659672021866
 20
1.421085471520200E-014
 40
7.0
 50
343.7429721033964
 51
16.25702789660359
  0
ARC
  8
10
  6
CONTINUOUS
 10
203.7260603423171
 20
1.679680629471427
 40
1.0
 50
16.25702789660349
 51
85.00000000000019
  0
ARC
  8
10
  6
CONTINUOUS
 10
203.7260603423171
 20
-1.679680629471399
 40
1.0
 50
274.9999999999998
 51
343.7429721033965
  0
ENDBLK
  8
10
  0
BLOCK
  8
14
  2
COMP13
 70
    64
 10
0.0
 20
0.0
  0
ARC
  8
14
  6
CONTINUOUS
 10
193.8759672021866
 20
-7.619999999999987
 40
8.089999999999977
 50
339.7506566892043
 51
20.24934331079568
  0
ARC
  8
14
  6
CONTINUOUS
 10
194.8759672021866
 20
-7.619999999999987
 40
8.089999999999977
 50
339.7506566892043
 51
20.24934331079568
  0
LINE
  8
14
  6
CONTINUOUS
 10
202.4659672021866
 20
-4.81999999999999
 11
201.4659672021866
 21
-4.81999999999999
  0
LINE
  8
14
  6
CONTINUOUS
 10
202.4659672021866
 20
-10.41999999999999
 11
201.4659672021866
 21
-10.41999999999999
  0
LINE
  8
10
  6
CONTINUOUS
 10
202.9659672021866
 20
-10.36999999999999
 11
202.9659672021866
 21
-4.869999999999987
  0
LINE
  8
10
  6
CONTINUOUS
 10
203.8132160850648
 20
-4.944124672436832
 11
202.9659672021866
 21
-4.869999999999987
  0
LINE
  8
10
  6
CONTINUOUS
 10
203.8132160850648
 20
-10.29587532756315
 11
202.9659672021866
 21
-10.36999999999999
  0
ARC
  8
10
  6
CONTINUOUS
 10
197.9659672021866
 20
-7.619999999999987
 40
7.0
 50
343.7429721033964
 51
16.25702789660359
  0
ARC
  8
10
  6
CONTINUOUS
 10
203.7260603423171
 20
-5.940319370528574
 40
1.0
 50
16.25702789660349
 51
85.00000000000019
  0
ARC
  8
10
  6
CONTINUOUS
 10
203.7260603423171
 20
-9.2996806294714
 40
1.0
 50
274.9999999999998
 51
343.7429721033965
  0
ENDBLK
  8
10
  0
BLOCK
  8
14
  2
COMP14
 70
    64
 10
0.0
 20
0.0
  0
ARC
  8
14
  6
CONTINUOUS
 10
193.8759672021866
 20
-15.23999999999999
 40
8.089999999999977
 50
339.7506566892043
 51
20.24934331079568
  0
ARC
  8
14
  6
CONTINUOUS
 10
194.8759672021866
 20
-15.23999999999999
 40
8.089999999999977
 50
339.7506566892043
 51
20.24934331079568
  0
LINE
  8
14
  6
CONTINUOUS
 10
202.4659672021866
 20
-12.43999999999999
 11
201.4659672021866
 21
-12.43999999999999
  0
LINE
  8
14
  6
CONTINUOUS
 10
202.4659672021866
 20
-18.03999999999999
 11
201.4659672021866
 21
-18.03999999999999
  0
LINE
  8
10
  6
CONTINUOUS
 10
202.9659672021866
 20
-17.98999999999999
 11
202.9659672021866
 21
-12.48999999999999
  0
LINE
  8
10
  6
CONTINUOUS
 10
203.8132160850648
 20
-12.56412467243683
 11
202.9659672021866
 21
-12.48999999999999
  0
LINE
  8
10
  6
CONTINUOUS
 10
203.8132160850648
 20
-17.91587532756315
 11
202.9659672021866
 21
-17.98999999999999
  0
ARC
  8
10
  6
CONTINUOUS
 10
197.9659672021866
 20
-15.23999999999999
 40
7.0
 50
343.7429721033964
 51
16.25702789660359
  0
ARC
  8
10
  6
CONTINUOUS
 10
203.7260603423171
 20
-13.56031937052858
 40
1.0
 50
16.25702789660349
 51
85.00000000000019
  0
ARC
  8
10
  6
CONTINUOUS
 10
203.7260603423171
 20
-16.9196806294714
 40
1.0
 50
274.9999999999998
 51
343.7429721033965
  0
ENDBLK
  8
10
  0
BLOCK
  8
14
  2
COMP15
 70
    64
 10
0.0
 20
0.0
  0
ARC
  8
14
  6
CONTINUOUS
 10
193.8759672021866
 20
-22.85999999999999
 40
8.089999999999977
 50
339.7506566892043
 51
20.24934331079568
  0
ARC
  8
14
  6
CONTINUOUS
 10
194.8759672021866
 20
-22.85999999999999
 40
8.089999999999977
 50
339.7506566892043
 51
20.24934331079568
  0
LINE
  8
14
  6
CONTINUOUS
 10
202.4659672021866
 20
-20.05999999999999
 11
201.4659672021866
 21
-20.05999999999999
  0
LINE
  8
14
  6
CONTINUOUS
 10
202.4659672021866
 20
-25.65999999999999
 11
201.4659672021866
 21
-25.65999999999999
  0
LINE
  8
10
  6
CONTINUOUS
 10
202.9659672021866
 20
-25.60999999999999
 11
202.9659672021866
 21
-20.10999999999999
  0
LINE
  8
10
  6
CONTINUOUS
 10
203.8132160850648
 20
-20.18412467243683
 11
202.9659672021866
 21
-20.10999999999999
  0
LINE
  8
10
  6
CONTINUOUS
 10
203.8132160850648
 20
-25.53587532756314
 11
202.9659672021866
 21
-25.60999999999999
  0
ARC
  8
10
  6
CONTINUOUS
 10
197.9659672021866
 20
-22.85999999999999
 40
7.0
 50
343.7429721033964
 51
16.25702789660359
  0
ARC
  8
10
  6
CONTINUOUS
 10
203.7260603423171
 20
-21.18031937052857
 40
1.0
 50
16.25702789660349
 51
85.00000000000019
  0
ARC
  8
10
  6
CONTINUOUS
 10
203.7260603423171
 20
-24.5396806294714
 40
1.0
 50
274.9999999999998
 51
343.7429721033965
  0
ENDBLK
  8
10
  0
BLOCK
  8
30
  2
COMP16
 70
    64
 10
0.0
 20
0.0
  0
POLYLINE
  8
30
  6
CONTINUOUS
 66
     1
 70
     0
 40
0.0
 41
0.0
  0
VERTEX
  8
30
 10
195.6401824951172
 20
-42.15444564819336
  0
VERTEX
  8
30
 10
193.291748046875
 20
-42.15444564819336
  0
VERTEX
  8
30
 10
194.5833892822266
 20
-41.33249282836914
  0
VERTEX
  8
30
 10
193.291748046875
 20
-40.51054000854492
  0
VERTEX
  8
30
 10
195.6401824951172
 20
-40.51054000854492
  0
SEQEND
  8
30
  0
POLYLINE
  8
30
  6
CONTINUOUS
 66
     1
 70
     0
 40
0.0
 41
0.0
  0
VERTEX
  8
30
 10
193.291748046875
 20
-38.35780334472656
  0
VERTEX
  8
30
 10
195.6401824951172
 20
-38.35780334472656
  0
SEQEND
  8
30
  0
POLYLINE
  8
30
  6
CONTINUOUS
 66
     1
 70
     0
 40
0.0
 41
0.0
  0
VERTEX
  8
30
 10
195.6401824951172
 20
-38.59264755249023
  0
VERTEX
  8
30
 10
195.6401824951172
 20
-38.12295913696289
  0
SEQEND
  8
30
  0
POLYLINE
  8
30
  6
CONTINUOUS
 66
     1
 70
     0
 40
0.0
 41
0.0
  0
VERTEX
  8
30
 10
193.291748046875
 20
-38.59264755249023
  0
VERTEX
  8
30
 10
193.291748046875
 20
-38.12295913696289
  0
SEQEND
  8
30
  0
POLYLINE
  8
30
  6
CONTINUOUS
 66
     1
 70
     0
 40
0.0
 41
0.0
  0
VERTEX
  8
30
 10
195.6401824951172
 20
-36.087646484375
  0
VERTEX
  8
30
 10
193.291748046875
 20
-36.087646484375
  0
VERTEX
  8
30
 10
195.6401824951172
 20
-34.67858505249023
  0
VERTEX
  8
30
 10
193.291748046875
 20
-34.67858505249023
  0
SEQEND
  8
30
  0
POLYLINE
  8
30
  6
CONTINUOUS
 66
     1
 70
     0
 40
0.0
 41
0.0
  0
VERTEX
  8
30
 10
195.6401824951172
 20
-31.58647727966309
  0
VERTEX
  8
30
 10
195.6401824951172
 20
-33.23038101196289
  0
VERTEX
  8
30
 10
193.291748046875
 20
-33.23038101196289
  0
VERTEX
  8
30
 10
193.291748046875
 20
-31.58647727966309
  0
SEQEND
  8
30
  0
POLYLINE
  8
30
  6
CONTINUOUS
 66
     1
 70
     0
 40
0.0
 41
0.0
  0
VERTEX
  8
30
 10
194.3485412597656
 20
-33.23038101196289
  0
VERTEX
  8
30
 10
194.3485412597656
 20
-32.0561637878418
  0
SEQEND
  8
30
  0
POLYLINE
  8
30
  6
CONTINUOUS
 66
     1
 70
     0
 40
0.0
 41
0.0
  0
VERTEX
  8
30
 10
195.6401824951172
 20
-29.43374252319336
  0
VERTEX
  8
30
 10
195.6401824951172
 20
-30.13827323913574
  0
VERTEX
  8
30
 10
193.291748046875
 20
-30.13827323913574
  0
VERTEX
  8
30
 10
193.291748046875
 20
-29.43374252319336
  0
SEQEND
  8
30
  0
POLYLINE
  8
30
  6
CONTINUOUS
 66
     1
 70
     0
 40
0.0
 41
0.0
  0
VERTEX
  8
30
 10
194.3485412597656
 20
-29.43374252319336
  0
VERTEX
  8
30
 10
194.3485412597656
 20
-30.13827323913574
  0
SEQEND
  8
30
  0
POLYLINE
  8
30
  6
CONTINUOUS
 66
     1
 70
     0
 40
0.0
 41
0.0
  0
VERTEX
  8
30
 10
194.9747924804688
 20
-28.72921180725098
 42
-0.4495557941583442
  0
VERTEX
  8
30
 10
195.6401824951172
 20
-29.43374252319336
  0
SEQEND
  8
30
  0
POLYLINE
  8
30
  6
CONTINUOUS
 66
     1
 70
     0
 40
0.0
 41
0.0
  0
VERTEX
  8
30
 10
194.3485412597656
 20
-29.43374252319336
 42
0.3959921243394003
  0
VERTEX
  8
30
 10
193.8005676269531
 20
-28.84663200378418
  0
SEQEND
  8
30
  0
POLYLINE
  8
30
  6
CONTINUOUS
 66
     1
 70
     0
 40
0.0
 41
0.0
  0
VERTEX
  8
30
 10
194.3485412597656
 20
-29.43374252319336
 42
-0.4149724238140703
  0
VERTEX
  8
30
 10
194.9747924804688
 20
-28.72921180725098
  0
SEQEND
  8
30
  0
POLYLINE
  8
30
  6
CONTINUOUS
 66
     1
 70
     0
 40
0.0
 41
0.0
  0
VERTEX
  8
30
 10
193.291748046875
 20
-29.43374252319336
 42
-0.4218715334945429
  0
VERTEX
  8
30
 10
193.8005676269531
 20
-28.84663200378418
  0
SEQEND
  8
30
  0
POLYLINE
  8
30
  6
CONTINUOUS
 66
     1
 70
     0
 40
0.0
 41
0.0
  0
VERTEX
  8
30
 10
195.6401824951172
 20
-25.6371021270752
  0
VERTEX
  8
30
 10
195.6401824951172
 20
-27.28100776672363
  0
VERTEX
  8
30
 10
193.291748046875
 20
-27.28100776672363
  0
VERTEX
  8
30
 10
193.291748046875
 20
-25.6371021270752
  0
SEQEND
  8
30
  0
POLYLINE
  8
30
  6
CONTINUOUS
 66
     1
 70
     0
 40
0.0
 41
0.0
  0
VERTEX
  8
30
 10
194.3485412597656
 20
-27.28100776672363
  0
VERTEX
  8
30
 10
194.3485412597656
 20
-26.10678863525391
  0
SEQEND
  8
30
  0
POLYLINE
  8
30
  6
CONTINUOUS
 66
     1
 70
     0
 40
0.0
 41
0.0
  0
VERTEX
  8
30
 10
195.6401824951172
 20
-24.30632019042969
  0
VERTEX
  8
30
 10
193.291748046875
 20
-23.48436737060547
  0
VERTEX
  8
30
 10
195.6401824951172
 20
-22.66241455078125
  0
SEQEND
  8
30
  0
POLYLINE
  8
30
  6
CONTINUOUS
 66
     1
 70
     0
 40
0.0
 41
0.0
  0
VERTEX
  8
30
 10
194.8573608398438
 20
-24.03233528137207
  0
VERTEX
  8
30
 10
194.8573608398438
 20
-22.93639945983887
  0
SEQEND
  8
30
  0
POLYLINE
  8
30
  6
CONTINUOUS
 66
     1
 70
     0
 40
0.0
 41
0.0
  0
VERTEX
  8
30
 10
193.7222900390625
 20
-18.1612434387207
 42
0.3089525228831968
  0
VERTEX
  8
30
 10
193.291748046875
 20
-18.7874927520752
 42
0.2703065642342082
  0
VERTEX
  8
30
 10
193.7222900390625
 20
-19.41374206542969
 42
0.1143965581489429
  0
VERTEX
  8
30
 10
194.4659576416016
 20
-19.60944557189941
 42
0.1333039521228936
  0
VERTEX
  8
30
 10
195.2096252441406
 20
-19.41374206542969
 42
0.2703310323885055
  0
VERTEX
  8
30
 10
195.6401824951172
 20
-18.7874927520752
  0
SEQEND
  8
30
  0
POLYLINE
  8
30
  6
CONTINUOUS
 66
     1
 70
     0
 40
0.0
 41
0.0
  0
VERTEX
  8
30
 10
195.6401824951172
 20
-18.74835205078125
 42
0.3417981704118288
  0
VERTEX
  8
30
 10
195.0530700683594
 20
-18.08296203613281
  0
SEQEND
  8
30
  0
POLYLINE
  8
30
  6
CONTINUOUS
 66
     1
 70
     0
 40
0.0
 41
0.0
  0
VERTEX
  8
30
 10
195.0139312744141
 20
-16.59561729431152
 42
-0.07142807418133215
  0
VERTEX
  8
30
 10
193.9179840087891
 20
-16.59561729431152
 42
-0.1393635506254475
  0
VERTEX
  8
30
 10
193.4874420166016
 20
-16.43905448913574
 42
-0.1562052627228805
  0
VERTEX
  8
30
 10
193.3308868408203
 20
-16.2042121887207
  0
SEQEND
  8
30
  0
POLYLINE
  8
30
  6
CONTINUOUS
 66
     1
 70
     0
 40
0.0
 41
0.0
  0
VERTEX
  8
30
 10
193.4874420166016
 20
-15.18655490875244
 42
0.1562014228063851
  0
VERTEX
  8
30
 10
193.3308868408203
 20
-15.42139911651611
  0
SEQEND
  8
30
  0
POLYLINE
  8
30
  6
CONTINUOUS
 66
     1
 70
     0
 40
0.0
 41
0.0
  0
VERTEX
  8
30
 10
193.9179840087891
 20
-15.02999305725098
 42
0.139361830541628
  0
VERTEX
  8
30
 10
193.4874420166016
 20
-15.18655490875244
  0
SEQEND
  8
30
  0
POLYLINE
  8
30
  6
CONTINUOUS
 66
     1
 70
     0
 40
0.0
 41
0.0
  0
VERTEX
  8
30
 10
195.0139312744141
 20
-15.02999305725098
 42
0.07142807418133215
  0
VERTEX
  8
30
 10
193.9179840087891
 20
-15.02999305725098
  0
SEQEND
  8
30
  0
POLYLINE
  8
30
  6
CONTINUOUS
 66
     1
 70
     0
 40
0.0
 41
0.0
  0
VERTEX
  8
30
 10
193.3308868408203
 20
-16.2042121887207
 42
-0.09999537058469517
  0
VERTEX
  8
30
 10
193.3308868408203
 20
-15.42139911651611
  0
SEQEND
  8
30
  0
POLYLINE
  8
30
  6
CONTINUOUS
 66
     1
 70
     0
 40
0.0
 41
0.0
  0
VERTEX
  8
30
 10
195.0139312744141
 20
-16.59561729431152
 42
0.1393635506254475
  0
VERTEX
  8
30
 10
195.4444732666016
 20
-16.43905448913574
 42
0.1562628231569818
  0
VERTEX
  8
30
 10
195.6010437011719
 20
-16.2042121887207
 42
0.09999537058469517
  0
VERTEX
  8
30
 10
195.6010437011719
 20
-15.42139911651611
  0
SEQEND
  8
30
  0
POLYLINE
  8
30
  6
CONTINUOUS
 66
     1
 70
     0
 40
0.0
 41
0.0
  0
VERTEX
  8
30
 10
195.4444732666016
 20
-15.18655490875244
 42
-0.15626185302928
  0
VERTEX
  8
30
 10
195.6010437011719
 20
-15.42139911651611
  0
SEQEND
  8
30
  0
POLYLINE
  8
30
  6
CONTINUOUS
 66
     1
 70
     0
 40
0.0
 41
0.0
  0
VERTEX
  8
30
 10
195.0139312744141
 20
-15.02999305725098
 42
-0.139361830541628
  0
VERTEX
  8
30
 10
195.4444732666016
 20
-15.18655490875244
  0
SEQEND
  8
30
  0
POLYLINE
  8
30
  6
CONTINUOUS
 66
     1
 70
     0
 40
0.0
 41
0.0
  0
VERTEX
  8
30
 10
195.6401824951172
 20
-13.6209306716919
  0
VERTEX
  8
30
 10
195.4053344726563
 20
-13.6209306716919
  0
VERTEX
  8
30
 10
195.4053344726563
 20
-13.34694576263428
  0
VERTEX
  8
30
 10
195.6401824951172
 20
-13.34694576263428
  0
VERTEX
  8
30
 10
195.6401824951172
 20
-13.6209306716919
  0
SEQEND
  8
30
  0
POLYLINE
  8
30
  6
CONTINUOUS
 66
     1
 70
     0
 40
0.0
 41
0.0
  0
VERTEX
  8
30
 10
195.7184600830078
 20
-11.585618019104
  0
VERTEX
  8
30
 10
195.7184600830078
 20
-11.89874267578125
  0
VERTEX
  8
30
 10
195.4053344726563
 20
-11.89874267578125
  0
VERTEX
  8
30
 10
195.4053344726563
 20
-11.585618019104
  0
VERTEX
  8
30
 10
196.0315856933594
 20
-11.585618019104
  0
VERTEX
  8
30
 10
196.2664337158203
 20
-11.82046127319336
  0
SEQEND
  8
30
  0
POLYLINE
  8
30
  6
CONTINUOUS
 66
     1
 70
     0
 40
0.0
 41
0.0
  0
VERTEX
  8
30
 10
193.291748046875
 20
-10.09827423095703
  0
VERTEX
  8
30
 10
195.6401824951172
 20
-10.09827423095703
  0
VERTEX
  8
30
 10
195.6401824951172
 20
-8.571789741516113
  0
SEQEND
  8
30
  0
POLYLINE
  8
30
  6
CONTINUOUS
 66
     1
 70
     0
 40
0.0
 41
0.0
  0
VERTEX
  8
30
 10
193.291748046875
 20
-6.419055938720703
  0
VERTEX
  8
30
 10
195.6401824951172
 20
-6.419055938720703
  0
SEQEND
  8
30
  0
POLYLINE
  8
30
  6
CONTINUOUS
 66
     1
 70
     0
 40
0.0
 41
0.0
  0
VERTEX
  8
30
 10
193.291748046875
 20
-7.241008758544922
  0
VERTEX
  8
30
 10
193.291748046875
 20
-5.597102642059326
  0
SEQEND
  8
30
  0
POLYLINE
  8
30
  6
CONTINUOUS
 66
     1
 70
     0
 40
0.0
 41
0.0
  0
VERTEX
  8
30
 10
193.291748046875
 20
-3.444368362426758
 42
-0.3318409059165977
  0
VERTEX
  8
30
 10
193.7222900390625
 20
-2.739837169647217
 42
-0.0978869871277971
  0
VERTEX
  8
30
 10
194.4659576416016
 20
-2.62241530418396
  0
SEQEND
  8
30
  0
POLYLINE
  8
30
  6
CONTINUOUS
 66
     1
 70
     0
 40
0.0
 41
0.0
  0
VERTEX
  8
30
 10
195.6401824951172
 20
-3.444368362426758
 42
0.3318206126190542
  0
VERTEX
  8
30
 10
195.2096252441406
 20
-2.739837169647217
 42
0.09789333985948824
  0
VERTEX
  8
30
 10
194.4659576416016
 20
-2.62241530418396
  0
SEQEND
  8
30
  0
POLYLINE
  8
30
  6
CONTINUOUS
 66
     1
 70
     0
 40
0.0
 41
0.0
  0
VERTEX
  8
30
 10
195.6401824951172
 20
-3.444368362426758
  0
VERTEX
  8
30
 10
195.6401824951172
 20
-4.148899555206299
  0
VERTEX
  8
30
 10
193.291748046875
 20
-4.148899555206299
  0
VERTEX
  8
30
 10
193.291748046875
 20
-3.444368362426758
  0
SEQEND
  8
30
  0
POLYLINE
  8
30
  6
CONTINUOUS
 66
     1
 70
     0
 40
0.0
 41
0.0
  0
VERTEX
  8
30
 10
195.6401824951172
 20
-1.252493500709534
  0
VERTEX
  8
30
 10
195.4053344726563
 20
-1.252493500709534
  0
VERTEX
  8
30
 10
195.4053344726563
 20
-0.9785091280937195
  0
VERTEX
  8
30
 10
195.6401824951172
 20
-0.9785091280937195
  0
VERTEX
  8
30
 10
195.6401824951172
 20
-1.252493500709534
  0
SEQEND
  8
30
  0
POLYLINE
  8
30
  6
CONTINUOUS
 66
     1
 70
     0
 40
0.0
 41
0.0
  0
VERTEX
  8
30
 10
195.6401824951172
 20
7.319303035736084
  0
VERTEX
  8
30
 10
193.291748046875
 20
7.319303035736084
  0
VERTEX
  8
30
 10
194.5833892822266
 20
8.141256332397461
  0
VERTEX
  8
30
 10
193.291748046875
 20
8.96320915222168
  0
VERTEX
  8
30
 10
195.6401824951172
 20
8.96320915222168
  0
SEQEND
  8
30
  0
POLYLINE
  8
30
  6
CONTINUOUS
 66
     1
 70
     0
 40
0.0
 41
0.0
  0
VERTEX
  8
30
 10
195.6401824951172
 20
10.29399013519287
  0
VERTEX
  8
30
 10
193.291748046875
 20
11.11594295501709
  0
VERTEX
  8
30
 10
195.6401824951172
 20
11.93789672851563
  0
SEQEND
  8
30
  0
POLYLINE
  8
30
  6
CONTINUOUS
 66
     1
 70
     0
 40
0.0
 41
0.0
  0
VERTEX
  8
30
 10
194.8573608398438
 20
10.56797504425049
  0
VERTEX
  8
30
 10
194.8573608398438
 20
11.66391181945801
  0
SEQEND
  8
30
  0
POLYLINE
  8
30
  6
CONTINUOUS
 66
     1
 70
     0
 40
0.0
 41
0.0
  0
VERTEX
  8
30
 10
193.291748046875
 20
14.09063053131104
 42
-0.3318407755537758
  0
VERTEX
  8
30
 10
193.7222900390625
 20
14.79516220092773
 42
-0.09788858082716137
  0
VERTEX
  8
30
 10
194.4659576416016
 20
14.91258335113525
  0
SEQEND
  8
30
  0
POLYLINE
  8
30
  6
CONTINUOUS
 66
     1
 70
     0
 40
0.0
 41
0.0
  0
VERTEX
  8
30
 10
195.6401824951172
 20
14.09063053131104
 42
0.3318195529475797
  0
VERTEX
  8
30
 10
195.2096252441406
 20
14.79516220092773
 42
0.09789366301459264
  0
VERTEX
  8
30
 10
194.4659576416016
 20
14.91258335113525
  0
SEQEND
  8
30
  0
POLYLINE
  8
30
  6
CONTINUOUS
 66
     1
 70
     0
 40
0.0
 41
0.0
  0
VERTEX
  8
30
 10
195.6401824951172
 20
14.09063053131104
  0
VERTEX
  8
30
 10
195.6401824951172
 20
13.38609981536865
  0
VERTEX
  8
30
 10
193.291748046875
 20
13.38609981536865
  0
VERTEX
  8
30
 10
193.291748046875
 20
14.09063053131104
  0
SEQEND
  8
30
  0
POLYLINE
  8
30
  6
CONTINUOUS
 66
     1
 70
     0
 40
0.0
 41
0.0
  0
VERTEX
  8
30
 10
195.6401824951172
 20
17.88727188110352
  0
VERTEX
  8
30
 10
195.6401824951172
 20
16.24336433410645
  0
VERTEX
  8
30
 10
193.291748046875
 20
16.24336433410645
  0
VERTEX
  8
30
 10
193.291748046875
 20
17.88727188110352
  0
SEQEND
  8
30
  0
POLYLINE
  8
30
  6
CONTINUOUS
 66
     1
 70
     0
 40
0.0
 41
0.0
  0
VERTEX
  8
30
 10
194.3485412597656
 20
16.24336433410645
  0
VERTEX
  8
30
 10
194.3485412597656
 20
17.41758346557617
  0
SEQEND
  8
30
  0
POLYLINE
  8
30
  6
CONTINUOUS
 66
     1
 70
     0
 40
0.0
 41
0.0
  0
VERTEX
  8
30
 10
193.291748046875
 20
21.76219367980957
  0
VERTEX
  8
30
 10
195.6401824951172
 20
21.76219367980957
  0
SEQEND
  8
30
  0
POLYLINE
  8
30
  6
CONTINUOUS
 66
     1
 70
     0
 40
0.0
 41
0.0
  0
VERTEX
  8
30
 10
195.6401824951172
 20
21.5273494720459
  0
VERTEX
  8
30
 10
195.6401824951172
 20
21.99703598022461
  0
SEQEND
  8
30
  0
POLYLINE
  8
30
  6
CONTINUOUS
 66
     1
 70
     0
 40
0.0
 41
0.0
  0
VERTEX
  8
30
 10
193.291748046875
 20
21.5273494720459
  0
VERTEX
  8
30
 10
193.291748046875
 20
21.99703598022461
  0
SEQEND
  8
30
  0
POLYLINE
  8
30
  6
CONTINUOUS
 66
     1
 70
     0
 40
0.0
 41
0.0
  0
VERTEX
  8
30
 10
195.6401824951172
 20
24.0323486328125
  0
VERTEX
  8
30
 10
193.291748046875
 20
24.0323486328125
  0
VERTEX
  8
30
 10
195.6401824951172
 20
25.4414119720459
  0
VERTEX
  8
30
 10
193.291748046875
 20
25.4414119720459
  0
SEQEND
  8
30
  0
POLYLINE
  8
30
  6
CONTINUOUS
 66
     1
 70
     0
 40
0.0
 41
0.0
  0
VERTEX
  8
30
 10
195.248779296875
 20
29.78602027893066
  0
VERTEX
  8
30
 10
193.2525939941406
 20
29.78602027893066
  0
SEQEND
  8
30
  0
POLYLINE
  8
30
  6
CONTINUOUS
 66
     1
 70
     0
 40
0.0
 41
0.0
  0
VERTEX
  8
30
 10
195.248779296875
 20
29.78602027893066
 42
-0.4232506453985199
  0
VERTEX
  8
30
 10
195.7331381065563
 20
29.31633377075195
 42
-0.4232517419429733
  0
VERTEX
  8
30
 10
195.2487793268544
 20
28.84664632968055
  0
SEQEND
  8
30
  0
POLYLINE
  8
30
  6
CONTINUOUS
 66
     1
 70
     0
 40
0.0
 41
0.0
  0
VERTEX
  8
30
 10
195.6401824951172
 20
31.58648872375488
  0
VERTEX
  8
30
 10
193.291748046875
 20
32.40844345092773
  0
VERTEX
  8
30
 10
195.6401824951172
 20
33.23039627075195
  0
SEQEND
  8
30
  0
POLYLINE
  8
30
  6
CONTINUOUS
 66
     1
 70
     0
 40
0.0
 41
0.0
  0
VERTEX
  8
30
 10
194.8573608398438
 20
31.8604736328125
  0
VERTEX
  8
30
 10
194.8573608398438
 20
32.9564094543457
  0
SEQEND
  8
30
  0
POLYLINE
  8
30
  6
CONTINUOUS
 66
     1
 70
     0
 40
0.0
 41
0.0
  0
VERTEX
  8
30
 10
195.6401824951172
 20
34.6786003112793
  0
VERTEX
  8
30
 10
193.291748046875
 20
34.6786003112793
  0
VERTEX
  8
30
 10
193.291748046875
 20
35.38312911987305
  0
SEQEND
  8
30
  0
POLYLINE
  8
30
  6
CONTINUOUS
 66
     1
 70
     0
 40
0.0
 41
0.0
  0
VERTEX
  8
30
 10
194.3485412597656
 20
35.38312911987305
  0
VERTEX
  8
30
 10
194.3485412597656
 20
34.6786003112793
  0
SEQEND
  8
30
  0
POLYLINE
  8
30
  6
CONTINUOUS
 66
     1
 70
     0
 40
0.0
 41
0.0
  0
VERTEX
  8
30
 10
194.3485412597656
 20
35.38312911987305
 42
0.3959948658501135
  0
VERTEX
  8
30
 10
193.8005676269531
 20
35.97023773193359
  0
SEQEND
  8
30
  0
POLYLINE
  8
30
  6
CONTINUOUS
 66
     1
 70
     0
 40
0.0
 41
0.0
  0
VERTEX
  8
30
 10
193.291748046875
 20
35.38312911987305
 42
-0.4218696394758731
  0
VERTEX
  8
30
 10
193.8005676269531
 20
35.97023773193359
  0
SEQEND
  8
30
  0
POLYLINE
  8
30
  6
CONTINUOUS
 66
     1
 70
     0
 40
0.0
 41
0.0
  0
VERTEX
  8
30
 10
195.6401824951172
 20
37.53586578369141
  0
VERTEX
  8
30
 10
193.291748046875
 20
38.35781860351563
  0
VERTEX
  8
30
 10
195.6401824951172
 20
39.17977142333984
  0
SEQEND
  8
30
  0
POLYLINE
  8
30
  6
CONTINUOUS
 66
     1
 70
     0
 40
0.0
 41
0.0
  0
VERTEX
  8
30
 10
194.8573608398438
 20
37.80984878540039
  0
VERTEX
  8
30
 10
194.8573608398438
 20
38.90578460693359
  0
SEQEND
  8
30
  0
POLYLINE
  8
30
  6
CONTINUOUS
 66
     1
 70
     0
 40
0.0
 41
0.0
  0
VERTEX
  8
30
 10
195.6401824951172
 20
40.62797164916992
  0
VERTEX
  8
30
 10
193.291748046875
 20
40.62797164916992
  0
VERTEX
  8
30
 10
195.6401824951172
 20
42.03703689575195
  0
VERTEX
  8
30
 10
193.291748046875
 20
42.03703689575195
  0
SEQEND
  8
30
  0
ENDBLK
  8
30
  0
BLOCK
  8
20
  2
COMP17
 70
    64
 10
0.0
 20
0.0
  0
POLYLINE
  8
20
  6
CONTINUOUS
 66
     1
 70
     0
 40
0.0
 41
0.0
  0
VERTEX
  8
20
 10
180.4634704589844
 20
27.50124931335449
  0
VERTEX
  8
20
 10
178.4684753417969
 20
28.0
  0
VERTEX
  8
20
 10
180.4634704589844
 20
28.49874877929688
  0
SEQEND
  8
20
  0
POLYLINE
  8
20
  6
CONTINUOUS
 66
     1
 70
     0
 40
0.0
 41
0.0
  0
VERTEX
  8
20
 10
179.8400268554688
 20
28.3428897857666
  0
VERTEX
  8
20
 10
179.8400268554688
 20
27.65710830688477
  0
SEQEND
  8
20
  0
ENDBLK
  8
20
  0
BLOCK
  8
20
  2
COMP18
 70
    64
 10
0.0
 20
0.0
  0
POLYLINE
  8
20
  6
CONTINUOUS
 66
     1
 70
     0
 40
0.0
 41
0.0
  0
VERTEX
  8
20
 10
180.4634704589844
 20
19.50124931335449
  0
VERTEX
  8
20
 10
180.4634704589844
 20
20.03117179870606
 42
0.4666463065186659
  0
VERTEX
  8
20
 10
179.9958953857422
 20
20.49874877929688
  0
VERTEX
  8
20
 10
178.9360504150391
 20
20.49874877929688
 42
0.4666924656311516
  0
VERTEX
  8
20
 10
178.4684753417969
 20
20.03117179870606
  0
VERTEX
  8
20
 10
178.4684753417969
 20
19.50124931335449
  0
VERTEX
  8
20
 10
180.4634704589844
 20
19.50124931335449
  0
SEQEND
  8
20
  0
ENDBLK
  8
20
  0
BLOCK
  8
20
  2
COMP19
 70
    64
 10
0.0
 20
0.0
  0
POLYLINE
  8
20
  6
CONTINUOUS
 66
     1
 70
     0
 40
0.0
 41
0.0
  0
VERTEX
  8
20
 10
180.4634704589844
 20
10.81546878814697
  0
VERTEX
  8
20
 10
180.4634704589844
 20
11.34539031982422
 42
0.4666428074358914
  0
VERTEX
  8
20
 10
179.9958953857422
 20
11.81296920776367
  0
VERTEX
  8
20
 10
178.9360504150391
 20
11.81296920776367
 42
0.4666899817986965
  0
VERTEX
  8
20
 10
178.4684753417969
 20
11.34539031982422
  0
VERTEX
  8
20
 10
178.4684753417969
 20
10.81546878814697
  0
VERTEX
  8
20
 10
180.4634704589844
 20
10.81546878814697
  0
SEQEND
  8
20
  0
POLYLINE
  8
20
  6
CONTINUOUS
 66
     1
 70
     0
 40
0.0
 41
0.0
  0
VERTEX
  8
20
 10
178.4684753417969
 20
12.43640613555908
  0
VERTEX
  8
20
 10
178.4684753417969
 20
12.93515586853027
  0
VERTEX
  8
20
 10
179.0919036865234
 20
12.68578147888184
  0
VERTEX
  8
20
 10
178.4684753417969
 20
12.43640613555908
  0
SEQEND
  8
20
  0
ENDBLK
  8
20
  0
BLOCK
  8
20
  2
COMP20
 70
    64
 10
0.0
 20
0.0
  0
POLYLINE
  8
20
  6
CONTINUOUS
 66
     1
 70
     0
 40
0.0
 41
0.0
  0
VERTEX
  8
20
 10
178.9048767089844
 20
3.127187252044678
 42
0.8749902600925757
  0
VERTEX
  8
20
 10
178.9048767089844
 20
2.129687309265137
  0
VERTEX
  8
20
 10
180.0894012451172
 20
2.129687309265137
 42
0.7500135044115208
  0
VERTEX
  8
20
 10
180.0894012451172
 20
3.127187252044678
  0
SEQEND
  8
20
  0
POLYLINE
  8
20
  6
CONTINUOUS
 66
     1
 70
     0
 40
0.0
 41
0.0
  0
VERTEX
  8
20
 10
180.4634704589844
 20
3.127187252044678
  0
VERTEX
  8
20
 10
179.4971466064453
 20
3.127187252044678
  0
VERTEX
  8
20
 10
179.4971466064453
 20
2.628437280654907
  0
SEQEND
  8
20
  0
POLYLINE
  8
20
  6
CONTINUOUS
 66
     1
 70
     0
 40
0.0
 41
0.0
  0
VERTEX
  8
20
 10
180.4634704589844
 20
3.50124979019165
  0
VERTEX
  8
20
 10
178.4684753417969
 20
3.50124979019165
  0
VERTEX
  8
20
 10
180.4634704589844
 20
4.498749732971191
  0
VERTEX
  8
20
 10
178.4684753417969
 20
4.498749732971191
  0
SEQEND
  8
20
  0
POLYLINE
  8
20
  6
CONTINUOUS
 66
     1
 70
     0
 40
0.0
 41
0.0
  0
VERTEX
  8
20
 10
180.4634704589844
 20
4.872812271118164
  0
VERTEX
  8
20
 10
180.4634704589844
 20
5.40273380279541
 42
0.4666436822046509
  0
VERTEX
  8
20
 10
179.9958953857422
 20
5.870312213897705
  0
VERTEX
  8
20
 10
178.9360504150391
 20
5.870312213897705
 42
0.4666906027554171
  0
VERTEX
  8
20
 10
178.4684753417969
 20
5.40273380279541
  0
VERTEX
  8
20
 10
178.4684753417969
 20
4.872812271118164
  0
VERTEX
  8
20
 10
180.4634704589844
 20
4.872812271118164
  0
SEQEND
  8
20
  0
ENDBLK
  8
20
  0
BLOCK
  8
20
  2
COMP21
 70
    64
 10
0.0
 20
0.0
  0
POLYLINE
  8
20
  6
CONTINUOUS
 66
     1
 70
     0
 40
0.0
 41
0.0
  0
VERTEX
  8
20
 10
179.4659729003906
 20
-4.498749732971191
  0
VERTEX
  8
20
 10
179.4659729003906
 20
-3.50125002861023
  0
SEQEND
  8
20
  0
POLYLINE
  8
20
  6
CONTINUOUS
 66
     1
 70
     0
 40
0.0
 41
0.0
  0
VERTEX
  8
20
 10
178.9672241210938
 20
-4.0
  0
VERTEX
  8
20
 10
179.9647216796875
 20
-4.0
  0
SEQEND
  8
20
  0
ENDBLK
  8
20
  0
BLOCK
  8
20
  2
COMP22
 70
    64
 10
0.0
 20
0.0
  0
POLYLINE
  8
20
  6
CONTINUOUS
 66
     1
 70
     0
 40
0.0
 41
0.0
  0
VERTEX
  8
20
 10
179.4659729003906
 20
-12.43640613555908
  0
VERTEX
  8
20
 10
179.4659729003906
 20
-11.56359386444092
  0
SEQEND
  8
20
  0
ENDBLK
  8
20
  0
BLOCK
  8
20
  2
COMP23
 70
    64
 10
0.0
 20
0.0
  0
POLYLINE
  8
20
  6
CONTINUOUS
 66
     1
 70
     0
 40
0.0
 41
0.0
  0
VERTEX
  8
20
 10
173.1810913085938
 20
-9.55859375
  0
VERTEX
  8
20
 10
175.1760864257813
 20
-10.05734443664551
  0
VERTEX
  8
20
 10
173.1810913085938
 20
-10.5560941696167
  0
SEQEND
  8
20
  0
POLYLINE
  8
20
  6
CONTINUOUS
 66
     1
 70
     0
 40
0.0
 41
0.0
  0
VERTEX
  8
20
 10
173.6174926757813
 20
-9.184532165527344
  0
VERTEX
  8
20
 10
174.8020172119141
 20
-9.184532165527344
 42
0.7500138629423474
  0
VERTEX
  8
20
 10
174.8020172119141
 20
-8.187031745910645
  0
VERTEX
  8
20
 10
173.6174926757813
 20
-8.187031745910645
 42
0.8749890052736444
  0
VERTEX
  8
20
 10
173.6174926757813
 20
-9.184532165527344
  0
SEQEND
  8
20
  0
POLYLINE
  8
20
  6
CONTINUOUS
 66
     1
 70
     0
 40
0.0
 41
0.0
  0
VERTEX
  8
20
 10
173.1810913085938
 20
-7.812969207763672
  0
VERTEX
  8
20
 10
174.8020172119141
 20
-7.812969207763672
 42
0.750013145881037
  0
VERTEX
  8
20
 10
174.8020172119141
 20
-6.815469264984131
  0
VERTEX
  8
20
 10
173.1810913085938
 20
-6.815469264984131
  0
SEQEND
  8
20
  0
POLYLINE
  8
20
  6
CONTINUOUS
 66
     1
 70
     0
 40
0.0
 41
0.0
  0
VERTEX
  8
20
 10
173.1810913085938
 20
-6.441406726837158
  0
VERTEX
  8
20
 10
173.1810913085938
 20
-5.443906784057617
  0
SEQEND
  8
20
  0
POLYLINE
  8
20
  6
CONTINUOUS
 66
     1
 70
     0
 40
0.0
 41
0.0
  0
VERTEX
  8
20
 10
173.1810913085938
 20
-5.942656993865967
  0
VERTEX
  8
20
 10
175.1760864257813
 20
-5.942656993865967
  0
SEQEND
  8
20
  0
ENDBLK
  8
20
  0
BLOCK
  8
20
  2
COMP24
 70
    64
 10
0.0
 20
0.0
  0
POLYLINE
  8
20
  6
CONTINUOUS
 66
     1
 70
     0
 40
0.0
 41
0.0
  0
VERTEX
  8
20
 10
179.4659729003906
 20
-20.49874877929688
  0
VERTEX
  8
20
 10
179.4659729003906
 20
-19.50124931335449
  0
SEQEND
  8
20
  0
POLYLINE
  8
20
  6
CONTINUOUS
 66
     1
 70
     0
 40
0.0
 41
0.0
  0
VERTEX
  8
20
 10
178.9672241210938
 20
-20.0
  0
VERTEX
  8
20
 10
179.9647216796875
 20
-20.0
  0
SEQEND
  8
20
  0
ENDBLK
  8
20
  0
BLOCK
  8
20
  2
COMP25
 70
    64
 10
0.0
 20
0.0
  0
POLYLINE
  8
20
  6
CONTINUOUS
 66
     1
 70
     0
 40
0.0
 41
0.0
  0
VERTEX
  8
20
 10
179.4659729003906
 20
-28.43640518188477
  0
VERTEX
  8
20
 10
179.4659729003906
 20
-27.5635929107666
  0
SEQEND
  8
20
  0
ENDBLK
  8
20
  0
BLOCK
  8
20
  2
COMP26
 70
    64
 10
0.0
 20
0.0
  0
POLYLINE
  8
20
  6
CONTINUOUS
 66
     1
 70
     0
 40
0.0
 41
0.0
  0
VERTEX
  8
20
 10
175.1760864257813
 20
-27.24187469482422
  0
VERTEX
  8
20
 10
175.1760864257813
 20
-26.71195220947266
 42
0.4666463065186659
  0
VERTEX
  8
20
 10
174.7085113525391
 20
-26.24437522888184
  0
VERTEX
  8
20
 10
173.6486663818359
 20
-26.24437522888184
 42
0.4666924656311516
  0
VERTEX
  8
20
 10
173.1810913085938
 20
-26.71195220947266
  0
VERTEX
  8
20
 10
173.1810913085938
 20
-27.24187469482422
  0
VERTEX
  8
20
 10
175.1760864257813
 20
-27.24187469482422
  0
SEQEND
  8
20
  0
POLYLINE
  8
20
  6
CONTINUOUS
 66
     1
 70
     0
 40
0.0
 41
0.0
  0
VERTEX
  8
20
 10
173.6174926757813
 20
-24.87281227111816
 42
0.8749923514654592
  0
VERTEX
  8
20
 10
173.6174926757813
 20
-25.87031173706055
  0
VERTEX
  8
20
 10
174.8020172119141
 20
-25.87031173706055
 42
0.7500124288210978
  0
VERTEX
  8
20
 10
174.8020172119141
 20
-24.87281227111816
  0
SEQEND
  8
20
  0
POLYLINE
  8
20
  6
CONTINUOUS
 66
     1
 70
     0
 40
0.0
 41
0.0
  0
VERTEX
  8
20
 10
173.5551452636719
 20
-24.49875068664551
  0
VERTEX
  8
20
 10
173.1810913085938
 20
-24.18703079223633
  0
VERTEX
  8
20
 10
173.1810913085938
 20
-23.81296920776367
  0
VERTEX
  8
20
 10
173.5551452636719
 20
-23.50124931335449
  0
VERTEX
  8
20
 10
174.0538940429688
 20
-23.50124931335449
  0
VERTEX
  8
20
 10
174.9267120361328
 20
-24.49875068664551
  0
VERTEX
  8
20
 10
175.1760864257813
 20
-24.49875068664551
  0
VERTEX
  8
20
 10
175.1760864257813
 20
-23.50124931335449
  0
SEQEND
  8
20
  0
POLYLINE
  8
20
  6
CONTINUOUS
 66
     1
 70
     0
 40
0.0
 41
0.0
  0
VERTEX
  8
20
 10
173.1810913085938
 20
-22.62843704223633
  0
VERTEX
  8
20
 10
174.5526428222656
 20
-23.12718772888184
  0
VERTEX
  8
20
 10
174.5526428222656
 20
-22.12968826293945
  0
SEQEND
  8
20
  0
POLYLINE
  8
20
  6
CONTINUOUS
 66
     1
 70
     0
 40
0.0
 41
0.0
  0
VERTEX
  8
20
 10
175.1760864257813
 20
-22.44140625
  0
VERTEX
  8
20
 10
173.8668670654297
 20
-22.44140625
  0
SEQEND
  8
20
  0
POLYLINE
  8
20
  6
CONTINUOUS
 66
     1
 70
     0
 40
0.0
 41
0.0
  0
VERTEX
  8
20
 10
173.1810913085938
 20
-20.75812530517578
  0
VERTEX
  8
20
 10
175.1760864257813
 20
-21.25687408447266
  0
VERTEX
  8
20
 10
173.1810913085938
 20
-21.75562477111816
  0
SEQEND
  8
20
  0
ENDBLK
  8
20
  0
BLOCK
  8
20
  2
COMP27
 70
    64
 10
0.0
 20
0.0
  0
POLYLINE
  8
20
  6
CONTINUOUS
 66
     1
 70
     0
 40
0.0
 41
0.0
  0
VERTEX
  8
20
 10
166.9048767089844
 20
-25.55859375
 42
0.8749890052736444
  0
VERTEX
  8
20
 10
166.9048767089844
 20
-26.55609321594238
  0
VERTEX
  8
20
 10
168.0894012451172
 20
-26.55609321594238
 42
0.7500152970690815
  0
VERTEX
  8
20
 10
168.0894012451172
 20
-25.55859375
  0
SEQEND
  8
20
  0
POLYLINE
  8
20
  6
CONTINUOUS
 66
     1
 70
     0
 40
0.0
 41
0.0
  0
VERTEX
  8
20
 10
166.9048767089844
 20
-25.18453025817871
  0
VERTEX
  8
20
 10
168.0894012451172
 20
-25.18453025817871
 42
0.7500152970690815
  0
VERTEX
  8
20
 10
168.0894012451172
 20
-24.18703079223633
  0
VERTEX
  8
20
 10
166.9048767089844
 20
-24.18703079223633
 42
0.8749890052736444
  0
VERTEX
  8
20
 10
166.9048767089844
 20
-25.18453025817871
  0
SEQEND
  8
20
  0
POLYLINE
  8
20
  6
CONTINUOUS
 66
     1
 70
     0
 40
0.0
 41
0.0
  0
VERTEX
  8
20
 10
168.4634704589844
 20
-23.81296920776367
  0
VERTEX
  8
20
 10
166.4684753417969
 20
-23.81296920776367
  0
VERTEX
  8
20
 10
167.7776947021484
 20
-23.31421852111816
  0
VERTEX
  8
20
 10
166.4684753417969
 20
-22.81546783447266
  0
VERTEX
  8
20
 10
168.4634704589844
 20
-22.81546783447266
  0
SEQEND
  8
20
  0
POLYLINE
  8
20
  6
CONTINUOUS
 66
     1
 70
     0
 40
0.0
 41
0.0
  0
VERTEX
  8
20
 10
168.401123046875
 20
-22.06734275817871
  0
VERTEX
  8
20
 10
168.2140960693359
 20
-22.06734275817871
  0
VERTEX
  8
20
 10
168.2140960693359
 20
-21.84914016723633
  0
VERTEX
  8
20
 10
168.401123046875
 20
-21.84914016723633
  0
VERTEX
  8
20
 10
168.401123046875
 20
-22.06734275817871
  0
SEQEND
  8
20
  0
ENDBLK
  8
20
  0
BLOCK
  8
20
  2
COMP28
 70
    64
 10
0.0
 20
0.0
  0
POLYLINE
  8
20
  6
CONTINUOUS
 66
     1
 70
     0
 40
0.0
 41
0.0
  0
VERTEX
  8
20
 10
168.4634704589844
 20
-17.87031173706055
  0
VERTEX
  8
20
 10
166.4684753417969
 20
-17.37156105041504
  0
VERTEX
  8
20
 10
168.4634704589844
 20
-16.87281227111816
  0
SEQEND
  8
20
  0
POLYLINE
  8
20
  6
CONTINUOUS
 66
     1
 70
     0
 40
0.0
 41
0.0
  0
VERTEX
  8
20
 10
167.8400268554688
 20
-17.02867126464844
  0
VERTEX
  8
20
 10
167.8400268554688
 20
-17.71445274353027
  0
SEQEND
  8
20
  0
POLYLINE
  8
20
  6
CONTINUOUS
 66
     1
 70
     0
 40
0.0
 41
0.0
  0
VERTEX
  8
20
 10
168.4634704589844
 20
-16.49874877929688
  0
VERTEX
  8
20
 10
166.4684753417969
 20
-15.50124931335449
  0
SEQEND
  8
20
  0
POLYLINE
  8
20
  6
CONTINUOUS
 66
     1
 70
     0
 40
0.0
 41
0.0
  0
VERTEX
  8
20
 10
166.4684753417969
 20
-15.12718677520752
  0
VERTEX
  8
20
 10
166.4684753417969
 20
-14.12968730926514
  0
VERTEX
  8
20
 10
168.4634704589844
 20
-15.12718677520752
  0
VERTEX
  8
20
 10
168.4634704589844
 20
-14.12968730926514
  0
SEQEND
  8
20
  0
ENDBLK
  8
20
  0
BLOCK
  8
20
  2
COMP29
 70
    64
 10
0.0
 20
0.0
  0
POLYLINE
  8
20
  6
CONTINUOUS
 66
     1
 70
     0
 40
0.0
 41
0.0
  0
VERTEX
  8
20
 10
168.4634704589844
 20
-10.5560941696167
  0
VERTEX
  8
20
 10
168.4634704589844
 20
-9.995000839233398
 42
0.8750038242672704
  0
VERTEX
  8
20
 10
167.4659729003906
 20
-9.995000839233398
 42
0.8750038242672704
  0
VERTEX
  8
20
 10
166.4684753417969
 20
-9.995000839233398
  0
VERTEX
  8
20
 10
166.4684753417969
 20
-10.5560941696167
  0
VERTEX
  8
20
 10
168.4634704589844
 20
-10.5560941696167
  0
SEQEND
  8
20
  0
POLYLINE
  8
20
  6
CONTINUOUS
 66
     1
 70
     0
 40
0.0
 41
0.0
  0
VERTEX
  8
20
 10
167.4659729003906
 20
-10.5560941696167
  0
VERTEX
  8
20
 10
167.4659729003906
 20
-9.995000839233398
  0
SEQEND
  8
20
  0
POLYLINE
  8
20
  6
CONTINUOUS
 66
     1
 70
     0
 40
0.0
 41
0.0
  0
VERTEX
  8
20
 10
166.4684753417969
 20
-9.184532165527344
  0
VERTEX
  8
20
 10
168.0894012451172
 20
-9.184532165527344
 42
0.7500138629423474
  0
VERTEX
  8
20
 10
168.0894012451172
 20
-8.187031745910645
  0
VERTEX
  8
20
 10
166.4684753417969
 20
-8.187031745910645
  0
SEQEND
  8
20
  0
POLYLINE
  8
20
  6
CONTINUOUS
 66
     1
 70
     0
 40
0.0
 41
0.0
  0
VERTEX
  8
20
 10
166.842529296875
 20
-6.815469264984131
 42
0.3601516283571498
  0
VERTEX
  8
20
 10
166.4684753417969
 20
-7.314219474792481
 42
0.3984751431016662
  0
VERTEX
  8
20
 10
166.9048767089844
 20
-7.812969207763672
 42
0.4142365256815174
  0
VERTEX
  8
20
 10
167.4659729003906
 20
-7.314219474792481
 42
-0.3750140645560397
  0
VERTEX
  8
20
 10
167.9647216796875
 20
-6.815469264984131
 42
-0.4832301871571655
  0
VERTEX
  8
20
 10
168.4634704589844
 20
-7.283047676086426
 42
-0.3193696411875158
  0
VERTEX
  8
20
 10
168.0894012451172
 20
-7.812969207763672
  0
SEQEND
  8
20
  0
POLYLINE
  8
20
  6
CONTINUOUS
 66
     1
 70
     0
 40
0.0
 41
0.0
  0
VERTEX
  8
20
 10
166.4684753417969
 20
-6.441406726837158
  0
VERTEX
  8
20
 10
167.4659729003906
 20
-5.942656993865967
  0
VERTEX
  8
20
 10
168.4634704589844
 20
-5.942656993865967
  0
SEQEND
  8
20
  0
POLYLINE
  8
20
  6
CONTINUOUS
 66
     1
 70
     0
 40
0.0
 41
0.0
  0
VERTEX
  8
20
 10
167.4659729003906
 20
-5.942656993865967
  0
VERTEX
  8
20
 10
166.4684753417969
 20
-5.443906784057617
  0
SEQEND
  8
20
  0
ENDBLK
  8
20
  0
BLOCK
  8
20
  2
COMP30
 70
    64
 10
0.0
 20
0.0
  0
POLYLINE
  8
20
  6
CONTINUOUS
 66
     1
 70
     0
 40
0.0
 41
0.0
  0
VERTEX
  8
20
 10
166.9048767089844
 20
-0.8728127479553223
 42
0.8749902600925757
  0
VERTEX
  8
20
 10
166.9048767089844
 20
-1.870312690734863
  0
VERTEX
  8
20
 10
168.0894012451172
 20
-1.870312690734863
 42
0.7500135044115208
  0
VERTEX
  8
20
 10
168.0894012451172
 20
-0.8728127479553223
  0
SEQEND
  8
20
  0
POLYLINE
  8
20
  6
CONTINUOUS
 66
     1
 70
     0
 40
0.0
 41
0.0
  0
VERTEX
  8
20
 10
168.4634704589844
 20
-0.8728127479553223
  0
VERTEX
  8
20
 10
167.4971466064453
 20
-0.8728127479553223
  0
VERTEX
  8
20
 10
167.4971466064453
 20
-1.371562719345093
  0
SEQEND
  8
20
  0
POLYLINE
  8
20
  6
CONTINUOUS
 66
     1
 70
     0
 40
0.0
 41
0.0
  0
VERTEX
  8
20
 10
168.4634704589844
 20
-0.4987502694129944
  0
VERTEX
  8
20
 10
166.4684753417969
 20
-0.4987502694129944
  0
VERTEX
  8
20
 10
168.4634704589844
 20
0.4987496733665466
  0
VERTEX
  8
20
 10
166.4684753417969
 20
0.4987496733665466
  0
SEQEND
  8
20
  0
POLYLINE
  8
20
  6
CONTINUOUS
 66
     1
 70
     0
 40
0.0
 41
0.0
  0
VERTEX
  8
20
 10
168.4634704589844
 20
0.8728121519088745
  0
VERTEX
  8
20
 10
168.4634704589844
 20
1.402734041213989
 42
0.4666435904294413
  0
VERTEX
  8
20
 10
167.9958953857422
 20
1.870312094688416
  0
VERTEX
  8
20
 10
166.9360504150391
 20
1.870312094688416
 42
0.4666909325060911
  0
VERTEX
  8
20
 10
166.4684753417969
 20
1.402734041213989
  0
VERTEX
  8
20
 10
166.4684753417969
 20
0.8728121519088745
  0
VERTEX
  8
20
 10
168.4634704589844
 20
0.8728121519088745
  0
SEQEND
  8
20
  0
ENDBLK
  8
20
  0
BLOCK
  8
20
  2
COMP31
 70
    64
 10
0.0
 20
0.0
  0
POLYLINE
  8
20
  6
CONTINUOUS
 66
     1
 70
     0
 40
0.0
 41
0.0
  0
VERTEX
  8
20
 10
168.4634704589844
 20
6.815468788146973
  0
VERTEX
  8
20
 10
168.4634704589844
 20
7.376562595367432
 42
0.8750019121336352
  0
VERTEX
  8
20
 10
167.4659729003906
 20
7.376562595367432
 42
0.8750019121336352
  0
VERTEX
  8
20
 10
166.4684753417969
 20
7.376562595367432
  0
VERTEX
  8
20
 10
166.4684753417969
 20
6.815468788146973
  0
VERTEX
  8
20
 10
168.4634704589844
 20
6.815468788146973
  0
SEQEND
  8
20
  0
POLYLINE
  8
20
  6
CONTINUOUS
 66
     1
 70
     0
 40
0.0
 41
0.0
  0
VERTEX
  8
20
 10
167.4659729003906
 20
6.815468788146973
  0
VERTEX
  8
20
 10
167.4659729003906
 20
7.376562595367432
  0
SEQEND
  8
20
  0
POLYLINE
  8
20
  6
CONTINUOUS
 66
     1
 70
     0
 40
0.0
 41
0.0
  0
VERTEX
  8
20
 10
166.4684753417969
 20
8.436406135559082
  0
VERTEX
  8
20
 10
166.4684753417969
 20
8.935155868530273
  0
VERTEX
  8
20
 10
167.0919036865234
 20
8.685781478881836
  0
VERTEX
  8
20
 10
166.4684753417969
 20
8.436406135559082
  0
SEQEND
  8
20
  0
ENDBLK
  8
20
  0
BLOCK
  8
20
  2
COMP32
 70
    64
 10
0.0
 20
0.0
  0
POLYLINE
  8
20
  6
CONTINUOUS
 66
     1
 70
     0
 40
0.0
 41
0.0
  0
VERTEX
  8
20
 10
168.4634704589844
 20
15.50125026702881
  0
VERTEX
  8
20
 10
168.4634704589844
 20
16.06234359741211
 42
0.8750038242672704
  0
VERTEX
  8
20
 10
167.4659729003906
 20
16.06234359741211
 42
0.8750038242672704
  0
VERTEX
  8
20
 10
166.4684753417969
 20
16.06234359741211
  0
VERTEX
  8
20
 10
166.4684753417969
 20
15.50125026702881
  0
VERTEX
  8
20
 10
168.4634704589844
 20
15.50125026702881
  0
SEQEND
  8
20
  0
POLYLINE
  8
20
  6
CONTINUOUS
 66
     1
 70
     0
 40
0.0
 41
0.0
  0
VERTEX
  8
20
 10
167.4659729003906
 20
15.50125026702881
  0
VERTEX
  8
20
 10
167.4659729003906
 20
16.06234359741211
  0
SEQEND
  8
20
  0
ENDBLK
  8
20
  0
BLOCK
  8
20
  2
COMP33
 70
    64
 10
0.0
 20
0.0
  0
POLYLINE
  8
20
  6
CONTINUOUS
 66
     1
 70
     0
 40
0.0
 41
0.0
  0
VERTEX
  8
20
 10
166.9048767089844
 20
24.49874877929688
 42
0.8749890052736444
  0
VERTEX
  8
20
 10
166.9048767089844
 20
23.50124931335449
  0
VERTEX
  8
20
 10
168.0894012451172
 20
23.50124931335449
 42
0.7500152970690815
  0
VERTEX
  8
20
 10
168.0894012451172
 20
24.49874877929688
  0
SEQEND
  8
20
  0
ENDBLK
  8
20
  0
BLOCK
  8
30
  2
COMP34
 70
    64
 10
0.0
 20
0.0
  0
POLYLINE
  8
30
  6
CONTINUOUS
 66
     1
 70
     0
 40
0.0
 41
0.0
  0
VERTEX
  8
30
 10
147.7614288330078
 20
19.45970344543457
 42
0.8750060913210859
  0
VERTEX
  8
30
 10
147.7614288330078
 20
18.20720291137695
  0
VERTEX
  8
30
 10
149.248779296875
 20
18.20720291137695
 42
0.7499901015730885
  0
VERTEX
  8
30
 10
149.248779296875
 20
19.45970344543457
  0
SEQEND
  8
30
  0
POLYLINE
  8
30
  6
CONTINUOUS
 66
     1
 70
     0
 40
0.0
 41
0.0
  0
VERTEX
  8
30
 10
147.6831512451172
 20
21.1818904876709
 42
0.3601179393930673
  0
VERTEX
  8
30
 10
147.2134552001953
 20
20.55564117431641
 42
0.3984637161297183
  0
VERTEX
  8
30
 10
147.7614288330078
 20
19.92938995361328
 42
0.4142087143740166
  0
VERTEX
  8
30
 10
148.4659576416016
 20
20.55564117431641
 42
-0.3749883645743146
  0
VERTEX
  8
30
 10
149.0922088623047
 20
21.1818904876709
 42
-0.4832479344603499
  0
VERTEX
  8
30
 10
149.7184600830078
 20
20.59477996826172
 42
-0.319384085683687
  0
VERTEX
  8
30
 10
149.248779296875
 20
19.92938995361328
  0
SEQEND
  8
30
  0
POLYLINE
  8
30
  6
CONTINUOUS
 66
     1
 70
     0
 40
0.0
 41
0.0
  0
VERTEX
  8
30
 10
149.7184600830078
 20
21.65157699584961
  0
VERTEX
  8
30
 10
149.7184600830078
 20
22.31696891784668
 42
0.4666856677660061
  0
VERTEX
  8
30
 10
149.13134765625
 20
22.90407752990723
  0
VERTEX
  8
30
 10
147.8005676269531
 20
22.90407752990723
 42
0.4666480985992134
  0
VERTEX
  8
30
 10
147.2134552001953
 20
22.31696891784668
  0
VERTEX
  8
30
 10
147.2134552001953
 20
21.65157699584961
  0
VERTEX
  8
30
 10
149.7184600830078
 20
21.65157699584961
  0
SEQEND
  8
30
  0
POLYLINE
  8
30
  6
CONTINUOUS
 66
     1
 70
     0
 40
0.0
 41
0.0
  0
VERTEX
  8
30
 10
148.4659576416016
 20
24.54798316955566
  0
VERTEX
  8
30
 10
148.4659576416016
 20
23.45204734802246
  0
SEQEND
  8
30
  0
POLYLINE
  8
30
  6
CONTINUOUS
 66
     1
 70
     0
 40
0.0
 41
0.0
  0
VERTEX
  8
30
 10
147.291748046875
 20
26.27017211914063
  0
VERTEX
  8
30
 10
147.291748046875
 20
25.25251579284668
  0
VERTEX
  8
30
 10
148.3876800537109
 20
25.0959529876709
  0
VERTEX
  8
30
 10
148.2311096191406
 20
25.48735809326172
  0
VERTEX
  8
30
 10
148.2311096191406
 20
25.95704650878906
  0
VERTEX
  8
30
 10
148.5442352294922
 20
26.34845161437988
  0
VERTEX
  8
30
 10
149.3270568847656
 20
26.34845161437988
  0
VERTEX
  8
30
 10
149.7184600830078
 20
25.95704650878906
  0
VERTEX
  8
30
 10
149.7184600830078
 20
25.48735809326172
  0
VERTEX
  8
30
 10
149.3270568847656
 20
25.0959529876709
  0
SEQEND
  8
30
  0
POLYLINE
  8
30
  6
CONTINUOUS
 66
     1
 70
     0
 40
0.0
 41
0.0
  0
VERTEX
  8
30
 10
147.2134552001953
 20
27.67923355102539
  0
VERTEX
  8
30
 10
147.2134552001953
 20
27.20954704284668
  0
VERTEX
  8
30
 10
147.6048736572266
 20
26.81814002990723
  0
VERTEX
  8
30
 10
148.3094024658203
 20
26.81814002990723
  0
VERTEX
  8
30
 10
148.7008056640625
 20
27.20954704284668
  0
VERTEX
  8
30
 10
148.7008056640625
 20
27.67923355102539
  0
VERTEX
  8
30
 10
148.6225280761719
 20
27.91407775878906
  0
VERTEX
  8
30
 10
148.3094024658203
 20
28.07064056396484
  0
VERTEX
  8
30
 10
147.6048736572266
 20
28.07064056396484
  0
VERTEX
  8
30
 10
147.2134552001953
 20
27.67923355102539
  0
SEQEND
  8
30
  0
POLYLINE
  8
30
  6
CONTINUOUS
 66
     1
 70
     0
 40
0.0
 41
0.0
  0
VERTEX
  8
30
 10
148.6225280761719
 20
27.91407775878906
  0
VERTEX
  8
30
 10
149.3270568847656
 20
27.6009521484375
  0
VERTEX
  8
30
 10
149.7184600830078
 20
27.13126564025879
  0
SEQEND
  8
30
  0
POLYLINE
  8
30
  6
CONTINUOUS
 66
     1
 70
     0
 40
0.0
 41
0.0
  0
VERTEX
  8
30
 10
149.7184600830078
 20
29.16657829284668
  0
VERTEX
  8
30
 10
147.2134552001953
 20
29.16657829284668
  0
VERTEX
  8
30
 10
147.9571380615234
 20
28.73603057861328
  0
SEQEND
  8
30
  0
ENDBLK
  8
30
  0
BLOCK
  8
30
  2
COMP35
 70
    64
 10
0.0
 20
0.0
  0
POLYLINE
  8
30
  6
CONTINUOUS
 66
     1
 70
     0
 40
0.0
 41
0.0
  0
VERTEX
  8
30
 10
143.6831512451172
 20
22.90407752990723
 42
0.3601178078519195
  0
VERTEX
  8
30
 10
143.2134552001953
 20
22.2778263092041
 42
0.398466360498652
  0
VERTEX
  8
30
 10
143.7614288330078
 20
21.65157699584961
 42
0.4142085751478518
  0
VERTEX
  8
30
 10
144.4659576416016
 20
22.2778263092041
 42
-0.3749901015429411
  0
VERTEX
  8
30
 10
145.0922088623047
 20
22.90407752990723
 42
-0.4832479344603499
  0
VERTEX
  8
30
 10
145.7184600830078
 20
22.31696701049805
 42
-0.319384085683687
  0
VERTEX
  8
30
 10
145.248779296875
 20
21.65157699584961
  0
SEQEND
  8
30
  0
POLYLINE
  8
30
  6
CONTINUOUS
 66
     1
 70
     0
 40
0.0
 41
0.0
  0
VERTEX
  8
30
 10
145.7184600830078
 20
23.37376403808594
  0
VERTEX
  8
30
 10
143.2134552001953
 20
24.62626457214356
  0
SEQEND
  8
30
  0
POLYLINE
  8
30
  6
CONTINUOUS
 66
     1
 70
     0
 40
0.0
 41
0.0
  0
VERTEX
  8
30
 10
145.7184600830078
 20
25.09595108032227
  0
VERTEX
  8
30
 10
143.2134552001953
 20
25.09595108032227
  0
VERTEX
  8
30
 10
145.7184600830078
 20
26.34845161437988
  0
VERTEX
  8
30
 10
143.2134552001953
 20
26.34845161437988
  0
SEQEND
  8
30
  0
ENDBLK
  8
30
  0
BLOCK
  8
20
  2
COMP36
 70
    64
 10
0.0
 20
0.0
  0
POLYLINE
  8
20
  6
CONTINUOUS
 66
     1
 70
     0
 40
0.0
 41
0.0
  0
VERTEX
  8
20
 10
300.6447143554688
 20
25.17001342773438
  0
VERTEX
  8
20
 10
300.6447143554688
 20
28.17001342773438
  0
VERTEX
  8
20
 10
300.1290893554688
 20
27.27938842773438
  0
SEQEND
  8
20
  0
ENDBLK
  8
20
  0
BLOCK
  8
20
  2
COMP37
 70
    64
 10
0.0
 20
0.0
  0
POLYLINE
  8
20
  6
CONTINUOUS
 66
     1
 70
     0
 40
0.0
 41
0.0
  0
VERTEX
  8
20
 10
299.8947143554688
 20
19.98751831054688
  0
VERTEX
  8
20
 10
300.3634643554688
 20
20.55001831054688
  0
VERTEX
  8
20
 10
300.9259643554688
 20
20.55001831054688
  0
VERTEX
  8
20
 10
301.3947143554688
 20
19.98751831054688
  0
VERTEX
  8
20
 10
301.3947143554688
 20
19.23751831054688
  0
VERTEX
  8
20
 10
299.8947143554688
 20
17.92501831054688
  0
VERTEX
  8
20
 10
299.8947143554688
 20
17.55001831054688
  0
VERTEX
  8
20
 10
301.3947143554688
 20
17.55001831054688
  0
SEQEND
  8
20
  0
ENDBLK
  8
20
  0
BLOCK
  8
20
  2
COMP38
 70
    64
 10
0.0
 20
0.0
  0
POLYLINE
  8
20
  6
CONTINUOUS
 66
     1
 70
     0
 40
0.0
 41
0.0
  0
VERTEX
  8
20
 10
299.8947143554688
 20
12.36752319335938
  0
VERTEX
  8
20
 10
300.3634643554688
 20
12.93002319335938
  0
VERTEX
  8
20
 10
300.9259643554688
 20
12.93002319335938
  0
VERTEX
  8
20
 10
301.3947143554688
 20
12.36752319335938
  0
VERTEX
  8
20
 10
301.3947143554688
 20
11.89877319335938
  0
VERTEX
  8
20
 10
300.8322143554688
 20
11.43002319335938
  0
VERTEX
  8
20
 10
300.2697143554688
 20
11.43002319335938
  0
SEQEND
  8
20
  0
POLYLINE
  8
20
  6
CONTINUOUS
 66
     1
 70
     0
 40
0.0
 41
0.0
  0
VERTEX
  8
20
 10
300.8322143554688
 20
11.43002319335938
  0
VERTEX
  8
20
 10
301.3947143554688
 20
10.86752319335938
  0
VERTEX
  8
20
 10
301.3947143554688
 20
10.39877319335938
  0
VERTEX
  8
20
 10
300.9259643554688
 20
9.930023193359375
  0
VERTEX
  8
20
 10
300.3634643554688
 20
9.930023193359375
  0
VERTEX
  8
20
 10
299.8947143554688
 20
10.39877319335938
  0
SEQEND
  8
20
  0
ENDBLK
  8
20
  0
BLOCK
  8
20
  2
COMP39
 70
    64
 10
0.0
 20
0.0
  0
POLYLINE
  8
20
  6
CONTINUOUS
 66
     1
 70
     0
 40
0.0
 41
0.0
  0
VERTEX
  8
20
 10
300.6447143554688
 20
5.30999755859375
  0
VERTEX
  8
20
 10
299.8947143554688
 20
3.247497797012329
  0
VERTEX
  8
20
 10
301.3947143554688
 20
3.247497797012329
  0
SEQEND
  8
20
  0
POLYLINE
  8
20
  6
CONTINUOUS
 66
     1
 70
     0
 40
0.0
 41
0.0
  0
VERTEX
  8
20
 10
300.9259643554688
 20
2.309997797012329
  0
VERTEX
  8
20
 10
300.9259643554688
 20
4.27874755859375
  0
SEQEND
  8
20
  0
ENDBLK
  8
20
  0
BLOCK
  8
20
  2
COMP40
 70
    64
 10
0.0
 20
0.0
  0
POLYLINE
  8
20
  6
CONTINUOUS
 66
     1
 70
     0
 40
0.0
 41
0.0
  0
VERTEX
  8
20
 10
301.3009643554688
 20
-2.40374755859375
  0
VERTEX
  8
20
 10
300.0822143554688
 20
-2.40374755859375
  0
VERTEX
  8
20
 10
299.8947143554688
 20
-3.71624755859375
  0
VERTEX
  8
20
 10
300.3634643554688
 20
-3.52874755859375
  0
VERTEX
  8
20
 10
300.9259643554688
 20
-3.52874755859375
  0
VERTEX
  8
20
 10
301.3947143554688
 20
-3.90374755859375
  0
VERTEX
  8
20
 10
301.3947143554688
 20
-4.84124755859375
  0
VERTEX
  8
20
 10
300.9259643554688
 20
-5.30999755859375
  0
VERTEX
  8
20
 10
300.3634643554688
 20
-5.30999755859375
  0
VERTEX
  8
20
 10
299.8947143554688
 20
-4.84124755859375
  0
SEQEND
  8
20
  0
ENDBLK
  8
20
  0
BLOCK
  8
20
  2
COMP41
 70
    64
 10
0.0
 20
0.0
  0
POLYLINE
  8
20
  6
CONTINUOUS
 66
     1
 70
     0
 40
0.0
 41
0.0
  0
VERTEX
  8
20
 10
299.8947143554688
 20
-11.61749267578125
  0
VERTEX
  8
20
 10
300.3634643554688
 20
-11.14874267578125
  0
VERTEX
  8
20
 10
300.9259643554688
 20
-11.14874267578125
  0
VERTEX
  8
20
 10
301.3947143554688
 20
-11.61749267578125
  0
VERTEX
  8
20
 10
301.3947143554688
 20
-12.46124267578125
  0
VERTEX
  8
20
 10
300.9259643554688
 20
-12.92999267578125
  0
VERTEX
  8
20
 10
300.3634643554688
 20
-12.92999267578125
  0
VERTEX
  8
20
 10
299.8947143554688
 20
-12.46124267578125
  0
VERTEX
  8
20
 10
299.8947143554688
 20
-10.39874267578125
  0
VERTEX
  8
20
 10
300.3634643554688
 20
-9.92999267578125
  0
VERTEX
  8
20
 10
300.9259643554688
 20
-9.92999267578125
  0
VERTEX
  8
20
 10
301.3947143554688
 20
-10.39874267578125
  0
SEQEND
  8
20
  0
ENDBLK
  8
20
  0
BLOCK
  8
20
  2
COMP42
 70
    64
 10
0.0
 20
0.0
  0
POLYLINE
  8
20
  6
CONTINUOUS
 66
     1
 70
     0
 40
0.0
 41
0.0
  0
VERTEX
  8
20
 10
299.8947143554688
 20
-18.39375305175781
  0
VERTEX
  8
20
 10
299.8947143554688
 20
-17.64375305175781
  0
VERTEX
  8
20
 10
301.3947143554688
 20
-17.64375305175781
  0
VERTEX
  8
20
 10
300.4572143554688
 20
-20.55000305175781
  0
SEQEND
  8
20
  0
ENDBLK
  8
20
  0
BLOCK
  8
20
  2
COMP43
 70
    64
 10
0.0
 20
0.0
  0
POLYLINE
  8
20
  6
CONTINUOUS
 66
     1
 70
     0
 40
0.0
 41
0.0
  0
VERTEX
  8
20
 10
300.9259643554688
 20
-25.17001342773438
  0
VERTEX
  8
20
 10
301.3009643554688
 20
-25.54501342773438
  0
VERTEX
  8
20
 10
301.3009643554688
 20
-26.29501342773438
  0
VERTEX
  8
20
 10
300.9259643554688
 20
-26.57626342773438
  0
VERTEX
  8
20
 10
300.3634643554688
 20
-26.57626342773438
  0
VERTEX
  8
20
 10
299.9884643554688
 20
-26.29501342773438
  0
VERTEX
  8
20
 10
299.9884643554688
 20
-25.54501342773438
  0
VERTEX
  8
20
 10
300.3634643554688
 20
-25.17001342773438
  0
VERTEX
  8
20
 10
300.9259643554688
 20
-25.17001342773438
  0
SEQEND
  8
20
  0
POLYLINE
  8
20
  6
CONTINUOUS
 66
     1
 70
     0
 40
0.0
 41
0.0
  0
VERTEX
  8
20
 10
300.3634643554688
 20
-26.57626342773438
  0
VERTEX
  8
20
 10
299.8947143554688
 20
-26.95126342773438
  0
VERTEX
  8
20
 10
299.8947143554688
 20
-27.70126342773438
  0
VERTEX
  8
20
 10
300.3634643554688
 20
-28.17001342773438
  0
VERTEX
  8
20
 10
300.9259643554688
 20
-28.17001342773438
  0
VERTEX
  8
20
 10
301.3947143554688
 20
-27.70126342773438
  0
VERTEX
  8
20
 10
301.3947143554688
 20
-26.95126342773438
  0
VERTEX
  8
20
 10
300.9259643554688
 20
-26.57626342773438
  0
SEQEND
  8
20
  0
ENDBLK
  8
20
  0
BLOCK
  8
20
  2
COMP44
 70
    64
 10
0.0
 20
0.0
  0
POLYLINE
  8
20
  6
CONTINUOUS
 66
     1
 70
     0
 40
0.0
 41
0.0
  0
VERTEX
  8
20
 10
273.6134643554688
 20
-24.36001586914063
  0
VERTEX
  8
20
 10
273.6134643554688
 20
-21.36001586914063
  0
VERTEX
  8
20
 10
273.0978393554688
 20
-22.25064086914063
  0
SEQEND
  8
20
  0
POLYLINE
  8
20
  6
CONTINUOUS
 66
     1
 70
     0
 40
0.0
 41
0.0
  0
VERTEX
  8
20
 10
276.3322143554688
 20
-21.45376586914063
  0
VERTEX
  8
20
 10
275.1134643554688
 20
-21.45376586914063
  0
VERTEX
  8
20
 10
274.9259643554688
 20
-22.76626586914063
  0
VERTEX
  8
20
 10
275.3947143554688
 20
-22.57876586914063
  0
VERTEX
  8
20
 10
275.9572143554688
 20
-22.57876586914063
  0
VERTEX
  8
20
 10
276.4259643554688
 20
-22.95376586914063
  0
VERTEX
  8
20
 10
276.4259643554688
 20
-23.89126586914063
  0
VERTEX
  8
20
 10
275.9572143554688
 20
-24.36001586914063
  0
VERTEX
  8
20
 10
275.3947143554688
 20
-24.36001586914063
  0
VERTEX
  8
20
 10
274.9259643554688
 20
-23.89126586914063
  0
SEQEND
  8
20
  0
ENDBLK
  8
20
  0
BLOCK
  8
20
  2
COMP45
 70
    64
 10
0.0
 20
0.0
  0
POLYLINE
  8
20
  6
CONTINUOUS
 66
     1
 70
     0
 40
0.0
 41
0.0
  0
VERTEX
  8
20
 10
273.6134643554688
 20
-16.739990234375
  0
VERTEX
  8
20
 10
273.6134643554688
 20
-13.739990234375
  0
VERTEX
  8
20
 10
273.0978393554688
 20
-14.630615234375
  0
SEQEND
  8
20
  0
POLYLINE
  8
20
  6
CONTINUOUS
 66
     1
 70
     0
 40
0.0
 41
0.0
  0
VERTEX
  8
20
 10
275.6759643554688
 20
-13.739990234375
  0
VERTEX
  8
20
 10
274.9259643554688
 20
-15.802490234375
  0
VERTEX
  8
20
 10
276.4259643554688
 20
-15.802490234375
  0
SEQEND
  8
20
  0
POLYLINE
  8
20
  6
CONTINUOUS
 66
     1
 70
     0
 40
0.0
 41
0.0
  0
VERTEX
  8
20
 10
275.9572143554688
 20
-16.739990234375
  0
VERTEX
  8
20
 10
275.9572143554688
 20
-14.771240234375
  0
SEQEND
  8
20
  0
ENDBLK
  8
20
  0
BLOCK
  8
20
  2
COMP46
 70
    64
 10
0.0
 20
0.0
  0
POLYLINE
  8
20
  6
CONTINUOUS
 66
     1
 70
     0
 40
0.0
 41
0.0
  0
VERTEX
  8
20
 10
273.6134643554688
 20
-9.1199951171875
  0
VERTEX
  8
20
 10
273.6134643554688
 20
-6.1199951171875
  0
VERTEX
  8
20
 10
273.0978393554688
 20
-7.0106201171875
  0
SEQEND
  8
20
  0
POLYLINE
  8
20
  6
CONTINUOUS
 66
     1
 70
     0
 40
0.0
 41
0.0
  0
VERTEX
  8
20
 10
274.9259643554688
 20
-6.6824951171875
  0
VERTEX
  8
20
 10
275.3947143554688
 20
-6.1199951171875
  0
VERTEX
  8
20
 10
275.9572143554688
 20
-6.1199951171875
  0
VERTEX
  8
20
 10
276.4259643554688
 20
-6.6824951171875
  0
VERTEX
  8
20
 10
276.4259643554688
 20
-7.1512451171875
  0
VERTEX
  8
20
 10
275.8634643554688
 20
-7.6199951171875
  0
VERTEX
  8
20
 10
275.3009643554688
 20
-7.6199951171875
  0
SEQEND
  8
20
  0
POLYLINE
  8
20
  6
CONTINUOUS
 66
     1
 70
     0
 40
0.0
 41
0.0
  0
VERTEX
  8
20
 10
275.8634643554688
 20
-7.6199951171875
  0
VERTEX
  8
20
 10
276.4259643554688
 20
-8.1824951171875
  0
VERTEX
  8
20
 10
276.4259643554688
 20
-8.6512451171875
  0
VERTEX
  8
20
 10
275.9572143554688
 20
-9.1199951171875
  0
VERTEX
  8
20
 10
275.3947143554688
 20
-9.1199951171875
  0
VERTEX
  8
20
 10
274.9259643554688
 20
-8.6512451171875
  0
SEQEND
  8
20
  0
ENDBLK
  8
20
  0
BLOCK
  8
20
  2
COMP47
 70
    64
 10
0.0
 20
0.0
  0
POLYLINE
  8
20
  6
CONTINUOUS
 66
     1
 70
     0
 40
0.0
 41
0.0
  0
VERTEX
  8
20
 10
273.6134643554688
 20
-1.5
  0
VERTEX
  8
20
 10
273.6134643554688
 20
1.5
  0
VERTEX
  8
20
 10
273.0978393554688
 20
0.609375
  0
SEQEND
  8
20
  0
POLYLINE
  8
20
  6
CONTINUOUS
 66
     1
 70
     0
 40
0.0
 41
0.0
  0
VERTEX
  8
20
 10
274.9259643554688
 20
0.9375
  0
VERTEX
  8
20
 10
275.3947143554688
 20
1.5
  0
VERTEX
  8
20
 10
275.9572143554688
 20
1.5
  0
VERTEX
  8
20
 10
276.4259643554688
 20
0.9375
  0
VERTEX
  8
20
 10
276.4259643554688
 20
0.1875
  0
VERTEX
  8
20
 10
274.9259643554688
 20
-1.125
  0
VERTEX
  8
20
 10
274.9259643554688
 20
-1.5
  0
VERTEX
  8
20
 10
276.4259643554688
 20
-1.5
  0
SEQEND
  8
20
  0
ENDBLK
  8
20
  0
BLOCK
  8
20
  2
COMP48
 70
    64
 10
0.0
 20
0.0
  0
POLYLINE
  8
20
  6
CONTINUOUS
 66
     1
 70
     0
 40
0.0
 41
0.0
  0
VERTEX
  8
20
 10
273.6134643554688
 20
6.1199951171875
  0
VERTEX
  8
20
 10
273.6134643554688
 20
9.1199951171875
  0
VERTEX
  8
20
 10
273.0978393554688
 20
8.2293701171875
  0
SEQEND
  8
20
  0
POLYLINE
  8
20
  6
CONTINUOUS
 66
     1
 70
     0
 40
0.0
 41
0.0
  0
VERTEX
  8
20
 10
275.6759643554688
 20
6.1199951171875
  0
VERTEX
  8
20
 10
275.6759643554688
 20
9.1199951171875
  0
VERTEX
  8
20
 10
275.1603393554688
 20
8.2293701171875
  0
SEQEND
  8
20
  0
ENDBLK
  8
20
  0
BLOCK
  8
20
  2
COMP49
 70
    64
 10
0.0
 20
0.0
  0
POLYLINE
  8
20
  6
CONTINUOUS
 66
     1
 70
     0
 40
0.0
 41
0.0
  0
VERTEX
  8
20
 10
273.6134643554688
 20
13.74002075195313
  0
VERTEX
  8
20
 10
273.6134643554688
 20
16.74002075195313
  0
VERTEX
  8
20
 10
273.0978393554688
 20
15.84939575195313
  0
SEQEND
  8
20
  0
POLYLINE
  8
20
  6
CONTINUOUS
 66
     1
 70
     0
 40
0.0
 41
0.0
  0
VERTEX
  8
20
 10
275.0197143554688
 20
16.17752075195313
  0
VERTEX
  8
20
 10
275.0197143554688
 20
14.30252075195313
 42
0.9230769230769231
  0
VERTEX
  8
20
 10
276.2384643554688
 20
14.30252075195313
  0
VERTEX
  8
20
 10
276.2384643554688
 20
16.17752075195313
 42
0.9230769230769231
  0
VERTEX
  8
20
 10
275.0197143554688
 20
16.17752075195313
  0
SEQEND
  8
20
  0
ENDBLK
  8
20
  0
BLOCK
  8
20
  2
COMP50
 70
    64
 10
0.0
 20
0.0
  0
POLYLINE
  8
20
  6
CONTINUOUS
 66
     1
 70
     0
 40
0.0
 41
0.0
  0
VERTEX
  8
20
 10
274.9259643554688
 20
24.36001586914063
  0
VERTEX
  8
20
 10
274.3634643554688
 20
24.36001586914063
  0
VERTEX
  8
20
 10
273.8947143554688
 20
23.89126586914063
  0
VERTEX
  8
20
 10
273.8947143554688
 20
23.04751586914063
  0
VERTEX
  8
20
 10
274.3634643554688
 20
22.57876586914063
  0
VERTEX
  8
20
 10
274.9259643554688
 20
22.57876586914063
  0
VERTEX
  8
20
 10
275.2072143554688
 20
22.67251586914063
  0
VERTEX
  8
20
 10
275.3947143554688
 20
23.04751586914063
  0
VERTEX
  8
20
 10
275.3947143554688
 20
23.89126586914063
  0
VERTEX
  8
20
 10
274.9259643554688
 20
24.36001586914063
  0
SEQEND
  8
20
  0
POLYLINE
  8
20
  6
CONTINUOUS
 66
     1
 70
     0
 40
0.0
 41
0.0
  0
VERTEX
  8
20
 10
275.2072143554688
 20
22.67251586914063
  0
VERTEX
  8
20
 10
274.8322143554688
 20
21.82876586914063
  0
VERTEX
  8
20
 10
274.2697143554688
 20
21.36001586914063
  0
SEQEND
  8
20
  0
ENDBLK
  8
20
  0
BLOCK
  8
20
  2
COMP51
 70
    64
 10
0.0
 20
0.0
  0
POLYLINE
  8
20
  6
CONTINUOUS
 66
     1
 70
     0
 40
0.0
 41
0.0
  0
VERTEX
  8
20
 10
-11.38000106811523
 20
27.68264770507813
  0
VERTEX
  8
20
 10
-11.38000106811523
 20
25.81233596801758
  0
SEQEND
  8
20
  0
POLYLINE
  8
20
  6
CONTINUOUS
 66
     1
 70
     0
 40
0.0
 41
0.0
  0
VERTEX
  8
20
 10
-12.0346097946167
 20
27.68264770507813
  0
VERTEX
  8
20
 10
-10.72539138793945
 20
27.68264770507813
  0
SEQEND
  8
20
  0
POLYLINE
  8
20
  6
CONTINUOUS
 66
     1
 70
     0
 40
0.0
 41
0.0
  0
VERTEX
  8
20
 10
-9.197969436645508
 20
26.96569633483887
  0
VERTEX
  8
20
 10
-9.197969436645508
 20
25.74999237060547
  0
SEQEND
  8
20
  0
POLYLINE
  8
20
  6
CONTINUOUS
 66
     1
 70
     0
 40
0.0
 41
0.0
  0
VERTEX
  8
20
 10
-9.197969436645508
 20
26.77866363525391
 42
-0.2781979115666079
  0
VERTEX
  8
20
 10
-8.730391502380371
 20
26.96569633483887
  0
SEQEND
  8
20
  0
POLYLINE
  8
20
  6
CONTINUOUS
 66
     1
 70
     0
 40
0.0
 41
0.0
  0
VERTEX
  8
20
 10
-6.330157279968262
 20
25.99936676025391
 42
-0.2998583963758782
  0
VERTEX
  8
20
 10
-6.641875743865967
 20
25.81233596801758
  0
SEQEND
  8
20
  0
POLYLINE
  8
20
  6
CONTINUOUS
 66
     1
 70
     0
 40
0.0
 41
0.0
  0
VERTEX
  8
20
 10
-6.641875743865967
 20
26.93452262878418
 42
0.2175793552749574
  0
VERTEX
  8
20
 10
-6.984766483306885
 20
26.77866363525391
  0
SEQEND
  8
20
  0
POLYLINE
  8
20
  6
CONTINUOUS
 66
     1
 70
     0
 40
0.0
 41
0.0
  0
VERTEX
  8
20
 10
-6.298985481262207
 20
25.99936676025391
 42
0.3797695138708752
  0
VERTEX
  8
20
 10
-6.080781936645508
 20
25.81233596801758
  0
SEQEND
  8
20
  0
POLYLINE
  8
20
  6
CONTINUOUS
 66
     1
 70
     0
 40
0.0
 41
0.0
  0
VERTEX
  8
20
 10
-6.641875743865967
 20
26.93452262878418
 42
-0.4375047700517944
  0
VERTEX
  8
20
 10
-6.298985481262207
 20
26.62280464172363
  0
VERTEX
  8
20
 10
-6.298985481262207
 20
25.99936676025391
  0
SEQEND
  8
20
  0
POLYLINE
  8
20
  6
CONTINUOUS
 66
     1
 70
     0
 40
0.0
 41
0.0
  0
VERTEX
  8
20
 10
-6.891250610351563
 20
25.87467956542969
 42
0.1521139469443026
  0
VERTEX
  8
20
 10
-6.641875743865967
 20
25.81233596801758
  0
SEQEND
  8
20
  0
POLYLINE
  8
20
  6
CONTINUOUS
 66
     1
 70
     0
 40
0.0
 41
0.0
  0
VERTEX
  8
20
 10
-6.891250610351563
 20
25.87467956542969
 42
-0.6296145501487641
  0
VERTEX
  8
20
 10
-6.797735214233398
 20
26.40460205078125
  0
VERTEX
  8
20
 10
-6.298985481262207
 20
26.56046104431152
  0
SEQEND
  8
20
  0
POLYLINE
  8
20
  6
CONTINUOUS
 66
     1
 70
     0
 40
0.0
 41
0.0
  0
VERTEX
  8
20
 10
-3.898751020431519
 20
25.74999237060547
  0
VERTEX
  8
20
 10
-3.898751020431519
 20
26.49811744689941
  0
SEQEND
  8
20
  0
POLYLINE
  8
20
  6
CONTINUOUS
 66
     1
 70
     0
 40
0.0
 41
0.0
  0
VERTEX
  8
20
 10
-4.646875858306885
 20
26.49811744689941
 42
-0.999998087870021
  0
VERTEX
  8
20
 10
-3.898751020431519
 20
26.49811744689941
  0
SEQEND
  8
20
  0
POLYLINE
  8
20
  6
CONTINUOUS
 66
     1
 70
     0
 40
0.0
 41
0.0
  0
VERTEX
  8
20
 10
-4.646875858306885
 20
26.87217903137207
  0
VERTEX
  8
20
 10
-4.646875858306885
 20
25.74999237060547
  0
SEQEND
  8
20
  0
POLYLINE
  8
20
  6
CONTINUOUS
 66
     1
 70
     0
 40
0.0
 41
0.0
  0
VERTEX
  8
20
 10
-1.903751134872437
 20
25.81233596801758
 42
0.408540251976565
  0
VERTEX
  8
20
 10
-1.529688596725464
 20
26.09288215637207
 42
0.3906303487363624
  0
VERTEX
  8
20
 10
-1.779063701629639
 20
26.40460205078125
 42
-0.01262916989034732
  0
VERTEX
  8
20
 10
-2.090782403945923
 20
26.46694564819336
 42
-0.3775381151692036
  0
VERTEX
  8
20
 10
-2.246641635894775
 20
26.68514823913574
 42
-0.3584513245842636
  0
VERTEX
  8
20
 10
-1.903751134872437
 20
26.93452262878418
 42
-0.2125004162229002
  0
VERTEX
  8
20
 10
-1.592032432556152
 20
26.77866363525391
  0
SEQEND
  8
20
  0
POLYLINE
  8
20
  6
CONTINUOUS
 66
     1
 70
     0
 40
0.0
 41
0.0
  0
VERTEX
  8
20
 10
-1.903751134872437
 20
25.81233596801758
 42
-0.179136162856889
  0
VERTEX
  8
20
 10
-2.246641635894775
 20
25.99936676025391
  0
SEQEND
  8
20
  0
POLYLINE
  8
20
  6
CONTINUOUS
 66
     1
 70
     0
 40
0.0
 41
0.0
  0
VERTEX
  8
20
 10
0.4653112292289734
 20
26.59163284301758
 42
-0.9999974504949866
  0
VERTEX
  8
20
 10
1.026404976844788
 20
26.59163284301758
  0
SEQEND
  8
20
  0
POLYLINE
  8
20
  6
CONTINUOUS
 66
     1
 70
     0
 40
0.0
 41
0.0
  0
VERTEX
  8
20
 10
0.4653112292289734
 20
26.59163284301758
 42
0.9999976098386689
  0
VERTEX
  8
20
 10
-0.09578248858451843
 20
26.59163284301758
  0
SEQEND
  8
20
  0
POLYLINE
  8
20
  6
CONTINUOUS
 66
     1
 70
     0
 40
0.0
 41
0.0
  0
VERTEX
  8
20
 10
1.026404976844788
 20
26.59163284301758
  0
VERTEX
  8
20
 10
1.026404976844788
 20
25.74999237060547
  0
SEQEND
  8
20
  0
POLYLINE
  8
20
  6
CONTINUOUS
 66
     1
 70
     0
 40
0.0
 41
0.0
  0
VERTEX
  8
20
 10
0.4653112292289734
 20
26.59163284301758
  0
VERTEX
  8
20
 10
0.4653112292289734
 20
25.74999237060547
  0
SEQEND
  8
20
  0
POLYLINE
  8
20
  6
CONTINUOUS
 66
     1
 70
     0
 40
0.0
 41
0.0
  0
VERTEX
  8
20
 10
-0.09578248858451843
 20
25.74999237060547
  0
VERTEX
  8
20
 10
-0.09578248858451843
 20
26.87217903137207
  0
SEQEND
  8
20
  0
POLYLINE
  8
20
  6
CONTINUOUS
 66
     1
 70
     0
 40
0.0
 41
0.0
  0
VERTEX
  8
20
 10
2.834373474121094
 20
26.87217903137207
  0
VERTEX
  8
20
 10
2.834373474121094
 20
25.74999237060547
  0
SEQEND
  8
20
  0
POLYLINE
  8
20
  6
CONTINUOUS
 66
     1
 70
     0
 40
0.0
 41
0.0
  0
VERTEX
  8
20
 10
2.834373474121094
 20
27.1527271270752
  0
VERTEX
  8
20
 10
2.834373474121094
 20
27.43327331542969
  0
SEQEND
  8
20
  0
POLYLINE
  8
20
  6
CONTINUOUS
 66
     1
 70
     0
 40
0.0
 41
0.0
  0
VERTEX
  8
20
 10
5.109920501708984
 20
27.68264770507813
  0
VERTEX
  8
20
 10
5.109920501708984
 20
26.09288215637207
 42
0.8690470813963146
  0
VERTEX
  8
20
 10
5.764529705047607
 20
26.09288215637207
  0
SEQEND
  8
20
  0
POLYLINE
  8
20
  6
CONTINUOUS
 66
     1
 70
     0
 40
0.0
 41
0.0
  0
VERTEX
  8
20
 10
4.829373359680176
 20
26.93452262878418
  0
VERTEX
  8
20
 10
5.577498435974121
 20
26.93452262878418
  0
SEQEND
  8
20
  0
POLYLINE
  8
20
  6
CONTINUOUS
 66
     1
 70
     0
 40
0.0
 41
0.0
  0
VERTEX
  8
20
 10
7.478982925415039
 20
27.68264770507813
  0
VERTEX
  8
20
 10
7.478982925415039
 20
26.09288215637207
 42
0.8690470813963146
  0
VERTEX
  8
20
 10
8.133591651916504
 20
26.09288215637207
  0
SEQEND
  8
20
  0
POLYLINE
  8
20
  6
CONTINUOUS
 66
     1
 70
     0
 40
0.0
 41
0.0
  0
VERTEX
  8
20
 10
7.198435783386231
 20
26.93452262878418
  0
VERTEX
  8
20
 10
7.946560859680176
 20
26.93452262878418
  0
SEQEND
  8
20
  0
POLYLINE
  8
20
  6
CONTINUOUS
 66
     1
 70
     0
 40
0.0
 41
0.0
  0
VERTEX
  8
20
 10
9.941560745239258
 20
26.93452262878418
 42
0.3125017981403481
  0
VERTEX
  8
20
 10
9.473982810974121
 20
26.62280464172363
 42
0.125
  0
VERTEX
  8
20
 10
9.473982810974121
 20
26.12405395507813
 42
0.3262058972234033
  0
VERTEX
  8
20
 10
9.941560745239258
 20
25.81233596801758
 42
0.3561064215455986
  0
VERTEX
  8
20
 10
10.37796688079834
 20
26.12405395507813
  0
SEQEND
  8
20
  0
POLYLINE
  8
20
  6
CONTINUOUS
 66
     1
 70
     0
 40
0.0
 41
0.0
  0
VERTEX
  8
20
 10
9.442811012268066
 20
26.43577384948731
  0
VERTEX
  8
20
 10
10.4091386795044
 20
26.43577384948731
 42
0.4904176668227906
  0
VERTEX
  8
20
 10
9.941560745239258
 20
26.93452262878418
  0
SEQEND
  8
20
  0
POLYLINE
  8
20
  6
CONTINUOUS
 66
     1
 70
     0
 40
0.0
 41
0.0
  0
VERTEX
  8
20
 10
12.12359142303467
 20
26.96569633483887
  0
VERTEX
  8
20
 10
12.12359142303467
 20
25.74999237060547
  0
SEQEND
  8
20
  0
POLYLINE
  8
20
  6
CONTINUOUS
 66
     1
 70
     0
 40
0.0
 41
0.0
  0
VERTEX
  8
20
 10
12.12359142303467
 20
26.77866363525391
 42
-0.2781975821530635
  0
VERTEX
  8
20
 10
12.59117031097412
 20
26.96569633483887
  0
SEQEND
  8
20
  0
ENDBLK
  8
20
  0
BLOCK
  8
20
  2
COMP52
 70
    64
 10
0.0
 20
0.0
  0
POLYLINE
  8
20
  6
CONTINUOUS
 66
     1
 70
     0
 40
0.0
 41
0.0
  0
VERTEX
  8
20
 10
-10.94328117370606
 20
32.33975601196289
 42
0.3089320340335888
  0
VERTEX
  8
20
 10
-11.44203186035156
 20
32.68264770507813
 42
0.270307455678139
  0
VERTEX
  8
20
 10
-11.94078159332275
 20
32.33975601196289
 42
0.114395109394509
  0
VERTEX
  8
20
 10
-12.09664058685303
 20
31.74748992919922
 42
0.1332978039073702
  0
VERTEX
  8
20
 10
-11.94078159332275
 20
31.15522575378418
 42
0.2703140695235698
  0
VERTEX
  8
20
 10
-11.44203186035156
 20
30.81233406066895
  0
SEQEND
  8
20
  0
POLYLINE
  8
20
  6
CONTINUOUS
 66
     1
 70
     0
 40
0.0
 41
0.0
  0
VERTEX
  8
20
 10
-11.41085910797119
 20
30.81233406066895
 42
0.3418031660792937
  0
VERTEX
  8
20
 10
-10.88093757629395
 20
31.2799129486084
  0
SEQEND
  8
20
  0
POLYLINE
  8
20
  6
CONTINUOUS
 66
     1
 70
     0
 40
0.0
 41
0.0
  0
VERTEX
  8
20
 10
-9.041796684265137
 20
30.81233406066895
 42
0.4080608382645851
  0
VERTEX
  8
20
 10
-8.449531555175781
 20
31.2799129486084
 42
0.3916479779434129
  0
VERTEX
  8
20
 10
-8.854765892028809
 20
31.80983352661133
 42
-0.01475017457368707
  0
VERTEX
  8
20
 10
-9.384687423706055
 20
31.93452072143555
 42
-0.3865742321081309
  0
VERTEX
  8
20
 10
-9.602890968322754
 20
32.3085823059082
 42
-0.3545806608067543
  0
VERTEX
  8
20
 10
-9.072969436645508
 20
32.68264770507813
 42
-0.2194970125356031
  0
VERTEX
  8
20
 10
-8.543046951293945
 20
32.43327331542969
  0
SEQEND
  8
20
  0
POLYLINE
  8
20
  6
CONTINUOUS
 66
     1
 70
     0
 40
0.0
 41
0.0
  0
VERTEX
  8
20
 10
-9.041796684265137
 20
30.81233406066895
 42
-0.27375575737997
  0
VERTEX
  8
20
 10
-9.634062767028809
 20
31.12405204772949
  0
SEQEND
  8
20
  0
POLYLINE
  8
20
  6
CONTINUOUS
 66
     1
 70
     0
 40
0.0
 41
0.0
  0
VERTEX
  8
20
 10
-7.358516216278076
 20
30.81233406066895
  0
VERTEX
  8
20
 10
-6.703906536102295
 20
32.68264770507813
  0
VERTEX
  8
20
 10
-6.049297332763672
 20
30.81233406066895
  0
SEQEND
  8
20
  0
POLYLINE
  8
20
  6
CONTINUOUS
 66
     1
 70
     0
 40
0.0
 41
0.0
  0
VERTEX
  8
20
 10
-7.140312671661377
 20
31.43577194213867
  0
VERTEX
  8
20
 10
-6.267500400543213
 20
31.43577194213867
  0
SEQEND
  8
20
  0
POLYLINE
  8
20
  6
CONTINUOUS
 66
     1
 70
     0
 40
0.0
 41
0.0
  0
VERTEX
  8
20
 10
-4.958281517028809
 20
31.74748992919922
  0
VERTEX
  8
20
 10
-3.680234909057617
 20
31.74748992919922
  0
SEQEND
  8
20
  0
POLYLINE
  8
20
  6
CONTINUOUS
 66
     1
 70
     0
 40
0.0
 41
0.0
  0
VERTEX
  8
20
 10
-1.498203873634338
 20
32.68264770507813
  0
VERTEX
  8
20
 10
-2.433360099792481
 20
32.68264770507813
  0
VERTEX
  8
20
 10
-2.433360099792481
 20
31.84100532531738
 42
-0.4974248947394458
  0
VERTEX
  8
20
 10
-1.498203873634338
 20
31.74748992919922
  0
SEQEND
  8
20
  0
POLYLINE
  8
20
  6
CONTINUOUS
 66
     1
 70
     0
 40
0.0
 41
0.0
  0
VERTEX
  8
20
 10
-2.433360099792481
 20
30.99936485290527
 42
0.4974207552078657
  0
VERTEX
  8
20
 10
-1.498203873634338
 20
31.09288024902344
 42
0.2380952727823685
  0
VERTEX
  8
20
 10
-1.498203873634338
 20
31.74748992919922
  0
SEQEND
  8
20
  0
POLYLINE
  8
20
  6
CONTINUOUS
 66
     1
 70
     0
 40
0.0
 41
0.0
  0
VERTEX
  8
20
 10
0.9643741846084595
 20
31.74748992919922
 42
-0.2371039922191336
  0
VERTEX
  8
20
 10
0.4032804369926453
 20
31.43577194213867
 42
-0.4671247273911916
  0
VERTEX
  8
20
 10
-0.1266414076089859
 20
32.09038162231445
 42
-0.2031205957125522
  0
VERTEX
  8
20
 10
0.1227335780858994
 20
32.58913040161133
 42
-0.2099021068683426
  0
VERTEX
  8
20
 10
0.4032804369926453
 20
32.68264770507813
 42
-0.3103292028463416
  0
VERTEX
  8
20
 10
0.8396866321563721
 20
32.43327331542969
 42
-0.10650075629807
  0
VERTEX
  8
20
 10
0.9643741846084595
 20
31.74748992919922
 42
-0.2327340878393295
  0
VERTEX
  8
20
 10
0.6214835643768311
 20
30.87467765808106
 42
-0.390621451038802
  0
VERTEX
  8
20
 10
0.0915617048740387
 20
30.96819305419922
  0
SEQEND
  8
20
  0
POLYLINE
  8
20
  6
CONTINUOUS
 66
     1
 70
     0
 40
0.0
 41
0.0
  0
VERTEX
  8
20
 10
2.398280382156372
 20
32.3085823059082
  0
VERTEX
  8
20
 10
2.772342681884766
 20
32.74499130249023
  0
VERTEX
  8
20
 10
2.772342681884766
 20
30.74999046325684
  0
SEQEND
  8
20
  0
ENDBLK
  8
20
  0
BLOCK
  8
30
  2
COMP53
 70
    64
 10
0.0
 20
0.0
  0
POLYLINE
  8
30
  6
CONTINUOUS
 66
     1
 70
     0
 40
0.0
 41
0.0
  0
VERTEX
  8
30
 10
186.9659576416016
 20
28.0
  0
VERTEX
  8
30
 10
183.9659576416016
 20
28.0
  0
VERTEX
  8
30
 10
184.8565826416016
 20
27.484375
  0
SEQEND
  8
30
  0
ENDBLK
  8
30
  0
BLOCK
  8
30
  2
COMP54
 70
    64
 10
0.0
 20
0.0
  0
POLYLINE
  8
30
  6
CONTINUOUS
 66
     1
 70
     0
 40
0.0
 41
0.0
  0
VERTEX
  8
30
 10
184.5284576416016
 20
19.25
  0
VERTEX
  8
30
 10
183.9659576416016
 20
19.71875
  0
VERTEX
  8
30
 10
183.9659576416016
 20
20.28125
  0
VERTEX
  8
30
 10
184.5284576416016
 20
20.75
  0
VERTEX
  8
30
 10
185.2784576416016
 20
20.75
  0
VERTEX
  8
30
 10
186.5909576416016
 20
19.25
  0
VERTEX
  8
30
 10
186.9659576416016
 20
19.25
  0
VERTEX
  8
30
 10
186.9659576416016
 20
20.75
  0
SEQEND
  8
30
  0
ENDBLK
  8
30
  0
BLOCK
  8
30
  2
COMP55
 70
    64
 10
0.0
 20
0.0
  0
POLYLINE
  8
30
  6
CONTINUOUS
 66
     1
 70
     0
 40
0.0
 41
0.0
  0
VERTEX
  8
30
 10
184.5284576416016
 20
11.25
  0
VERTEX
  8
30
 10
183.9659576416016
 20
11.71875
  0
VERTEX
  8
30
 10
183.9659576416016
 20
12.28125
  0
VERTEX
  8
30
 10
184.5284576416016
 20
12.75
  0
VERTEX
  8
30
 10
184.9972076416016
 20
12.75
  0
VERTEX
  8
30
 10
185.4659576416016
 20
12.1875
  0
VERTEX
  8
30
 10
185.4659576416016
 20
11.625
  0
SEQEND
  8
30
  0
POLYLINE
  8
30
  6
CONTINUOUS
 66
     1
 70
     0
 40
0.0
 41
0.0
  0
VERTEX
  8
30
 10
185.4659576416016
 20
12.1875
  0
VERTEX
  8
30
 10
186.0284576416016
 20
12.75
  0
VERTEX
  8
30
 10
186.4972076416016
 20
12.75
  0
VERTEX
  8
30
 10
186.9659576416016
 20
12.28125
  0
VERTEX
  8
30
 10
186.9659576416016
 20
11.71875
  0
VERTEX
  8
30
 10
186.4972076416016
 20
11.25
  0
SEQEND
  8
30
  0
ENDBLK
  8
30
  0
BLOCK
  8
30
  2
COMP56
 70
    64
 10
0.0
 20
0.0
  0
POLYLINE
  8
30
  6
CONTINUOUS
 66
     1
 70
     0
 40
0.0
 41
0.0
  0
VERTEX
  8
30
 10
183.9659576416016
 20
3.999984741210938
  0
VERTEX
  8
30
 10
186.0284576416016
 20
3.249984741210938
  0
VERTEX
  8
30
 10
186.0284576416016
 20
4.749984741210938
  0
SEQEND
  8
30
  0
POLYLINE
  8
30
  6
CONTINUOUS
 66
     1
 70
     0
 40
0.0
 41
0.0
  0
VERTEX
  8
30
 10
186.9659576416016
 20
4.281234741210938
  0
VERTEX
  8
30
 10
184.9972076416016
 20
4.281234741210938
  0
SEQEND
  8
30
  0
ENDBLK
  8
30
  0
BLOCK
  8
30
  2
COMP57
 70
    64
 10
0.0
 20
0.0
  0
POLYLINE
  8
30
  6
CONTINUOUS
 66
     1
 70
     0
 40
0.0
 41
0.0
  0
VERTEX
  8
30
 10
184.0597076416016
 20
-3.343765258789063
  0
VERTEX
  8
30
 10
184.0597076416016
 20
-4.562515258789063
  0
VERTEX
  8
30
 10
185.3722076416016
 20
-4.750015258789063
  0
VERTEX
  8
30
 10
185.1847076416016
 20
-4.281265258789063
  0
VERTEX
  8
30
 10
185.1847076416016
 20
-3.718765258789063
  0
VERTEX
  8
30
 10
185.5597076416016
 20
-3.250015258789063
  0
VERTEX
  8
30
 10
186.4972076416016
 20
-3.250015258789063
  0
VERTEX
  8
30
 10
186.9659576416016
 20
-3.718765258789063
  0
VERTEX
  8
30
 10
186.9659576416016
 20
-4.281265258789063
  0
VERTEX
  8
30
 10
186.4972076416016
 20
-4.750015258789063
  0
SEQEND
  8
30
  0
ENDBLK
  8
30
  0
BLOCK
  8
30
  2
COMP58
 70
    64
 10
0.0
 20
0.0
  0
POLYLINE
  8
30
  6
CONTINUOUS
 66
     1
 70
     0
 40
0.0
 41
0.0
  0
VERTEX
  8
30
 10
185.6534576416016
 20
-12.75001525878906
  0
VERTEX
  8
30
 10
185.1847076416016
 20
-12.28126525878906
  0
VERTEX
  8
30
 10
185.1847076416016
 20
-11.71876525878906
  0
VERTEX
  8
30
 10
185.6534576416016
 20
-11.25001525878906
  0
VERTEX
  8
30
 10
186.4972076416016
 20
-11.25001525878906
  0
VERTEX
  8
30
 10
186.9659576416016
 20
-11.71876525878906
  0
VERTEX
  8
30
 10
186.9659576416016
 20
-12.28126525878906
  0
VERTEX
  8
30
 10
186.4972076416016
 20
-12.75001525878906
  0
VERTEX
  8
30
 10
184.4347076416016
 20
-12.75001525878906
  0
VERTEX
  8
30
 10
183.9659576416016
 20
-12.28126525878906
  0
VERTEX
  8
30
 10
183.9659576416016
 20
-11.71876525878906
  0
VERTEX
  8
30
 10
184.4347076416016
 20
-11.25001525878906
  0
SEQEND
  8
30
  0
ENDBLK
  8
30
  0
BLOCK
  8
30
  2
COMP59
 70
    64
 10
0.0
 20
0.0
  0
POLYLINE
  8
30
  6
CONTINUOUS
 66
     1
 70
     0
 40
0.0
 41
0.0
  0
VERTEX
  8
30
 10
184.8097076416016
 20
-20.75001525878906
  0
VERTEX
  8
30
 10
184.0597076416016
 20
-20.75001525878906
  0
VERTEX
  8
30
 10
184.0597076416016
 20
-19.25001525878906
  0
VERTEX
  8
30
 10
186.9659576416016
 20
-20.18751525878906
  0
SEQEND
  8
30
  0
ENDBLK
  8
30
  0
BLOCK
  8
30
  2
COMP60
 70
    64
 10
0.0
 20
0.0
  0
POLYLINE
  8
30
  6
CONTINUOUS
 66
     1
 70
     0
 40
0.0
 41
0.0
  0
VERTEX
  8
30
 10
183.9659576416016
 20
-27.71876525878906
  0
VERTEX
  8
30
 10
184.3409576416016
 20
-27.34376525878906
  0
VERTEX
  8
30
 10
185.0909576416016
 20
-27.34376525878906
  0
VERTEX
  8
30
 10
185.3722076416016
 20
-27.71876525878906
  0
VERTEX
  8
30
 10
185.3722076416016
 20
-28.28126525878906
  0
VERTEX
  8
30
 10
185.0909576416016
 20
-28.65626525878906
  0
VERTEX
  8
30
 10
184.3409576416016
 20
-28.65626525878906
  0
VERTEX
  8
30
 10
183.9659576416016
 20
-28.28126525878906
  0
VERTEX
  8
30
 10
183.9659576416016
 20
-27.71876525878906
  0
SEQEND
  8
30
  0
POLYLINE
  8
30
  6
CONTINUOUS
 66
     1
 70
     0
 40
0.0
 41
0.0
  0
VERTEX
  8
30
 10
185.3722076416016
 20
-28.28126525878906
  0
VERTEX
  8
30
 10
185.7472076416016
 20
-28.75001525878906
  0
VERTEX
  8
30
 10
186.4972076416016
 20
-28.75001525878906
  0
VERTEX
  8
30
 10
186.9659576416016
 20
-28.28126525878906
  0
VERTEX
  8
30
 10
186.9659576416016
 20
-27.71876525878906
  0
VERTEX
  8
30
 10
186.4972076416016
 20
-27.25001525878906
  0
VERTEX
  8
30
 10
185.7472076416016
 20
-27.25001525878906
  0
VERTEX
  8
30
 10
185.3722076416016
 20
-27.71876525878906
  0
SEQEND
  8
30
  0
ENDBLK
  8
30
  0
BLOCK
  8
30
  2
COMP61
 70
    64
 10
0.0
 20
0.0
  0
POLYLINE
  8
30
  6
CONTINUOUS
 66
     1
 70
     0
 40
0.0
 41
0.0
  0
VERTEX
  8
30
 10
162.9659576416016
 20
-25.03126525878906
  0
VERTEX
  8
30
 10
159.9659576416016
 20
-25.03126525878906
  0
VERTEX
  8
30
 10
160.8565826416016
 20
-25.54689025878906
  0
SEQEND
  8
30
  0
POLYLINE
  8
30
  6
CONTINUOUS
 66
     1
 70
     0
 40
0.0
 41
0.0
  0
VERTEX
  8
30
 10
160.0597076416016
 20
-22.31251525878906
  0
VERTEX
  8
30
 10
160.0597076416016
 20
-23.53126525878906
  0
VERTEX
  8
30
 10
161.3722076416016
 20
-23.71876525878906
  0
VERTEX
  8
30
 10
161.1847076416016
 20
-23.25001525878906
  0
VERTEX
  8
30
 10
161.1847076416016
 20
-22.68751525878906
  0
VERTEX
  8
30
 10
161.5597076416016
 20
-22.21876525878906
  0
VERTEX
  8
30
 10
162.4972076416016
 20
-22.21876525878906
  0
VERTEX
  8
30
 10
162.9659576416016
 20
-22.68751525878906
  0
VERTEX
  8
30
 10
162.9659576416016
 20
-23.25001525878906
  0
VERTEX
  8
30
 10
162.4972076416016
 20
-23.71876525878906
  0
SEQEND
  8
30
  0
ENDBLK
  8
30
  0
BLOCK
  8
30
  2
COMP62
 70
    64
 10
0.0
 20
0.0
  0
POLYLINE
  8
30
  6
CONTINUOUS
 66
     1
 70
     0
 40
0.0
 41
0.0
  0
VERTEX
  8
30
 10
162.9659576416016
 20
-17.03126525878906
  0
VERTEX
  8
30
 10
159.9659576416016
 20
-17.03126525878906
  0
VERTEX
  8
30
 10
160.8565826416016
 20
-17.54689025878906
  0
SEQEND
  8
30
  0
POLYLINE
  8
30
  6
CONTINUOUS
 66
     1
 70
     0
 40
0.0
 41
0.0
  0
VERTEX
  8
30
 10
159.9659576416016
 20
-14.96876525878906
  0
VERTEX
  8
30
 10
162.0284576416016
 20
-15.71876525878906
  0
VERTEX
  8
30
 10
162.0284576416016
 20
-14.21876525878906
  0
SEQEND
  8
30
  0
POLYLINE
  8
30
  6
CONTINUOUS
 66
     1
 70
     0
 40
0.0
 41
0.0
  0
VERTEX
  8
30
 10
162.9659576416016
 20
-14.68751525878906
  0
VERTEX
  8
30
 10
160.9972076416016
 20
-14.68751525878906
  0
SEQEND
  8
30
  0
ENDBLK
  8
30
  0
BLOCK
  8
30
  2
COMP63
 70
    64
 10
0.0
 20
0.0
  0
POLYLINE
  8
30
  6
CONTINUOUS
 66
     1
 70
     0
 40
0.0
 41
0.0
  0
VERTEX
  8
30
 10
162.9659576416016
 20
-9.031265258789063
  0
VERTEX
  8
30
 10
159.9659576416016
 20
-9.031265258789063
  0
VERTEX
  8
30
 10
160.8565826416016
 20
-9.546890258789063
  0
SEQEND
  8
30
  0
POLYLINE
  8
30
  6
CONTINUOUS
 66
     1
 70
     0
 40
0.0
 41
0.0
  0
VERTEX
  8
30
 10
160.5284576416016
 20
-7.718765258789063
  0
VERTEX
  8
30
 10
159.9659576416016
 20
-7.250015258789063
  0
VERTEX
  8
30
 10
159.9659576416016
 20
-6.687515258789063
  0
VERTEX
  8
30
 10
160.5284576416016
 20
-6.218765258789063
  0
VERTEX
  8
30
 10
160.9972076416016
 20
-6.218765258789063
  0
VERTEX
  8
30
 10
161.4659576416016
 20
-6.781265258789063
  0
VERTEX
  8
30
 10
161.4659576416016
 20
-7.343765258789063
  0
SEQEND
  8
30
  0
POLYLINE
  8
30
  6
CONTINUOUS
 66
     1
 70
     0
 40
0.0
 41
0.0
  0
VERTEX
  8
30
 10
161.4659576416016
 20
-6.781265258789063
  0
VERTEX
  8
30
 10
162.0284576416016
 20
-6.218765258789063
  0
VERTEX
  8
30
 10
162.4972076416016
 20
-6.218765258789063
  0
VERTEX
  8
30
 10
162.9659576416016
 20
-6.687515258789063
  0
VERTEX
  8
30
 10
162.9659576416016
 20
-7.250015258789063
  0
VERTEX
  8
30
 10
162.4972076416016
 20
-7.718765258789063
  0
SEQEND
  8
30
  0
ENDBLK
  8
30
  0
BLOCK
  8
30
  2
COMP64
 70
    64
 10
0.0
 20
0.0
  0
POLYLINE
  8
30
  6
CONTINUOUS
 66
     1
 70
     0
 40
0.0
 41
0.0
  0
VERTEX
  8
30
 10
162.9659576416016
 20
-1.031257629394531
  0
VERTEX
  8
30
 10
159.9659576416016
 20
-1.031257629394531
  0
VERTEX
  8
30
 10
160.8565826416016
 20
-1.546882629394531
  0
SEQEND
  8
30
  0
POLYLINE
  8
30
  6
CONTINUOUS
 66
     1
 70
     0
 40
0.0
 41
0.0
  0
VERTEX
  8
30
 10
160.5284576416016
 20
0.2812423706054688
  0
VERTEX
  8
30
 10
159.9659576416016
 20
0.7499923706054688
  0
VERTEX
  8
30
 10
159.9659576416016
 20
1.312492370605469
  0
VERTEX
  8
30
 10
160.5284576416016
 20
1.781242370605469
  0
VERTEX
  8
30
 10
161.2784576416016
 20
1.781242370605469
  0
VERTEX
  8
30
 10
162.5909576416016
 20
0.2812423706054688
  0
VERTEX
  8
30
 10
162.9659576416016
 20
0.2812423706054688
  0
VERTEX
  8
30
 10
162.9659576416016
 20
1.781242370605469
  0
SEQEND
  8
30
  0
ENDBLK
  8
30
  0
BLOCK
  8
30
  2
COMP65
 70
    64
 10
0.0
 20
0.0
  0
POLYLINE
  8
30
  6
CONTINUOUS
 66
     1
 70
     0
 40
0.0
 41
0.0
  0
VERTEX
  8
30
 10
162.9659576416016
 20
6.96875
  0
VERTEX
  8
30
 10
159.9659576416016
 20
6.96875
  0
VERTEX
  8
30
 10
160.8565826416016
 20
6.453125
  0
SEQEND
  8
30
  0
POLYLINE
  8
30
  6
CONTINUOUS
 66
     1
 70
     0
 40
0.0
 41
0.0
  0
VERTEX
  8
30
 10
162.9659576416016
 20
9.03125
  0
VERTEX
  8
30
 10
159.9659576416016
 20
9.03125
  0
VERTEX
  8
30
 10
160.8565826416016
 20
8.515625
  0
SEQEND
  8
30
  0
ENDBLK
  8
30
  0
BLOCK
  8
30
  2
COMP66
 70
    64
 10
0.0
 20
0.0
  0
POLYLINE
  8
30
  6
CONTINUOUS
 66
     1
 70
     0
 40
0.0
 41
0.0
  0
VERTEX
  8
30
 10
162.9659576416016
 20
14.96875
  0
VERTEX
  8
30
 10
159.9659576416016
 20
14.96875
  0
VERTEX
  8
30
 10
160.8565826416016
 20
14.453125
  0
SEQEND
  8
30
  0
POLYLINE
  8
30
  6
CONTINUOUS
 66
     1
 70
     0
 40
0.0
 41
0.0
  0
VERTEX
  8
30
 10
160.5284576416016
 20
16.375
  0
VERTEX
  8
30
 10
162.4034576416016
 20
16.375
 42
0.9230769230769231
  0
VERTEX
  8
30
 10
162.4034576416016
 20
17.59375
  0
VERTEX
  8
30
 10
160.5284576416016
 20
17.59375
 42
0.9230769230769231
  0
VERTEX
  8
30
 10
160.5284576416016
 20
16.375
  0
SEQEND
  8
30
  0
ENDBLK
  8
30
  0
BLOCK
  8
30
  2
COMP67
 70
    64
 10
0.0
 20
0.0
  0
POLYLINE
  8
30
  6
CONTINUOUS
 66
     1
 70
     0
 40
0.0
 41
0.0
  0
VERTEX
  8
30
 10
159.9659576416016
 20
24.28125
  0
VERTEX
  8
30
 10
159.9659576416016
 20
23.71875
  0
VERTEX
  8
30
 10
160.4347076416016
 20
23.25
  0
VERTEX
  8
30
 10
161.2784576416016
 20
23.25
  0
VERTEX
  8
30
 10
161.7472076416016
 20
23.71875
  0
VERTEX
  8
30
 10
161.7472076416016
 20
24.28125
  0
VERTEX
  8
30
 10
161.6534576416016
 20
24.5625
  0
VERTEX
  8
30
 10
161.2784576416016
 20
24.75
  0
VERTEX
  8
30
 10
160.4347076416016
 20
24.75
  0
VERTEX
  8
30
 10
159.9659576416016
 20
24.28125
  0
SEQEND
  8
30
  0
POLYLINE
  8
30
  6
CONTINUOUS
 66
     1
 70
     0
 40
0.0
 41
0.0
  0
VERTEX
  8
30
 10
161.6534576416016
 20
24.5625
  0
VERTEX
  8
30
 10
162.4972076416016
 20
24.1875
  0
VERTEX
  8
30
 10
162.9659576416016
 20
23.625
  0
SEQEND
  8
30
  0
ENDBLK
  8
30
  0
ENDSEC
  0
SECTION
  2
ENTITIES
  0
ARC
  8
10
  6
CONTINUOUS
 10
0.8499999999999943
 20
38.65000000000001
 40
0.6
 50
90.0
 51
180.0
  0
ARC
  8
10
  6
CONTINUOUS
 10
0.8499999999999943
 20
40.34999999999999
 40
0.6
 50
180.0
 51
270.0
  0
ARC
  8
10
  6
CONTINUOUS
 10
-0.8499999999999943
 20
40.34999999999999
 40
0.6
 50
270.0
 51
0.0
  0
ARC
  8
10
  6
CONTINUOUS
 10
-0.8499999999999943
 20
38.65000000000001
 40
0.6
 50
0.0
 51
90.0
  0
CIRCLE
  8
10
  6
CONTINUOUS
 10
0.0
 20
39.5
 40
2.75
  0
LINE
  8
10
  6
CONTINUOUS
 10
-0.25
 20
41.13095064303002
 11
-0.25
 21
40.34999999999999
  0
LINE
  8
10
  6
CONTINUOUS
 10
-0.25
 20
38.65000000000001
 11
-0.25
 21
37.86904935696998
  0
LINE
  8
10
  6
CONTINUOUS
 10
0.25
 20
41.13095064303002
 11
0.25
 21
40.34999999999999
  0
LINE
  8
10
  6
CONTINUOUS
 10
0.25
 20
38.65000000000001
 11
0.25
 21
37.86904935696998
  0
LINE
  8
10
  6
CONTINUOUS
 10
-1.630950643030019
 20
39.25
 11
-0.8499999999999943
 21
39.25
  0
LINE
  8
10
  6
CONTINUOUS
 10
0.8499999999999943
 20
39.25
 11
1.630950643030019
 21
39.25
  0
LINE
  8
10
  6
CONTINUOUS
 10
-1.630950643030019
 20
39.75
 11
-0.8499999999999943
 21
39.75
  0
LINE
  8
10
  6
CONTINUOUS
 10
0.8499999999999943
 20
39.75
 11
1.630950643030019
 21
39.75
  0
ARC
  8
10
  6
CONTINUOUS
 10
0.0
 20
39.5
 40
1.65
 50
270.0
 51
278.714742018618
  0
ARC
  8
10
  6
CONTINUOUS
 10
0.0
 20
39.5
 40
1.65
 50
351.2852579813819
 51
8.714742018618072
  0
ARC
  8
10
  6
CONTINUOUS
 10
0.0
 20
39.5
 40
1.65
 50
81.28525798138193
 51
98.71474201861807
  0
ARC
  8
10
  6
CONTINUOUS
 10
0.0
 20
39.5
 40
1.65
 50
171.2852579813819
 51
188.7147420186181
  0
ARC
  8
10
  6
CONTINUOUS
 10
0.0
 20
39.5
 40
1.65
 50
261.285257981382
 51
270.0
  0
LINE
  8
10
  6
CONTINUOUS
 10
68.06596720218658
 20
-22.15079230508252
 11
68.06596720218658
 21
22.15079230508252
  0
LINE
  8
11
  6
CONTINUOUS
 10
197.4659672021866
 20
-22.25
 11
197.4659672021866
 21
-5.0
  0
LINE
  8
11
  6
CONTINUOUS
 10
197.4659672021866
 20
5.0
 11
197.4659672021866
 21
22.25
  0
LINE
  8
11
  6
CONTINUOUS
 10
199.0659672021866
 20
-22.25
 11
199.0659672021866
 21
-5.0
  0
LINE
  8
11
  6
CONTINUOUS
 10
199.0659672021866
 20
5.0
 11
199.0659672021866
 21
22.25
  0
LINE
  8
10
  6
CONTINUOUS
 10
69.56505344271523
 20
47.70314155013628
 11
78.06596720218658
 21
48.0
  0
LINE
  8
10
  6
CONTINUOUS
 10
69.56505344271523
 20
-47.70314155013628
 11
78.06596720218658
 21
-48.0
  0
LINE
  8
10
  6
CONTINUOUS
 10
68.06596720218658
 20
46.15079230508252
 11
69.56505344271523
 21
47.70314155013628
  0
LINE
  8
10
  6
CONTINUOUS
 10
68.06596720218658
 20
-46.15079230508252
 11
69.56505344271523
 21
-47.70314155013628
  0
LINE
  8
10
  6
CONTINUOUS
 10
68.06596720218658
 20
-22.15079230508252
 11
68.06596720218658
 21
-20.5
  0
LINE
  8
10
  6
CONTINUOUS
 10
68.06596720218658
 20
20.5
 11
68.06596720218658
 21
22.15079230508252
  0
LINE
  8
10
  6
CONTINUOUS
 10
78.06596720218658
 20
-24.0
 11
78.06596720218658
 21
-21.0
  0
LINE
  8
10
  6
CONTINUOUS
 10
78.06596720218658
 20
20.99999999999999
 11
78.06596720218658
 21
24.0
  0
LINE
  8
10
  6
CONTINUOUS
 10
69.56505344271523
 20
47.70314155013627
 11
78.06596720218658
 21
47.99999999999999
  0
LINE
  8
10
  6
CONTINUOUS
 10
69.56505344271523
 20
-47.70314155013627
 11
78.06596720218658
 21
-48.0
  0
LINE
  8
10
  6
CONTINUOUS
 10
68.06596720218658
 20
46.15079230508252
 11
69.56505344271523
 21
47.70314155013627
  0
LINE
  8
10
  6
CONTINUOUS
 10
68.06596720218658
 20
-46.15079230508252
 11
69.56505344271523
 21
-47.70314155013627
  0
LINE
  8
10
  6
CONTINUOUS
 10
24.0
 20
44.5
 11
24.0
 21
-36.54655747216366
  0
LINE
  8
10
  6
CONTINUOUS
 10
22.5
 20
44.5
 11
22.5
 21
-36.37485631969864
  0
LINE
  8
10
  6
CONTINUOUS
 10
-24.0
 20
44.5
 11
-24.0
 21
-37.48870200468482
  0
LINE
  8
10
  6
CONTINUOUS
 10
-22.5
 20
44.5
 11
-22.5
 21
-37.03562513065365
  0
LINE
  8
10
  6
CONTINUOUS
 10
-20.5
 20
40.5
 11
-20.5
 21
-36.492451624974
  0
LINE
  8
10
  6
CONTINUOUS
 10
-20.5
 20
48.0
 11
20.5
 21
48.0
  0
ARC
  8
10
  6
CONTINUOUS
 10
-20.5
 20
44.5
 40
3.5
 50
90.0
 51
180.0
  0
LINE
  8
10
  6
CONTINUOUS
 10
-20.5
 20
46.5
 11
20.5
 21
46.5
  0
ARC
  8
10
  6
CONTINUOUS
 10
-20.5
 20
44.5
 40
2.0
 50
90.0
 51
180.0
  0
ARC
  8
10
  6
CONTINUOUS
 10
-18.5
 20
40.5
 40
2.0
 50
90.0
 51
180.0
  0
LINE
  8
10
  6
CONTINUOUS
 10
-18.5
 20
42.5
 11
-3.75
 21
42.5
  0
ARC
  8
10
  6
CONTINUOUS
 10
20.5
 20
44.5
 40
3.5
 50
0.0
 51
90.0
  0
ARC
  8
10
  6
CONTINUOUS
 10
20.5
 20
44.5
 40
2.0
 50
0.0
 51
90.0
  0
ARC
  8
10
  6
CONTINUOUS
 10
18.5
 20
40.5
 40
2.0
 50
0.0
 51
90.0
  0
LINE
  8
10
  6
CONTINUOUS
 10
20.5
 20
40.5
 11
20.5
 21
-36.14825097384575
  0
LINE
  8
10
  6
CONTINUOUS
 10
3.75
 20
42.5
 11
18.5
 21
42.5
  0
LINE
  8
10
  6
CONTINUOUS
 10
3.75
 20
42.5
 11
3.75
 21
39.5
  0
ARC
  8
10
  6
CONTINUOUS
 10
0.0
 20
39.5
 40
3.75
 50
180.0
 51
0.0
  0
LINE
  8
10
  6
CONTINUOUS
 10
-3.75
 20
42.5
 11
-3.75
 21
39.5
  0
CIRCLE
  8
10
  6
CONTINUOUS
 10
266.8947184085846
 20
39.25
 40
2.75
  0
ARC
  8
10
  6
CONTINUOUS
 10
266.8947184085846
 20
39.25
 40
1.75
 50
90.0
 51
98.21321070173811
  0
ARC
  8
10
  6
CONTINUOUS
 10
266.8947184085846
 20
39.25
 40
1.75
 50
171.7867892982617
 51
188.2132107017384
  0
ARC
  8
10
  6
CONTINUOUS
 10
266.8947184085846
 20
39.25
 40
1.75
 50
261.7867892982619
 51
278.2132107017381
  0
ARC
  8
10
  6
CONTINUOUS
 10
266.8947184085846
 20
39.25
 40
1.75
 50
351.7867892982616
 51
8.213210701738365
  0
ARC
  8
10
  6
CONTINUOUS
 10
266.8947184085846
 20
39.25
 40
1.75
 50
81.78678929826191
 51
90.0
  0
LINE
  8
10
  6
CONTINUOUS
 10
266.6447184085846
 20
37.5179491924311
 11
266.6447184085846
 21
38.39999999999998
  0
LINE
  8
10
  6
CONTINUOUS
 10
266.6447184085846
 20
40.10000000000002
 11
266.6447184085846
 21
40.9820508075689
  0
LINE
  8
10
  6
CONTINUOUS
 10
267.1447184085846
 20
37.5179491924311
 11
267.1447184085846
 21
38.39999999999998
  0
LINE
  8
10
  6
CONTINUOUS
 10
267.1447184085846
 20
40.10000000000002
 11
267.1447184085846
 21
40.9820508075689
  0
LINE
  8
10
  6
CONTINUOUS
 10
268.6267692161534
 20
39.5
 11
267.7447184085846
 21
39.5
  0
LINE
  8
10
  6
CONTINUOUS
 10
266.0447184085846
 20
39.5
 11
265.1626676010158
 21
39.5
  0
LINE
  8
10
  6
CONTINUOUS
 10
268.6267692161534
 20
39.0
 11
267.7447184085846
 21
39.0
  0
LINE
  8
10
  6
CONTINUOUS
 10
266.0447184085846
 20
39.0
 11
265.1626676010158
 21
39.0
  0
ARC
  8
10
  6
CONTINUOUS
 10
266.0447184085846
 20
40.10000000000002
 40
0.6
 50
270.0
 51
0.0
  0
ARC
  8
10
  6
CONTINUOUS
 10
266.0447184085846
 20
38.39999999999998
 40
0.6
 50
0.0
 51
90.0
  0
ARC
  8
10
  6
CONTINUOUS
 10
267.7447184085846
 20
38.39999999999998
 40
0.6
 50
90.0
 51
180.0
  0
ARC
  8
10
  6
CONTINUOUS
 10
267.7447184085846
 20
40.10000000000002
 40
0.6
 50
180.0
 51
270.0
  0
CIRCLE
  8
10
  6
CONTINUOUS
 10
266.8947184085846
 20
-39.25
 40
2.75
  0
ARC
  8
10
  6
CONTINUOUS
 10
266.8947184085846
 20
-39.25
 40
1.75
 50
90.0
 51
98.21321070173811
  0
ARC
  8
10
  6
CONTINUOUS
 10
266.8947184085846
 20
-39.25
 40
1.75
 50
171.7867892982617
 51
188.2132107017384
  0
ARC
  8
10
  6
CONTINUOUS
 10
266.8947184085846
 20
-39.25
 40
1.75
 50
261.7867892982619
 51
278.2132107017381
  0
ARC
  8
10
  6
CONTINUOUS
 10
266.8947184085846
 20
-39.25
 40
1.75
 50
351.7867892982616
 51
8.213210701738365
  0
ARC
  8
10
  6
CONTINUOUS
 10
266.8947184085846
 20
-39.25
 40
1.75
 50
81.78678929826191
 51
90.0
  0
LINE
  8
10
  6
CONTINUOUS
 10
266.6447184085846
 20
-40.9820508075689
 11
266.6447184085846
 21
-40.10000000000002
  0
LINE
  8
10
  6
CONTINUOUS
 10
266.6447184085846
 20
-38.39999999999998
 11
266.6447184085846
 21
-37.5179491924311
  0
LINE
  8
10
  6
CONTINUOUS
 10
267.1447184085846
 20
-40.9820508075689
 11
267.1447184085846
 21
-40.10000000000002
  0
LINE
  8
10
  6
CONTINUOUS
 10
267.1447184085846
 20
-38.39999999999998
 11
267.1447184085846
 21
-37.5179491924311
  0
LINE
  8
10
  6
CONTINUOUS
 10
268.6267692161534
 20
-39.0
 11
267.7447184085846
 21
-39.0
  0
LINE
  8
10
  6
CONTINUOUS
 10
266.0447184085846
 20
-39.0
 11
265.1626676010158
 21
-39.0
  0
LINE
  8
10
  6
CONTINUOUS
 10
268.6267692161534
 20
-39.5
 11
267.7447184085846
 21
-39.5
  0
LINE
  8
10
  6
CONTINUOUS
 10
266.0447184085846
 20
-39.5
 11
265.1626676010158
 21
-39.5
  0
ARC
  8
10
  6
CONTINUOUS
 10
266.0447184085846
 20
-38.39999999999998
 40
0.6
 50
270.0
 51
0.0
  0
ARC
  8
10
  6
CONTINUOUS
 10
266.0447184085846
 20
-40.10000000000002
 40
0.6
 50
0.0
 51
90.0
  0
ARC
  8
10
  6
CONTINUOUS
 10
267.7447184085846
 20
-40.10000000000002
 40
0.6
 50
90.0
 51
180.0
  0
ARC
  8
10
  6
CONTINUOUS
 10
267.7447184085846
 20
-38.39999999999998
 40
0.6
 50
180.0
 51
270.0
  0
CIRCLE
  8
10
  6
CONTINUOUS
 10
297.8947184085846
 20
-39.25
 40
2.75
  0
ARC
  8
10
  6
CONTINUOUS
 10
297.8947184085846
 20
-39.25
 40
1.75
 50
90.0
 51
98.21321070173811
  0
ARC
  8
10
  6
CONTINUOUS
 10
297.8947184085846
 20
-39.25
 40
1.75
 50
171.7867892982617
 51
188.2132107017384
  0
ARC
  8
10
  6
CONTINUOUS
 10
297.8947184085846
 20
-39.25
 40
1.75
 50
261.7867892982619
 51
278.2132107017381
  0
ARC
  8
10
  6
CONTINUOUS
 10
297.8947184085846
 20
-39.25
 40
1.75
 50
351.7867892982616
 51
8.213210701738365
  0
ARC
  8
10
  6
CONTINUOUS
 10
297.8947184085846
 20
-39.25
 40
1.75
 50
81.78678929826191
 51
90.0
  0
LINE
  8
10
  6
CONTINUOUS
 10
297.6447184085846
 20
-40.9820508075689
 11
297.6447184085846
 21
-40.10000000000002
  0
LINE
  8
10
  6
CONTINUOUS
 10
297.6447184085846
 20
-38.39999999999998
 11
297.6447184085846
 21
-37.5179491924311
  0
LINE
  8
10
  6
CONTINUOUS
 10
298.1447184085846
 20
-40.9820508075689
 11
298.1447184085846
 21
-40.10000000000002
  0
LINE
  8
10
  6
CONTINUOUS
 10
298.1447184085846
 20
-38.39999999999998
 11
298.1447184085846
 21
-37.5179491924311
  0
LINE
  8
10
  6
CONTINUOUS
 10
299.6267692161534
 20
-39.0
 11
298.7447184085846
 21
-39.0
  0
LINE
  8
10
  6
CONTINUOUS
 10
297.0447184085846
 20
-39.0
 11
296.1626676010158
 21
-39.0
  0
LINE
  8
10
  6
CONTINUOUS
 10
299.6267692161534
 20
-39.5
 11
298.7447184085846
 21
-39.5
  0
LINE
  8
10
  6
CONTINUOUS
 10
297.0447184085846
 20
-39.5
 11
296.1626676010158
 21
-39.5
  0
ARC
  8
10
  6
CONTINUOUS
 10
297.0447184085846
 20
-38.39999999999998
 40
0.6
 50
270.0
 51
0.0
  0
ARC
  8
10
  6
CONTINUOUS
 10
297.0447184085846
 20
-40.10000000000002
 40
0.6
 50
0.0
 51
90.0
  0
ARC
  8
10
  6
CONTINUOUS
 10
298.7447184085846
 20
-40.10000000000002
 40
0.6
 50
90.0
 51
180.0
  0
ARC
  8
10
  6
CONTINUOUS
 10
298.7447184085846
 20
-38.39999999999998
 40
0.6
 50
180.0
 51
270.0
  0
CIRCLE
  8
10
  6
CONTINUOUS
 10
297.8947184085846
 20
39.25
 40
2.75
  0
ARC
  8
10
  6
CONTINUOUS
 10
297.8947184085846
 20
39.25
 40
1.75
 50
90.0
 51
98.21321070173811
  0
ARC
  8
10
  6
CONTINUOUS
 10
297.8947184085846
 20
39.25
 40
1.75
 50
171.7867892982617
 51
188.2132107017384
  0
ARC
  8
10
  6
CONTINUOUS
 10
297.8947184085846
 20
39.25
 40
1.75
 50
261.7867892982619
 51
278.2132107017381
  0
ARC
  8
10
  6
CONTINUOUS
 10
297.8947184085846
 20
39.25
 40
1.75
 50
351.7867892982616
 51
8.213210701738365
  0
ARC
  8
10
  6
CONTINUOUS
 10
297.8947184085846
 20
39.25
 40
1.75
 50
81.78678929826191
 51
90.0
  0
LINE
  8
10
  6
CONTINUOUS
 10
297.6447184085846
 20
37.5179491924311
 11
297.6447184085846
 21
38.39999999999998
  0
LINE
  8
10
  6
CONTINUOUS
 10
297.6447184085846
 20
40.10000000000002
 11
297.6447184085846
 21
40.9820508075689
  0
LINE
  8
10
  6
CONTINUOUS
 10
298.1447184085846
 20
37.5179491924311
 11
298.1447184085846
 21
38.39999999999998
  0
LINE
  8
10
  6
CONTINUOUS
 10
298.1447184085846
 20
40.10000000000002
 11
298.1447184085846
 21
40.9820508075689
  0
LINE
  8
10
  6
CONTINUOUS
 10
299.6267692161534
 20
39.5
 11
298.7447184085846
 21
39.5
  0
LINE
  8
10
  6
CONTINUOUS
 10
297.0447184085846
 20
39.5
 11
296.1626676010158
 21
39.5
  0
LINE
  8
10
  6
CONTINUOUS
 10
299.6267692161534
 20
39.0
 11
298.7447184085846
 21
39.0
  0
LINE
  8
10
  6
CONTINUOUS
 10
297.0447184085846
 20
39.0
 11
296.1626676010158
 21
39.0
  0
ARC
  8
10
  6
CONTINUOUS
 10
297.0447184085846
 20
40.10000000000002
 40
0.6
 50
270.0
 51
0.0
  0
ARC
  8
10
  6
CONTINUOUS
 10
297.0447184085846
 20
38.39999999999998
 40
0.6
 50
0.0
 51
90.0
  0
ARC
  8
10
  6
CONTINUOUS
 10
298.7447184085846
 20
38.39999999999998
 40
0.6
 50
90.0
 51
180.0
  0
ARC
  8
10
  6
CONTINUOUS
 10
298.7447184085846
 20
40.10000000000002
 40
0.6
 50
180.0
 51
270.0
  0
LINE
  8
11
  6
CONTINUOUS
 10
260.1447184085846
 20
-45.60000000000002
 11
260.1447184085846
 21
45.60000000000002
  0
LINE
  8
11
  6
CONTINUOUS
 10
304.6447184085846
 20
-45.60000000000002
 11
304.6447184085846
 21
45.60000000000002
  0
LINE
  8
11
  6
CONTINUOUS
 10
304.6447184085846
 20
-45.60000000000002
 11
288.3947184085846
 21
-45.60000000000002
  0
LINE
  8
11
  6
CONTINUOUS
 10
276.3947184085846
 20
-45.60000000000002
 11
260.1447184085846
 21
-45.60000000000002
  0
LINE
  8
11
  6
CONTINUOUS
 10
304.6447184085846
 20
45.60000000000002
 11
288.3947184085846
 21
45.60000000000002
  0
LINE
  8
11
  6
CONTINUOUS
 10
276.3947184085846
 20
45.60000000000002
 11
260.1447184085846
 21
45.60000000000002
  0
LINE
  8
11
  6
CONTINUOUS
 10
276.3947184085846
 20
-45.60000000000002
 11
276.3947184085846
 21
-43.60000000000002
  0
LINE
  8
11
  6
CONTINUOUS
 10
276.3947184085846
 20
43.60000000000002
 11
276.3947184085846
 21
45.60000000000002
  0
LINE
  8
11
  6
CONTINUOUS
 10
288.3947184085846
 20
-45.60000000000002
 11
288.3947184085846
 21
-43.60000000000002
  0
LINE
  8
11
  6
CONTINUOUS
 10
288.3947184085846
 20
43.60000000000002
 11
288.3947184085846
 21
45.60000000000002
  0
LINE
  8
11
  6
CONTINUOUS
 10
288.3947184085846
 20
43.60000000000002
 11
287.3947184085846
 21
43.60000000000002
  0
LINE
  8
11
  6
CONTINUOUS
 10
277.3947184085846
 20
43.60000000000002
 11
276.3947184085846
 21
43.60000000000002
  0
LINE
  8
11
  6
CONTINUOUS
 10
288.3947184085846
 20
-43.60000000000002
 11
287.3947184085846
 21
-43.60000000000002
  0
LINE
  8
11
  6
CONTINUOUS
 10
277.3947184085846
 20
-43.60000000000002
 11
276.3947184085846
 21
-43.60000000000002
  0
CIRCLE
  8
10
  6
CONTINUOUS
 10
282.3947184085846
 20
39.5
 40
2.75
  0
ARC
  8
10
  6
CONTINUOUS
 10
282.3947184085846
 20
39.5
 40
1.75
 50
90.0
 51
98.21321070173811
  0
ARC
  8
10
  6
CONTINUOUS
 10
282.3947184085846
 20
39.5
 40
1.75
 50
171.7867892982617
 51
188.2132107017384
  0
ARC
  8
10
  6
CONTINUOUS
 10
282.3947184085846
 20
39.5
 40
1.75
 50
261.7867892982619
 51
278.2132107017381
  0
ARC
  8
10
  6
CONTINUOUS
 10
282.3947184085846
 20
39.5
 40
1.75
 50
351.7867892982616
 51
8.213210701738365
  0
ARC
  8
10
  6
CONTINUOUS
 10
282.3947184085846
 20
39.5
 40
1.75
 50
81.78678929826191
 51
90.0
  0
LINE
  8
10
  6
CONTINUOUS
 10
282.1447184085846
 20
37.7679491924311
 11
282.1447184085846
 21
38.64999999999998
  0
LINE
  8
10
  6
CONTINUOUS
 10
282.1447184085846
 20
40.35000000000002
 11
282.1447184085846
 21
41.2320508075689
  0
LINE
  8
10
  6
CONTINUOUS
 10
282.6447184085846
 20
37.7679491924311
 11
282.6447184085846
 21
38.64999999999998
  0
LINE
  8
10
  6
CONTINUOUS
 10
282.6447184085846
 20
40.35000000000002
 11
282.6447184085846
 21
41.2320508075689
  0
LINE
  8
10
  6
CONTINUOUS
 10
284.1267692161534
 20
39.75
 11
283.2447184085846
 21
39.75
  0
LINE
  8
10
  6
CONTINUOUS
 10
281.5447184085846
 20
39.75
 11
280.6626676010158
 21
39.75
  0
LINE
  8
10
  6
CONTINUOUS
 10
284.1267692161534
 20
39.25
 11
283.2447184085846
 21
39.25
  0
LINE
  8
10
  6
CONTINUOUS
 10
281.5447184085846
 20
39.25
 11
280.6626676010158
 21
39.25
  0
ARC
  8
10
  6
CONTINUOUS
 10
281.5447184085846
 20
40.35000000000002
 40
0.6
 50
270.0
 51
0.0
  0
ARC
  8
10
  6
CONTINUOUS
 10
281.5447184085846
 20
38.64999999999998
 40
0.6
 50
0.0
 51
90.0
  0
ARC
  8
10
  6
CONTINUOUS
 10
283.2447184085846
 20
38.64999999999998
 40
0.6
 50
90.0
 51
180.0
  0
ARC
  8
10
  6
CONTINUOUS
 10
283.2447184085846
 20
40.35000000000002
 40
0.6
 50
180.0
 51
270.0
  0
CIRCLE
  8
10
  6
CONTINUOUS
 10
282.3947184085846
 20
-39.5
 40
2.75
  0
ARC
  8
10
  6
CONTINUOUS
 10
282.3947184085846
 20
-39.5
 40
1.75
 50
90.0
 51
98.21321070173811
  0
ARC
  8
10
  6
CONTINUOUS
 10
282.3947184085846
 20
-39.5
 40
1.75
 50
171.7867892982617
 51
188.2132107017384
  0
ARC
  8
10
  6
CONTINUOUS
 10
282.3947184085846
 20
-39.5
 40
1.75
 50
261.7867892982619
 51
278.2132107017381
  0
ARC
  8
10
  6
CONTINUOUS
 10
282.3947184085846
 20
-39.5
 40
1.75
 50
351.7867892982616
 51
8.213210701738365
  0
ARC
  8
10
  6
CONTINUOUS
 10
282.3947184085846
 20
-39.5
 40
1.75
 50
81.78678929826191
 51
90.0
  0
LINE
  8
10
  6
CONTINUOUS
 10
282.1447184085846
 20
-41.2320508075689
 11
282.1447184085846
 21
-40.35000000000002
  0
LINE
  8
10
  6
CONTINUOUS
 10
282.1447184085846
 20
-38.64999999999998
 11
282.1447184085846
 21
-37.7679491924311
  0
LINE
  8
10
  6
CONTINUOUS
 10
282.6447184085846
 20
-41.2320508075689
 11
282.6447184085846
 21
-40.35000000000002
  0
LINE
  8
10
  6
CONTINUOUS
 10
282.6447184085846
 20
-38.64999999999998
 11
282.6447184085846
 21
-37.7679491924311
  0
LINE
  8
10
  6
CONTINUOUS
 10
284.1267692161534
 20
-39.25
 11
283.2447184085846
 21
-39.25
  0
LINE
  8
10
  6
CONTINUOUS
 10
281.5447184085846
 20
-39.25
 11
280.6626676010158
 21
-39.25
  0
LINE
  8
10
  6
CONTINUOUS
 10
284.1267692161534
 20
-39.75
 11
283.2447184085846
 21
-39.75
  0
LINE
  8
10
  6
CONTINUOUS
 10
281.5447184085846
 20
-39.75
 11
280.6626676010158
 21
-39.75
  0
ARC
  8
10
  6
CONTINUOUS
 10
281.5447184085846
 20
-38.64999999999998
 40
0.6
 50
270.0
 51
0.0
  0
ARC
  8
10
  6
CONTINUOUS
 10
281.5447184085846
 20
-40.35000000000002
 40
0.6
 50
0.0
 51
90.0
  0
ARC
  8
10
  6
CONTINUOUS
 10
283.2447184085846
 20
-40.35000000000002
 40
0.6
 50
90.0
 51
180.0
  0
ARC
  8
10
  6
CONTINUOUS
 10
283.2447184085846
 20
-38.64999999999998
 40
0.6
 50
180.0
 51
270.0
  0
LINE
  8
11
  6
CONTINUOUS
 10
287.3947184085846
 20
45.20000000000005
 11
277.3947184085846
 21
45.20000000000005
  0
LINE
  8
11
  6
CONTINUOUS
 10
287.3947184085846
 20
-45.20000000000005
 11
277.3947184085846
 21
-45.20000000000005
  0
LINE
  8
11
  6
CONTINUOUS
 10
287.3947184085846
 20
-47.70000000000005
 11
277.3947184085846
 21
-47.70000000000005
  0
LINE
  8
11
  6
CONTINUOUS
 10
287.3947184085846
 20
36.20000000000005
 11
277.3947184085846
 21
36.20000000000005
  0
LINE
  8
11
  6
CONTINUOUS
 10
287.3947184085846
 20
-36.20000000000005
 11
277.3947184085846
 21
-36.20000000000005
  0
LINE
  8
11
  6
CONTINUOUS
 10
287.3947184085846
 20
-47.70000000000005
 11
287.3947184085846
 21
-36.20000000000005
  0
LINE
  8
11
  6
CONTINUOUS
 10
287.3947184085846
 20
36.20000000000005
 11
287.3947184085846
 21
47.70000000000005
  0
LINE
  8
11
  6
CONTINUOUS
 10
277.3947184085846
 20
-47.70000000000005
 11
277.3947184085846
 21
-36.20000000000005
  0
LINE
  8
11
  6
CONTINUOUS
 10
277.3947184085846
 20
36.20000000000005
 11
277.3947184085846
 21
47.70000000000005
  0
LINE
  8
11
  6
CONTINUOUS
 10
287.3947184085846
 20
47.70000000000005
 11
277.3947184085846
 21
47.70000000000005
  0
LINE
  8
11
  6
CONTINUOUS
 10
297.6447184085846
 20
-34.0
 11
297.6447184085846
 21
34.0
  0
LINE
  8
11
  6
CONTINUOUS
 10
297.6447184085846
 20
34.0
 11
277.6447184085846
 21
34.0
  0
LINE
  8
11
  6
CONTINUOUS
 10
277.6447184085846
 20
-34.0
 11
277.6447184085846
 21
-33.48000000000002
  0
LINE
  8
11
  6
CONTINUOUS
 10
277.6447184085846
 20
-27.48000000000002
 11
277.6447184085846
 21
27.47999999999999
  0
LINE
  8
11
  6
CONTINUOUS
 10
277.6447184085846
 20
33.47999999999999
 11
277.6447184085846
 21
34.0
  0
LINE
  8
11
  6
CONTINUOUS
 10
297.6447184085846
 20
-34.0
 11
277.6447184085846
 21
-34.0
  0
ARC
  8
10
  6
CONTINUOUS
 10
0.8499999999999943
 20
38.65000000000001
 40
0.6
 50
90.0
 51
180.0
  0
ARC
  8
10
  6
CONTINUOUS
 10
0.8499999999999943
 20
40.34999999999999
 40
0.6
 50
180.0
 51
270.0
  0
ARC
  8
10
  6
CONTINUOUS
 10
-0.8499999999999943
 20
40.34999999999999
 40
0.6
 50
270.0
 51
0.0
  0
ARC
  8
10
  6
CONTINUOUS
 10
-0.8499999999999943
 20
38.65000000000001
 40
0.6
 50
0.0
 51
90.0
  0
CIRCLE
  8
10
  6
CONTINUOUS
 10
0.0
 20
39.5
 40
2.75
  0
LINE
  8
10
  6
CONTINUOUS
 10
-0.25
 20
41.13095064303002
 11
-0.25
 21
40.34999999999999
  0
LINE
  8
10
  6
CONTINUOUS
 10
-0.25
 20
38.65000000000001
 11
-0.25
 21
37.86904935696998
  0
LINE
  8
10
  6
CONTINUOUS
 10
0.25
 20
41.13095064303002
 11
0.25
 21
40.34999999999999
  0
LINE
  8
10
  6
CONTINUOUS
 10
0.25
 20
38.65000000000001
 11
0.25
 21
37.86904935696998
  0
LINE
  8
10
  6
CONTINUOUS
 10
-1.630950643030019
 20
39.25
 11
-0.8499999999999943
 21
39.25
  0
LINE
  8
10
  6
CONTINUOUS
 10
0.8499999999999943
 20
39.25
 11
1.630950643030019
 21
39.25
  0
LINE
  8
10
  6
CONTINUOUS
 10
-1.630950643030019
 20
39.75
 11
-0.8499999999999943
 21
39.75
  0
LINE
  8
10
  6
CONTINUOUS
 10
0.8499999999999943
 20
39.75
 11
1.630950643030019
 21
39.75
  0
ARC
  8
10
  6
CONTINUOUS
 10
0.0
 20
39.5
 40
1.65
 50
270.0
 51
278.714742018618
  0
ARC
  8
10
  6
CONTINUOUS
 10
0.0
 20
39.5
 40
1.65
 50
351.2852579813819
 51
8.714742018618072
  0
ARC
  8
10
  6
CONTINUOUS
 10
0.0
 20
39.5
 40
1.65
 50
81.28525798138193
 51
98.71474201861807
  0
ARC
  8
10
  6
CONTINUOUS
 10
0.0
 20
39.5
 40
1.65
 50
171.2852579813819
 51
188.7147420186181
  0
ARC
  8
10
  6
CONTINUOUS
 10
0.0
 20
39.5
 40
1.65
 50
261.285257981382
 51
270.0
  0
LINE
  8
10
  6
CONTINUOUS
 10
68.06596720218658
 20
1.849207694917482
 11
68.06596720218658
 21
46.15079230508252
  0
LINE
  8
11
  6
CONTINUOUS
 10
197.4659672021866
 20
-45.60000000000002
 11
197.4659672021866
 21
45.60000000000002
  0
LINE
  8
11
  6
CONTINUOUS
 10
199.0659672021866
 20
-45.60000000000002
 11
199.0659672021866
 21
45.60000000000002
  0
LINE
  8
10
  6
CONTINUOUS
 10
69.56505344271523
 20
47.70314155013628
 11
78.06596720218658
 21
48.0
  0
LINE
  8
10
  6
CONTINUOUS
 10
69.56505344271523
 20
-47.70314155013628
 11
78.06596720218658
 21
-48.0
  0
LINE
  8
10
  6
CONTINUOUS
 10
68.06596720218658
 20
46.15079230508252
 11
69.56505344271523
 21
47.70314155013628
  0
LINE
  8
10
  6
CONTINUOUS
 10
68.06596720218658
 20
-46.15079230508252
 11
69.56505344271523
 21
-47.70314155013628
  0
LINE
  8
10
  6
CONTINUOUS
 10
200.6659672021866
 20
42.25
 11
200.6659672021866
 21
36.75
  0
LINE
  8
10
  6
CONTINUOUS
 10
201.5132160850648
 20
36.82412467243685
 11
200.6659672021866
 21
36.75
  0
LINE
  8
10
  6
CONTINUOUS
 10
201.5132160850648
 20
42.17587532756315
 11
200.6659672021866
 21
42.25
  0
ARC
  8
10
  6
CONTINUOUS
 10
195.6659672021866
 20
39.5
 40
7.0
 50
343.7429721033965
 51
16.25702789660353
  0
ARC
  8
10
  6
CONTINUOUS
 10
201.4260603423171
 20
37.82031937052858
 40
1.0
 50
275.0000000000015
 51
343.7429721033977
  0
ARC
  8
10
  6
CONTINUOUS
 10
201.4260603423171
 20
41.17968062947142
 40
1.0
 50
16.2570278966027
 51
85.00000000000011
  0
LINE
  8
10
  6
CONTINUOUS
 10
68.06596720218658
 20
-46.15079230508252
 11
68.06596720218658
 21
-20.5
  0
LINE
  8
10
  6
CONTINUOUS
 10
68.06596720218658
 20
20.5
 11
68.06596720218658
 21
22.15079230508252
  0
LINE
  8
10
  6
CONTINUOUS
 10
78.06596720218658
 20
-48.0
 11
78.06596720218658
 21
48.0
  0
LINE
  8
10
  6
CONTINUOUS
 10
69.56505344271523
 20
47.70314155013627
 11
78.06596720218658
 21
47.99999999999999
  0
LINE
  8
10
  6
CONTINUOUS
 10
69.56505344271523
 20
-47.70314155013627
 11
78.06596720218658
 21
-48.0
  0
LINE
  8
10
  6
CONTINUOUS
 10
68.06596720218658
 20
46.15079230508252
 11
69.56505344271523
 21
47.70314155013627
  0
LINE
  8
10
  6
CONTINUOUS
 10
68.06596720218658
 20
-46.15079230508252
 11
69.56505344271523
 21
-47.70314155013627
  0
LINE
  8
10
  6
CONTINUOUS
 10
24.0
 20
44.5
 11
24.0
 21
-44.5
  0
LINE
  8
10
  6
CONTINUOUS
 10
22.5
 20
44.5
 11
22.5
 21
-44.5
  0
LINE
  8
10
  6
CONTINUOUS
 10
-24.0
 20
44.5
 11
-24.0
 21
-44.5
  0
LINE
  8
10
  6
CONTINUOUS
 10
-22.5
 20
44.5
 11
-22.5
 21
-44.5
  0
LINE
  8
10
  6
CONTINUOUS
 10
-20.5
 20
40.5
 11
-20.5
 21
-40.5
  0
LINE
  8
10
  6
CONTINUOUS
 10
-20.5
 20
48.0
 11
20.5
 21
48.0
  0
ARC
  8
10
  6
CONTINUOUS
 10
-20.5
 20
44.5
 40
3.5
 50
90.0
 51
180.0
  0
LINE
  8
10
  6
CONTINUOUS
 10
-20.5
 20
46.5
 11
20.5
 21
46.5
  0
ARC
  8
10
  6
CONTINUOUS
 10
-20.5
 20
44.5
 40
2.0
 50
90.0
 51
180.0
  0
ARC
  8
10
  6
CONTINUOUS
 10
-18.5
 20
40.5
 40
2.0
 50
90.0
 51
180.0
  0
LINE
  8
10
  6
CONTINUOUS
 10
-18.5
 20
42.5
 11
-3.75
 21
42.5
  0
ARC
  8
10
  6
CONTINUOUS
 10
20.5
 20
44.5
 40
3.5
 50
0.0
 51
90.0
  0
ARC
  8
10
  6
CONTINUOUS
 10
20.5
 20
44.5
 40
2.0
 50
0.0
 51
90.0
  0
ARC
  8
10
  6
CONTINUOUS
 10
18.5
 20
40.5
 40
2.0
 50
0.0
 51
90.0
  0
LINE
  8
10
  6
CONTINUOUS
 10
20.5
 20
40.5
 11
20.5
 21
-40.5
  0
LINE
  8
10
  6
CONTINUOUS
 10
3.75
 20
42.5
 11
18.5
 21
42.5
  0
LINE
  8
10
  6
CONTINUOUS
 10
3.75
 20
42.5
 11
3.75
 21
39.5
  0
ARC
  8
10
  6
CONTINUOUS
 10
0.0
 20
39.5
 40
3.75
 50
180.0
 51
0.0
  0
LINE
  8
10
  6
CONTINUOUS
 10
-3.75
 20
42.5
 11
-3.75
 21
39.5
  0
CIRCLE
  8
10
  6
CONTINUOUS
 10
266.8947184085846
 20
39.25
 40
2.75
  0
ARC
  8
10
  6
CONTINUOUS
 10
266.8947184085846
 20
39.25
 40
1.75
 50
90.0
 51
98.21321070173811
  0
ARC
  8
10
  6
CONTINUOUS
 10
266.8947184085846
 20
39.25
 40
1.75
 50
171.7867892982617
 51
188.2132107017384
  0
ARC
  8
10
  6
CONTINUOUS
 10
266.8947184085846
 20
39.25
 40
1.75
 50
261.7867892982619
 51
278.2132107017381
  0
ARC
  8
10
  6
CONTINUOUS
 10
266.8947184085846
 20
39.25
 40
1.75
 50
351.7867892982616
 51
8.213210701738365
  0
ARC
  8
10
  6
CONTINUOUS
 10
266.8947184085846
 20
39.25
 40
1.75
 50
81.78678929826191
 51
90.0
  0
LINE
  8
10
  6
CONTINUOUS
 10
266.6447184085846
 20
37.5179491924311
 11
266.6447184085846
 21
38.39999999999998
  0
LINE
  8
10
  6
CONTINUOUS
 10
266.6447184085846
 20
40.10000000000002
 11
266.6447184085846
 21
40.9820508075689
  0
LINE
  8
10
  6
CONTINUOUS
 10
267.1447184085846
 20
37.5179491924311
 11
267.1447184085846
 21
38.39999999999998
  0
LINE
  8
10
  6
CONTINUOUS
 10
267.1447184085846
 20
40.10000000000002
 11
267.1447184085846
 21
40.9820508075689
  0
LINE
  8
10
  6
CONTINUOUS
 10
268.6267692161534
 20
39.5
 11
267.7447184085846
 21
39.5
  0
LINE
  8
10
  6
CONTINUOUS
 10
266.0447184085846
 20
39.5
 11
265.1626676010158
 21
39.5
  0
LINE
  8
10
  6
CONTINUOUS
 10
268.6267692161534
 20
39.0
 11
267.7447184085846
 21
39.0
  0
LINE
  8
10
  6
CONTINUOUS
 10
266.0447184085846
 20
39.0
 11
265.1626676010158
 21
39.0
  0
ARC
  8
10
  6
CONTINUOUS
 10
266.0447184085846
 20
40.10000000000002
 40
0.6
 50
270.0
 51
0.0
  0
ARC
  8
10
  6
CONTINUOUS
 10
266.0447184085846
 20
38.39999999999998
 40
0.6
 50
0.0
 51
90.0
  0
ARC
  8
10
  6
CONTINUOUS
 10
267.7447184085846
 20
38.39999999999998
 40
0.6
 50
90.0
 51
180.0
  0
ARC
  8
10
  6
CONTINUOUS
 10
267.7447184085846
 20
40.10000000000002
 40
0.6
 50
180.0
 51
270.0
  0
CIRCLE
  8
10
  6
CONTINUOUS
 10
266.8947184085846
 20
-39.25
 40
2.75
  0
ARC
  8
10
  6
CONTINUOUS
 10
266.8947184085846
 20
-39.25
 40
1.75
 50
90.0
 51
98.21321070173811
  0
ARC
  8
10
  6
CONTINUOUS
 10
266.8947184085846
 20
-39.25
 40
1.75
 50
171.7867892982617
 51
188.2132107017384
  0
ARC
  8
10
  6
CONTINUOUS
 10
266.8947184085846
 20
-39.25
 40
1.75
 50
261.7867892982619
 51
278.2132107017381
  0
ARC
  8
10
  6
CONTINUOUS
 10
266.8947184085846
 20
-39.25
 40
1.75
 50
351.7867892982616
 51
8.213210701738365
  0
ARC
  8
10
  6
CONTINUOUS
 10
266.8947184085846
 20
-39.25
 40
1.75
 50
81.78678929826191
 51
90.0
  0
LINE
  8
10
  6
CONTINUOUS
 10
266.6447184085846
 20
-40.9820508075689
 11
266.6447184085846
 21
-40.10000000000002
  0
LINE
  8
10
  6
CONTINUOUS
 10
266.6447184085846
 20
-38.39999999999998
 11
266.6447184085846
 21
-37.5179491924311
  0
LINE
  8
10
  6
CONTINUOUS
 10
267.1447184085846
 20
-40.9820508075689
 11
267.1447184085846
 21
-40.10000000000002
  0
LINE
  8
10
  6
CONTINUOUS
 10
267.1447184085846
 20
-38.39999999999998
 11
267.1447184085846
 21
-37.5179491924311
  0
LINE
  8
10
  6
CONTINUOUS
 10
268.6267692161534
 20
-39.0
 11
267.7447184085846
 21
-39.0
  0
LINE
  8
10
  6
CONTINUOUS
 10
266.0447184085846
 20
-39.0
 11
265.1626676010158
 21
-39.0
  0
LINE
  8
10
  6
CONTINUOUS
 10
268.6267692161534
 20
-39.5
 11
267.7447184085846
 21
-39.5
  0
LINE
  8
10
  6
CONTINUOUS
 10
266.0447184085846
 20
-39.5
 11
265.1626676010158
 21
-39.5
  0
ARC
  8
10
  6
CONTINUOUS
 10
266.0447184085846
 20
-38.39999999999998
 40
0.6
 50
270.0
 51
0.0
  0
ARC
  8
10
  6
CONTINUOUS
 10
266.0447184085846
 20
-40.10000000000002
 40
0.6
 50
0.0
 51
90.0
  0
ARC
  8
10
  6
CONTINUOUS
 10
267.7447184085846
 20
-40.10000000000002
 40
0.6
 50
90.0
 51
180.0
  0
ARC
  8
10
  6
CONTINUOUS
 10
267.7447184085846
 20
-38.39999999999998
 40
0.6
 50
180.0
 51
270.0
  0
CIRCLE
  8
10
  6
CONTINUOUS
 10
297.8947184085846
 20
-39.25
 40
2.75
  0
ARC
  8
10
  6
CONTINUOUS
 10
297.8947184085846
 20
-39.25
 40
1.75
 50
90.0
 51
98.21321070173811
  0
ARC
  8
10
  6
CONTINUOUS
 10
297.8947184085846
 20
-39.25
 40
1.75
 50
171.7867892982617
 51
188.2132107017384
  0
ARC
  8
10
  6
CONTINUOUS
 10
297.8947184085846
 20
-39.25
 40
1.75
 50
261.7867892982619
 51
278.2132107017381
  0
ARC
  8
10
  6
CONTINUOUS
 10
297.8947184085846
 20
-39.25
 40
1.75
 50
351.7867892982616
 51
8.213210701738365
  0
ARC
  8
10
  6
CONTINUOUS
 10
297.8947184085846
 20
-39.25
 40
1.75
 50
81.78678929826191
 51
90.0
  0
LINE
  8
10
  6
CONTINUOUS
 10
297.6447184085846
 20
-40.9820508075689
 11
297.6447184085846
 21
-40.10000000000002
  0
LINE
  8
10
  6
CONTINUOUS
 10
297.6447184085846
 20
-38.39999999999998
 11
297.6447184085846
 21
-37.5179491924311
  0
LINE
  8
10
  6
CONTINUOUS
 10
298.1447184085846
 20
-40.9820508075689
 11
298.1447184085846
 21
-40.10000000000002
  0
LINE
  8
10
  6
CONTINUOUS
 10
298.1447184085846
 20
-38.39999999999998
 11
298.1447184085846
 21
-37.5179491924311
  0
LINE
  8
10
  6
CONTINUOUS
 10
299.6267692161534
 20
-39.0
 11
298.7447184085846
 21
-39.0
  0
LINE
  8
10
  6
CONTINUOUS
 10
297.0447184085846
 20
-39.0
 11
296.1626676010158
 21
-39.0
  0
LINE
  8
10
  6
CONTINUOUS
 10
299.6267692161534
 20
-39.5
 11
298.7447184085846
 21
-39.5
  0
LINE
  8
10
  6
CONTINUOUS
 10
297.0447184085846
 20
-39.5
 11
296.1626676010158
 21
-39.5
  0
ARC
  8
10
  6
CONTINUOUS
 10
297.0447184085846
 20
-38.39999999999998
 40
0.6
 50
270.0
 51
0.0
  0
ARC
  8
10
  6
CONTINUOUS
 10
297.0447184085846
 20
-40.10000000000002
 40
0.6
 50
0.0
 51
90.0
  0
ARC
  8
10
  6
CONTINUOUS
 10
298.7447184085846
 20
-40.10000000000002
 40
0.6
 50
90.0
 51
180.0
  0
ARC
  8
10
  6
CONTINUOUS
 10
298.7447184085846
 20
-38.39999999999998
 40
0.6
 50
180.0
 51
270.0
  0
CIRCLE
  8
10
  6
CONTINUOUS
 10
297.8947184085846
 20
39.25
 40
2.75
  0
ARC
  8
10
  6
CONTINUOUS
 10
297.8947184085846
 20
39.25
 40
1.75
 50
90.0
 51
98.21321070173811
  0
ARC
  8
10
  6
CONTINUOUS
 10
297.8947184085846
 20
39.25
 40
1.75
 50
171.7867892982617
 51
188.2132107017384
  0
ARC
  8
10
  6
CONTINUOUS
 10
297.8947184085846
 20
39.25
 40
1.75
 50
261.7867892982619
 51
278.2132107017381
  0
ARC
  8
10
  6
CONTINUOUS
 10
297.8947184085846
 20
39.25
 40
1.75
 50
351.7867892982616
 51
8.213210701738365
  0
ARC
  8
10
  6
CONTINUOUS
 10
297.8947184085846
 20
39.25
 40
1.75
 50
81.78678929826191
 51
90.0
  0
LINE
  8
10
  6
CONTINUOUS
 10
297.6447184085846
 20
37.5179491924311
 11
297.6447184085846
 21
38.39999999999998
  0
LINE
  8
10
  6
CONTINUOUS
 10
297.6447184085846
 20
40.10000000000002
 11
297.6447184085846
 21
40.9820508075689
  0
LINE
  8
10
  6
CONTINUOUS
 10
298.1447184085846
 20
37.5179491924311
 11
298.1447184085846
 21
38.39999999999998
  0
LINE
  8
10
  6
CONTINUOUS
 10
298.1447184085846
 20
40.10000000000002
 11
298.1447184085846
 21
40.9820508075689
  0
LINE
  8
10
  6
CONTINUOUS
 10
299.6267692161534
 20
39.5
 11
298.7447184085846
 21
39.5
  0
LINE
  8
10
  6
CONTINUOUS
 10
297.0447184085846
 20
39.5
 11
296.1626676010158
 21
39.5
  0
LINE
  8
10
  6
CONTINUOUS
 10
299.6267692161534
 20
39.0
 11
298.7447184085846
 21
39.0
  0
LINE
  8
10
  6
CONTINUOUS
 10
297.0447184085846
 20
39.0
 11
296.1626676010158
 21
39.0
  0
ARC
  8
10
  6
CONTINUOUS
 10
297.0447184085846
 20
40.10000000000002
 40
0.6
 50
270.0
 51
0.0
  0
ARC
  8
10
  6
CONTINUOUS
 10
297.0447184085846
 20
38.39999999999998
 40
0.6
 50
0.0
 51
90.0
  0
ARC
  8
10
  6
CONTINUOUS
 10
298.7447184085846
 20
38.39999999999998
 40
0.6
 50
90.0
 51
180.0
  0
ARC
  8
10
  6
CONTINUOUS
 10
298.7447184085846
 20
40.10000000000002
 40
0.6
 50
180.0
 51
270.0
  0
LINE
  8
11
  6
CONTINUOUS
 10
260.1447184085846
 20
-45.60000000000002
 11
260.1447184085846
 21
45.60000000000002
  0
LINE
  8
11
  6
CONTINUOUS
 10
304.6447184085846
 20
-45.60000000000002
 11
304.6447184085846
 21
45.60000000000002
  0
LINE
  8
11
  6
CONTINUOUS
 10
304.6447184085846
 20
-45.60000000000002
 11
288.3947184085846
 21
-45.60000000000002
  0
LINE
  8
11
  6
CONTINUOUS
 10
276.3947184085846
 20
-45.60000000000002
 11
260.1447184085846
 21
-45.60000000000002
  0
LINE
  8
11
  6
CONTINUOUS
 10
304.6447184085846
 20
45.60000000000002
 11
288.3947184085846
 21
45.60000000000002
  0
LINE
  8
11
  6
CONTINUOUS
 10
276.3947184085846
 20
45.60000000000002
 11
260.1447184085846
 21
45.60000000000002
  0
LINE
  8
11
  6
CONTINUOUS
 10
276.3947184085846
 20
-45.60000000000002
 11
276.3947184085846
 21
-43.60000000000002
  0
LINE
  8
11
  6
CONTINUOUS
 10
276.3947184085846
 20
43.60000000000002
 11
276.3947184085846
 21
45.60000000000002
  0
LINE
  8
11
  6
CONTINUOUS
 10
288.3947184085846
 20
-45.60000000000002
 11
288.3947184085846
 21
-43.60000000000002
  0
LINE
  8
11
  6
CONTINUOUS
 10
288.3947184085846
 20
43.60000000000002
 11
288.3947184085846
 21
45.60000000000002
  0
LINE
  8
11
  6
CONTINUOUS
 10
288.3947184085846
 20
43.60000000000002
 11
287.3947184085846
 21
43.60000000000002
  0
LINE
  8
11
  6
CONTINUOUS
 10
277.3947184085846
 20
43.60000000000002
 11
276.3947184085846
 21
43.60000000000002
  0
LINE
  8
11
  6
CONTINUOUS
 10
288.3947184085846
 20
-43.60000000000002
 11
287.3947184085846
 21
-43.60000000000002
  0
LINE
  8
11
  6
CONTINUOUS
 10
277.3947184085846
 20
-43.60000000000002
 11
276.3947184085846
 21
-43.60000000000002
  0
CIRCLE
  8
10
  6
CONTINUOUS
 10
282.3947184085846
 20
39.5
 40
2.75
  0
ARC
  8
10
  6
CONTINUOUS
 10
282.3947184085846
 20
39.5
 40
1.75
 50
90.0
 51
98.21321070173811
  0
ARC
  8
10
  6
CONTINUOUS
 10
282.3947184085846
 20
39.5
 40
1.75
 50
171.7867892982617
 51
188.2132107017384
  0
ARC
  8
10
  6
CONTINUOUS
 10
282.3947184085846
 20
39.5
 40
1.75
 50
261.7867892982619
 51
278.2132107017381
  0
ARC
  8
10
  6
CONTINUOUS
 10
282.3947184085846
 20
39.5
 40
1.75
 50
351.7867892982616
 51
8.213210701738365
  0
ARC
  8
10
  6
CONTINUOUS
 10
282.3947184085846
 20
39.5
 40
1.75
 50
81.78678929826191
 51
90.0
  0
LINE
  8
10
  6
CONTINUOUS
 10
282.1447184085846
 20
37.7679491924311
 11
282.1447184085846
 21
38.64999999999998
  0
LINE
  8
10
  6
CONTINUOUS
 10
282.1447184085846
 20
40.35000000000002
 11
282.1447184085846
 21
41.2320508075689
  0
LINE
  8
10
  6
CONTINUOUS
 10
282.6447184085846
 20
37.7679491924311
 11
282.6447184085846
 21
38.64999999999998
  0
LINE
  8
10
  6
CONTINUOUS
 10
282.6447184085846
 20
40.35000000000002
 11
282.6447184085846
 21
41.2320508075689
  0
LINE
  8
10
  6
CONTINUOUS
 10
284.1267692161534
 20
39.75
 11
283.2447184085846
 21
39.75
  0
LINE
  8
10
  6
CONTINUOUS
 10
281.5447184085846
 20
39.75
 11
280.6626676010158
 21
39.75
  0
LINE
  8
10
  6
CONTINUOUS
 10
284.1267692161534
 20
39.25
 11
283.2447184085846
 21
39.25
  0
LINE
  8
10
  6
CONTINUOUS
 10
281.5447184085846
 20
39.25
 11
280.6626676010158
 21
39.25
  0
ARC
  8
10
  6
CONTINUOUS
 10
281.5447184085846
 20
40.35000000000002
 40
0.6
 50
270.0
 51
0.0
  0
ARC
  8
10
  6
CONTINUOUS
 10
281.5447184085846
 20
38.64999999999998
 40
0.6
 50
0.0
 51
90.0
  0
ARC
  8
10
  6
CONTINUOUS
 10
283.2447184085846
 20
38.64999999999998
 40
0.6
 50
90.0
 51
180.0
  0
ARC
  8
10
  6
CONTINUOUS
 10
283.2447184085846
 20
40.35000000000002
 40
0.6
 50
180.0
 51
270.0
  0
CIRCLE
  8
10
  6
CONTINUOUS
 10
282.3947184085846
 20
-39.5
 40
2.75
  0
ARC
  8
10
  6
CONTINUOUS
 10
282.3947184085846
 20
-39.5
 40
1.75
 50
90.0
 51
98.21321070173811
  0
ARC
  8
10
  6
CONTINUOUS
 10
282.3947184085846
 20
-39.5
 40
1.75
 50
171.7867892982617
 51
188.2132107017384
  0
ARC
  8
10
  6
CONTINUOUS
 10
282.3947184085846
 20
-39.5
 40
1.75
 50
261.7867892982619
 51
278.2132107017381
  0
ARC
  8
10
  6
CONTINUOUS
 10
282.3947184085846
 20
-39.5
 40
1.75
 50
351.7867892982616
 51
8.213210701738365
  0
ARC
  8
10
  6
CONTINUOUS
 10
282.3947184085846
 20
-39.5
 40
1.75
 50
81.78678929826191
 51
90.0
  0
LINE
  8
10
  6
CONTINUOUS
 10
282.1447184085846
 20
-41.2320508075689
 11
282.1447184085846
 21
-40.35000000000002
  0
LINE
  8
10
  6
CONTINUOUS
 10
282.1447184085846
 20
-38.64999999999998
 11
282.1447184085846
 21
-37.7679491924311
  0
LINE
  8
10
  6
CONTINUOUS
 10
282.6447184085846
 20
-41.2320508075689
 11
282.6447184085846
 21
-40.35000000000002
  0
LINE
  8
10
  6
CONTINUOUS
 10
282.6447184085846
 20
-38.64999999999998
 11
282.6447184085846
 21
-37.7679491924311
  0
LINE
  8
10
  6
CONTINUOUS
 10
284.1267692161534
 20
-39.25
 11
283.2447184085846
 21
-39.25
  0
LINE
  8
10
  6
CONTINUOUS
 10
281.5447184085846
 20
-39.25
 11
280.6626676010158
 21
-39.25
  0
LINE
  8
10
  6
CONTINUOUS
 10
284.1267692161534
 20
-39.75
 11
283.2447184085846
 21
-39.75
  0
LINE
  8
10
  6
CONTINUOUS
 10
281.5447184085846
 20
-39.75
 11
280.6626676010158
 21
-39.75
  0
ARC
  8
10
  6
CONTINUOUS
 10
281.5447184085846
 20
-38.64999999999998
 40
0.6
 50
270.0
 51
0.0
  0
ARC
  8
10
  6
CONTINUOUS
 10
281.5447184085846
 20
-40.35000000000002
 40
0.6
 50
0.0
 51
90.0
  0
ARC
  8
10
  6
CONTINUOUS
 10
283.2447184085846
 20
-40.35000000000002
 40
0.6
 50
90.0
 51
180.0
  0
ARC
  8
10
  6
CONTINUOUS
 10
283.2447184085846
 20
-38.64999999999998
 40
0.6
 50
180.0
 51
270.0
  0
LINE
  8
11
  6
CONTINUOUS
 10
287.3947184085846
 20
45.20000000000005
 11
277.3947184085846
 21
45.20000000000005
  0
LINE
  8
11
  6
CONTINUOUS
 10
287.3947184085846
 20
-45.20000000000005
 11
277.3947184085846
 21
-45.20000000000005
  0
LINE
  8
11
  6
CONTINUOUS
 10
287.3947184085846
 20
-47.70000000000005
 11
277.3947184085846
 21
-47.70000000000005
  0
LINE
  8
11
  6
CONTINUOUS
 10
287.3947184085846
 20
36.20000000000005
 11
277.3947184085846
 21
36.20000000000005
  0
LINE
  8
11
  6
CONTINUOUS
 10
287.3947184085846
 20
-36.20000000000005
 11
277.3947184085846
 21
-36.20000000000005
  0
LINE
  8
11
  6
CONTINUOUS
 10
287.3947184085846
 20
-47.70000000000005
 11
287.3947184085846
 21
-36.20000000000005
  0
LINE
  8
11
  6
CONTINUOUS
 10
287.3947184085846
 20
36.20000000000005
 11
287.3947184085846
 21
47.70000000000005
  0
LINE
  8
11
  6
CONTINUOUS
 10
277.3947184085846
 20
-47.70000000000005
 11
277.3947184085846
 21
-36.20000000000005
  0
LINE
  8
11
  6
CONTINUOUS
 10
277.3947184085846
 20
36.20000000000005
 11
277.3947184085846
 21
47.70000000000005
  0
LINE
  8
11
  6
CONTINUOUS
 10
287.3947184085846
 20
47.70000000000005
 11
277.3947184085846
 21
47.70000000000005
  0
LINE
  8
11
  6
CONTINUOUS
 10
297.6447184085846
 20
-34.0
 11
297.6447184085846
 21
34.0
  0
LINE
  8
11
  6
CONTINUOUS
 10
297.6447184085846
 20
34.0
 11
277.6447184085846
 21
34.0
  0
LINE
  8
11
  6
CONTINUOUS
 10
277.6447184085846
 20
-34.0
 11
277.6447184085846
 21
-33.48000000000002
  0
LINE
  8
11
  6
CONTINUOUS
 10
277.6447184085846
 20
-27.48000000000002
 11
277.6447184085846
 21
27.47999999999999
  0
LINE
  8
11
  6
CONTINUOUS
 10
277.6447184085846
 20
33.47999999999999
 11
277.6447184085846
 21
34.0
  0
LINE
  8
11
  6
CONTINUOUS
 10
297.6447184085846
 20
-34.0
 11
277.6447184085846
 21
-34.0
  0
LINE
  8
10
  6
CONTINUOUS
 10
-20.5
 20
-48.0
 11
20.5
 21
-48.0
  0
LINE
  8
10
  6
CONTINUOUS
 10
-20.5
 20
-46.5
 11
20.5
 21
-46.5
  0
ARC
  8
10
  6
CONTINUOUS
 10
20.5
 20
-44.5
 40
3.5
 50
270.0
 51
0.0
  0
ARC
  8
10
  6
CONTINUOUS
 10
20.5
 20
-44.5
 40
2.0
 50
270.0
 51
0.0
  0
LINE
  8
10
  6
CONTINUOUS
 10
-20.5
 20
-48.0
 11
20.5
 21
-48.0
  0
LINE
  8
10
  6
CONTINUOUS
 10
-20.5
 20
-46.5
 11
20.5
 21
-46.5
  0
ARC
  8
10
  6
CONTINUOUS
 10
20.5
 20
-44.5
 40
3.5
 50
270.0
 51
0.0
  0
ARC
  8
10
  6
CONTINUOUS
 10
20.5
 20
-44.5
 40
2.0
 50
270.0
 51
0.0
  0
ARC
  8
10
  6
CONTINUOUS
 10
18.5
 20
-40.5
 40
2.0
 50
270.0
 51
0.0
  0
LINE
  8
10
  6
CONTINUOUS
 10
3.75
 20
-42.5
 11
18.5
 21
-42.5
  0
ARC
  8
10
  6
CONTINUOUS
 10
18.5
 20
-40.5
 40
2.0
 50
270.0
 51
0.0
  0
LINE
  8
10
  6
CONTINUOUS
 10
3.75
 20
-42.5
 11
18.5
 21
-42.5
  0
ARC
  8
10
  6
CONTINUOUS
 10
0.8499999999999943
 20
-38.65000000000001
 40
0.6
 50
180.0
 51
270.0
  0
ARC
  8
10
  6
CONTINUOUS
 10
0.8499999999999943
 20
-40.34999999999999
 40
0.6
 50
90.0
 51
180.0
  0
ARC
  8
10
  6
CONTINUOUS
 10
-0.8499999999999943
 20
-40.34999999999999
 40
0.6
 50
0.0
 51
90.0
  0
ARC
  8
10
  6
CONTINUOUS
 10
-0.8499999999999943
 20
-38.65000000000001
 40
0.6
 50
270.0
 51
0.0
  0
CIRCLE
  8
10
  6
CONTINUOUS
 10
0.0
 20
-39.5
 40
2.75
  0
LINE
  8
10
  6
CONTINUOUS
 10
-0.25
 20
-41.13095064303002
 11
-0.25
 21
-40.34999999999999
  0
LINE
  8
10
  6
CONTINUOUS
 10
-0.25
 20
-38.65000000000001
 11
-0.25
 21
-37.86904935696998
  0
LINE
  8
10
  6
CONTINUOUS
 10
0.25
 20
-41.13095064303002
 11
0.25
 21
-40.34999999999999
  0
LINE
  8
10
  6
CONTINUOUS
 10
0.25
 20
-38.65000000000001
 11
0.25
 21
-37.86904935696998
  0
LINE
  8
10
  6
CONTINUOUS
 10
-1.630950643030019
 20
-39.25
 11
-0.8499999999999943
 21
-39.25
  0
LINE
  8
10
  6
CONTINUOUS
 10
0.8499999999999943
 20
-39.25
 11
1.630950643030019
 21
-39.25
  0
LINE
  8
10
  6
CONTINUOUS
 10
-1.630950643030019
 20
-39.75
 11
-0.8499999999999943
 21
-39.75
  0
LINE
  8
10
  6
CONTINUOUS
 10
0.8499999999999943
 20
-39.75
 11
1.630950643030019
 21
-39.75
  0
ARC
  8
10
  6
CONTINUOUS
 10
0.0
 20
-39.5
 40
1.65
 50
81.28525798138193
 51
90.0
  0
ARC
  8
10
  6
CONTINUOUS
 10
0.0
 20
-39.5
 40
1.65
 50
351.2852579813819
 51
8.714742018618072
  0
ARC
  8
10
  6
CONTINUOUS
 10
0.0
 20
-39.5
 40
1.65
 50
261.285257981382
 51
278.714742018618
  0
ARC
  8
10
  6
CONTINUOUS
 10
0.0
 20
-39.5
 40
1.65
 50
171.2852579813819
 51
188.7147420186181
  0
ARC
  8
10
  6
CONTINUOUS
 10
0.0
 20
-39.5
 40
1.65
 50
90.0
 51
98.71474201861807
  0
LINE
  8
10
  6
CONTINUOUS
 10
3.75
 20
-42.5
 11
3.75
 21
-39.5
  0
ARC
  8
10
  6
CONTINUOUS
 10
0.0
 20
-39.5
 40
3.75
 50
0.0
 51
180.0
  0
ARC
  8
10
  6
CONTINUOUS
 10
0.8499999999999943
 20
-38.65000000000001
 40
0.6
 50
180.0
 51
270.0
  0
ARC
  8
10
  6
CONTINUOUS
 10
0.8499999999999943
 20
-40.34999999999999
 40
0.6
 50
90.0
 51
180.0
  0
ARC
  8
10
  6
CONTINUOUS
 10
-0.8499999999999943
 20
-40.34999999999999
 40
0.6
 50
0.0
 51
90.0
  0
ARC
  8
10
  6
CONTINUOUS
 10
-0.8499999999999943
 20
-38.65000000000001
 40
0.6
 50
270.0
 51
0.0
  0
CIRCLE
  8
10
  6
CONTINUOUS
 10
0.0
 20
-39.5
 40
2.75
  0
LINE
  8
10
  6
CONTINUOUS
 10
-0.25
 20
-41.13095064303002
 11
-0.25
 21
-40.34999999999999
  0
LINE
  8
10
  6
CONTINUOUS
 10
-0.25
 20
-38.65000000000001
 11
-0.25
 21
-37.86904935696998
  0
LINE
  8
10
  6
CONTINUOUS
 10
0.25
 20
-41.13095064303002
 11
0.25
 21
-40.34999999999999
  0
LINE
  8
10
  6
CONTINUOUS
 10
0.25
 20
-38.65000000000001
 11
0.25
 21
-37.86904935696998
  0
LINE
  8
10
  6
CONTINUOUS
 10
-1.630950643030019
 20
-39.25
 11
-0.8499999999999943
 21
-39.25
  0
LINE
  8
10
  6
CONTINUOUS
 10
0.8499999999999943
 20
-39.25
 11
1.630950643030019
 21
-39.25
  0
LINE
  8
10
  6
CONTINUOUS
 10
-1.630950643030019
 20
-39.75
 11
-0.8499999999999943
 21
-39.75
  0
LINE
  8
10
  6
CONTINUOUS
 10
0.8499999999999943
 20
-39.75
 11
1.630950643030019
 21
-39.75
  0
ARC
  8
10
  6
CONTINUOUS
 10
0.0
 20
-39.5
 40
1.65
 50
81.28525798138193
 51
90.0
  0
ARC
  8
10
  6
CONTINUOUS
 10
0.0
 20
-39.5
 40
1.65
 50
351.2852579813819
 51
8.714742018618072
  0
ARC
  8
10
  6
CONTINUOUS
 10
0.0
 20
-39.5
 40
1.65
 50
261.285257981382
 51
278.714742018618
  0
ARC
  8
10
  6
CONTINUOUS
 10
0.0
 20
-39.5
 40
1.65
 50
171.2852579813819
 51
188.7147420186181
  0
ARC
  8
10
  6
CONTINUOUS
 10
0.0
 20
-39.5
 40
1.65
 50
90.0
 51
98.71474201861807
  0
LINE
  8
10
  6
CONTINUOUS
 10
3.75
 20
-42.5
 11
3.75
 21
-39.5
  0
ARC
  8
10
  6
CONTINUOUS
 10
0.0
 20
-39.5
 40
3.75
 50
0.0
 51
180.0
  0
LINE
  8
10
  6
CONTINUOUS
 10
-3.75
 20
-42.5
 11
-3.75
 21
-39.5
  0
LINE
  8
10
  6
CONTINUOUS
 10
-3.75
 20
-42.5
 11
-3.75
 21
-39.5
  0
ARC
  8
10
  6
CONTINUOUS
 10
-18.5
 20
-40.5
 40
2.0
 50
180.0
 51
270.0
  0
LINE
  8
10
  6
CONTINUOUS
 10
-18.5
 20
-42.5
 11
-3.75
 21
-42.5
  0
ARC
  8
10
  6
CONTINUOUS
 10
-20.5
 20
-44.5
 40
2.0
 50
180.0
 51
270.0
  0
ARC
  8
10
  6
CONTINUOUS
 10
-20.5
 20
-44.5
 40
3.5
 50
180.0
 51
270.0
  0
LINE
  8
4
  6
CONTINUOUS
 10
-6.049789428710938
 20
-34.59999847412109
 11
-6.049789428710938
 21
-32.90000152587891
  0
LINE
  8
4
  6
CONTINUOUS
 10
-2.549792051315308
 20
-34.59999847412109
 11
-2.549792051315308
 21
-32.90000152587891
  0
LINE
  8
4
  6
CONTINUOUS
 10
-5.349791526794434
 20
-34.59999847412109
 11
-5.349791526794434
 21
-32.89958953857422
  0
LINE
  8
4
  6
CONTINUOUS
 10
-3.249790906906128
 20
-34.08489990234375
 11
-3.249790906906128
 21
-32.90000152587891
  0
LINE
  8
4
  6
CONTINUOUS
 10
-3.499790906906128
 20
-32.5
 11
-2.299792051315308
 21
-32.5
  0
LINE
  8
4
  6
CONTINUOUS
 10
-6.299789428710938
 20
-32.90000152587891
 11
-6.049789428710938
 21
-32.90000152587891
  0
LINE
  8
4
  6
CONTINUOUS
 10
-6.299789428710938
 20
-32.5
 11
-5.207680702209473
 21
-32.5
  0
LINE
  8
4
  6
CONTINUOUS
 10
-5.207680702209473
 20
-32.5
 11
-3.249790906906128
 21
-34.08489990234375
  0
LINE
  8
4
  6
CONTINUOUS
 10
-5.349791526794434
 20
-32.89958953857422
 11
-3.249212980270386
 21
-34.59999847412109
  0
LINE
  8
4
  6
CONTINUOUS
 10
-3.499790906906128
 20
-32.90000152587891
 11
-3.499790906906128
 21
-32.5
  0
LINE
  8
4
  6
CONTINUOUS
 10
-2.299792051315308
 20
-32.90000152587891
 11
-2.299792051315308
 21
-32.5
  0
LINE
  8
4
  6
CONTINUOUS
 10
-6.299789428710938
 20
-32.90000152587891
 11
-6.299789428710938
 21
-32.5
  0
LINE
  8
4
  6
CONTINUOUS
 10
-2.099791288375855
 20
-32.90000152587891
 11
-2.099791288375855
 21
-32.5
  0
LINE
  8
4
  6
CONTINUOUS
 10
-1.849790334701538
 20
-34.59999847412109
 11
-1.849790334701538
 21
-32.90000152587891
  0
LINE
  8
4
  6
CONTINUOUS
 10
-1.149790525436401
 20
-34.59999847412109
 11
-1.149790525436401
 21
-32.89997100830078
  0
LINE
  8
4
  6
CONTINUOUS
 10
-1.849790334701538
 20
-32.90000152587891
 11
-2.099791288375855
 21
-32.90000152587891
  0
LINE
  8
4
  6
CONTINUOUS
 10
-0.9127914905548096
 20
-32.5
 11
0.0002086162567138672
 21
-34.16693878173828
  0
LINE
  8
4
  6
CONTINUOUS
 10
-1.149790525436401
 20
-32.89997100830078
 11
0.0002086162567138672
 21
-34.99961853027344
  0
LINE
  8
4
  6
CONTINUOUS
 10
-2.099791288375855
 20
-32.5
 11
-0.9127914905548096
 21
-32.5
  0
LINE
  8
4
  6
CONTINUOUS
 10
2.300207853317261
 20
-32.5
 11
5.375208854675293
 21
-32.5
  0
ARC
  8
4
  6
CONTINUOUS
 10
5.375208854675293
 20
-33.22499847412109
 40
0.7250000238418579
 50
313.602735808577
 51
90.0
  0
ARC
  8
4
  6
CONTINUOUS
 10
5.375208854675293
 20
-34.27500152587891
 40
0.7250000238418579
 50
270.0
 51
46.39726419142302
  0
ARC
  8
4
  6
CONTINUOUS
 10
5.075210094451904
 20
-33.22499847412109
 40
0.324999988079071
 50
270.0
 51
90.0
  0
ARC
  8
4
  6
CONTINUOUS
 10
5.075210094451904
 20
-34.27500152587891
 40
0.324999988079071
 50
270.0
 51
90.03513902183461
  0
LINE
  8
4
  6
CONTINUOUS
 10
-3.499790906906128
 20
-32.90000152587891
 11
-3.249790906906128
 21
-32.90000152587891
  0
LINE
  8
4
  6
CONTINUOUS
 10
-2.549792051315308
 20
-32.90000152587891
 11
-2.299792051315308
 21
-32.90000152587891
  0
POLYLINE
  8
4
  6
CONTINUOUS
 66
     1
 70
     0
 40
0.0
 41
0.0
  0
VERTEX
  8
4
 10
-6.299789428710938
 20
-34.59999847412109
  0
VERTEX
  8
4
 10
-6.299789428710938
 20
-35.0
  0
VERTEX
  8
4
 10
-5.099791526794434
 20
-35.0
  0
VERTEX
  8
4
 10
-5.099791526794434
 20
-34.59999847412109
  0
VERTEX
  8
4
 10
-5.349791526794434
 20
-34.59999847412109
  0
VERTEX
  8
4
 10
-5.349791526794434
 20
-32.89958953857422
  0
VERTEX
  8
4
 10
-3.249212980270386
 20
-34.59999847412109
  0
VERTEX
  8
4
 10
-3.499790906906128
 20
-34.59999847412109
  0
VERTEX
  8
4
 10
-3.499790906906128
 20
-35.0
  0
VERTEX
  8
4
 10
-2.299792051315308
 20
-35.0
  0
VERTEX
  8
4
 10
-2.299792051315308
 20
-34.59999847412109
  0
VERTEX
  8
4
 10
-2.549792051315308
 20
-34.59999847412109
  0
VERTEX
  8
4
 10
-2.549792051315308
 20
-32.90000152587891
  0
VERTEX
  8
4
 10
-2.299792051315308
 20
-32.90000152587891
  0
VERTEX
  8
4
 10
-2.299792051315308
 20
-32.5
  0
VERTEX
  8
4
 10
-3.499790906906128
 20
-32.5
  0
VERTEX
  8
4
 10
-3.499790906906128
 20
-32.90000152587891
  0
VERTEX
  8
4
 10
-3.249790906906128
 20
-32.90000152587891
  0
VERTEX
  8
4
 10
-3.249790906906128
 20
-34.08489990234375
  0
VERTEX
  8
4
 10
-5.207680702209473
 20
-32.5
  0
VERTEX
  8
4
 10
-6.299789428710938
 20
-32.5
  0
VERTEX
  8
4
 10
-6.299789428710938
 20
-32.90000152587891
  0
VERTEX
  8
4
 10
-6.049789428710938
 20
-32.90000152587891
  0
VERTEX
  8
4
 10
-6.049789428710938
 20
-34.59999847412109
  0
VERTEX
  8
4
 10
-6.299789428710938
 20
-34.59999847412109
  0
SEQEND
  8
4
  0
POLYLINE
  8
4
  6
CONTINUOUS
 66
     1
 70
     0
 40
0.0
 41
0.0
  0
VERTEX
  8
4
 10
1.150208711624146
 20
-34.59999847412109
  0
VERTEX
  8
4
 10
1.150208711624146
 20
-32.89997100830078
  0
VERTEX
  8
4
 10
0.0002086162567138672
 20
-34.99961853027344
  0
VERTEX
  8
4
 10
-1.149790525436401
 20
-32.89997100830078
  0
VERTEX
  8
4
 10
-1.149790525436401
 20
-34.59999847412109
  0
VERTEX
  8
4
 10
-0.8997910022735596
 20
-34.59999847412109
  0
VERTEX
  8
4
 10
-0.8997910022735596
 20
-35.0
  0
VERTEX
  8
4
 10
-2.099791288375855
 20
-35.0
  0
VERTEX
  8
4
 10
-2.099791288375855
 20
-34.59999847412109
  0
VERTEX
  8
4
 10
-1.849790334701538
 20
-34.59999847412109
  0
VERTEX
  8
4
 10
-1.849790334701538
 20
-32.90000152587891
  0
VERTEX
  8
4
 10
-2.099791288375855
 20
-32.90000152587891
  0
VERTEX
  8
4
 10
-2.099791288375855
 20
-32.5
  0
VERTEX
  8
4
 10
-0.9127914905548096
 20
-32.5
  0
VERTEX
  8
4
 10
0.0002086162567138672
 20
-34.16693878173828
  0
VERTEX
  8
4
 10
0.9132087230682373
 20
-32.5
  0
VERTEX
  8
4
 10
2.10020899772644
 20
-32.5
  0
VERTEX
  8
4
 10
2.10020899772644
 20
-32.90000152587891
  0
VERTEX
  8
4
 10
1.85020899772644
 20
-32.90000152587891
  0
VERTEX
  8
4
 10
1.85020899772644
 20
-34.59999847412109
  0
VERTEX
  8
4
 10
2.10020899772644
 20
-34.59999847412109
  0
VERTEX
  8
4
 10
2.10020899772644
 20
-35.0
  0
VERTEX
  8
4
 10
0.9002082347869873
 20
-35.0
  0
VERTEX
  8
4
 10
0.9002082347869873
 20
-34.59999847412109
  0
VERTEX
  8
4
 10
1.150208711624146
 20
-34.59999847412109
  0
SEQEND
  8
4
  0
POLYLINE
  8
4
  6
CONTINUOUS
 66
     1
 70
     0
 40
0.0
 41
0.0
  0
VERTEX
  8
4
 10
2.300208172149
 20
-34.60000038147
  0
VERTEX
  8
4
 10
2.300208172149
 20
-35.0
  0
VERTEX
  8
4
 10
5.375208935088
 20
-34.99999934229
 42
0.6770324987668293
  0
VERTEX
  8
4
 10
5.875209410792
 20
-33.75000045304999
 42
0.6770327975365407
  0
VERTEX
  8
4
 10
5.375208935088
 20
-32.5
  0
VERTEX
  8
4
 10
2.300208172149
 20
-32.5
  0
VERTEX
  8
4
 10
2.300208172149
 20
-32.89999961853
  0
VERTEX
  8
4
 10
2.550208172149
 20
-32.89999961853
  0
VERTEX
  8
4
 10
2.550208172149
 20
-34.60000038147
  0
VERTEX
  8
4
 10
2.300208172149
 20
-34.60000038147
  0
SEQEND
  8
4
  0
POLYLINE
  8
4
  6
CONTINUOUS
 66
     1
 70
     0
 40
0.0
 41
0.0
  0
VERTEX
  8
4
 10
5.075209698028
 20
-33.54999923705999
  0
VERTEX
  8
4
 10
3.250208935088
 20
-33.54999923705999
  0
VERTEX
  8
4
 10
3.250208935088
 20
-32.89999961853
  0
VERTEX
  8
4
 10
5.07501133428
 20
-32.90000045392999
 42
-0.4142144213148997
  0
VERTEX
  8
4
 10
5.400209626148332
 20
-33.22480297081999
 42
-0.4142144213152295
  0
VERTEX
  8
4
 10
5.075406155585
 20
-33.55000031017053
  0
VERTEX
  8
4
 10
5.075209698028
 20
-33.54999923705999
  0
SEQEND
  8
4
  0
POLYLINE
  8
4
  6
CONTINUOUS
 66
     1
 70
     0
 40
0.0
 41
0.0
  0
VERTEX
  8
4
 10
3.250209093093872
 20
-34.59999847412109
  0
VERTEX
  8
4
 10
5.075210094451904
 20
-34.59999847412109
 42
0.4143235783321294
  0
VERTEX
  8
4
 10
5.40020701976915
 20
-34.27487945593322
 42
0.414324479148756
  0
VERTEX
  8
4
 10
5.074966906838538
 20
-33.95000369202293
  0
VERTEX
  8
4
 10
3.250209093093872
 20
-33.95000457763672
  0
VERTEX
  8
4
 10
3.250209093093872
 20
-34.59999847412109
  0
SEQEND
  8
4
  0
LINE
  8
11
  6
CONTINUOUS
 10
78.06596720218658
 20
45.60000000000002
 11
199.0659672021866
 21
45.60000000000002
  0
LINE
  8
11
  6
CONTINUOUS
 10
78.06596720218658
 20
-45.60000000000002
 11
199.0659672021866
 21
-45.60000000000002
  0
LINE
  8
11
  6
CONTINUOUS
 10
200.6659672021866
 20
-45.20000000000005
 11
200.6659672021866
 21
-36.20000000000005
  0
LINE
  8
11
  6
CONTINUOUS
 10
200.6659672021866
 20
36.20000000000005
 11
200.6659672021866
 21
45.20000000000005
  0
LINE
  8
11
  6
CONTINUOUS
 10
199.0659672021866
 20
36.20000000000005
 11
200.6659672021866
 21
36.20000000000005
  0
LINE
  8
11
  6
CONTINUOUS
 10
199.0659672021866
 20
-36.20000000000005
 11
200.6659672021866
 21
-36.20000000000005
  0
LINE
  8
12
  6
CONTINUOUS
 10
199.0659672021866
 20
33.54000000000002
 11
215.4659672021866
 21
33.54000000000002
  0
LINE
  8
12
  6
CONTINUOUS
 10
199.0659672021866
 20
-33.53999999999996
 11
215.4659672021866
 21
-33.53999999999996
  0
LINE
  8
10
  6
CONTINUOUS
 10
200.6659672021866
 20
-36.75
 11
200.6659672021866
 21
-42.25
  0
LINE
  8
10
  6
CONTINUOUS
 10
201.5132160850648
 20
-42.17587532756315
 11
200.6659672021866
 21
-42.25
  0
LINE
  8
10
  6
CONTINUOUS
 10
201.5132160850648
 20
-36.82412467243685
 11
200.6659672021866
 21
-36.75
  0
ARC
  8
10
  6
CONTINUOUS
 10
195.6659672021866
 20
-39.5
 40
7.0
 50
343.7429721033965
 51
16.25702789660353
  0
ARC
  8
10
  6
CONTINUOUS
 10
201.4260603423171
 20
-41.17968062947142
 40
1.0
 50
275.0000000000015
 51
343.7429721033977
  0
ARC
  8
10
  6
CONTINUOUS
 10
201.4260603423171
 20
-37.82031937052858
 40
1.0
 50
16.2570278966027
 51
85.00000000000011
  0
LINE
  8
12
  6
CONTINUOUS
 10
215.4659672021866
 20
33.54000000000002
 11
215.4659672021866
 21
-33.53999999999996
  0
LINE
  8
12
  6
CONTINUOUS
 10
209.4659672021866
 20
33.54000000000002
 11
209.4659672021866
 21
31.14000000000004
  0
LINE
  8
12
  6
CONTINUOUS
 10
209.4659672021866
 20
29.81999999999999
 11
209.4659672021866
 21
23.52000000000004
  0
LINE
  8
12
  6
CONTINUOUS
 10
209.4659672021866
 20
22.19999999999999
 11
209.4659672021866
 21
15.90000000000003
  0
LINE
  8
12
  6
CONTINUOUS
 10
209.4659672021866
 20
14.57999999999998
 11
209.4659672021866
 21
8.28000000000003
  0
LINE
  8
12
  6
CONTINUOUS
 10
209.4659672021866
 20
6.95999999999998
 11
209.4659672021866
 21
0.660000000000025
  0
LINE
  8
12
  6
CONTINUOUS
 10
209.4659672021866
 20
-0.660000000000025
 11
209.4659672021866
 21
-6.95999999999998
  0
LINE
  8
12
  6
CONTINUOUS
 10
209.4659672021866
 20
-8.28000000000003
 11
209.4659672021866
 21
-14.57999999999998
  0
LINE
  8
12
  6
CONTINUOUS
 10
209.4659672021866
 20
-15.90000000000003
 11
209.4659672021866
 21
-22.19999999999999
  0
LINE
  8
12
  6
CONTINUOUS
 10
209.4659672021866
 20
-23.51999999999998
 11
209.4659672021866
 21
-29.81999999999999
  0
LINE
  8
12
  6
CONTINUOUS
 10
209.4659672021866
 20
-31.13999999999999
 11
209.4659672021866
 21
-33.53999999999996
  0
LINE
  8
10
  6
CONTINUOUS
 10
69.56505344271523
 20
47.70314155013627
 11
69.56505344271523
 21
-47.70314155013627
  0
CIRCLE
  8
30
  6
CONTINUOUS
 10
161.4659672021866
 20
-8.0
 40
3.0
  0
CIRCLE
  8
30
  6
CONTINUOUS
 10
161.4659672021866
 20
-16.0
 40
3.0
  0
CIRCLE
  8
30
  6
CONTINUOUS
 10
161.4659672021866
 20
-24.0
 40
3.0
  0
CIRCLE
  8
30
  6
CONTINUOUS
 10
161.4659672021866
 20
2.842170943040401E-014
 40
3.0
  0
CIRCLE
  8
30
  6
CONTINUOUS
 10
161.4659672021866
 20
8.0
 40
3.0
  0
CIRCLE
  8
30
  6
CONTINUOUS
 10
161.4659672021866
 20
16.0
 40
3.0
  0
CIRCLE
  8
30
  6
CONTINUOUS
 10
161.4659672021866
 20
24.00000000000001
 40
3.0
  0
CIRCLE
  8
30
  6
CONTINUOUS
 10
185.4659672021866
 20
28.00000000000001
 40
3.0
  0
CIRCLE
  8
30
  6
CONTINUOUS
 10
185.4659672021866
 20
20.0
 40
3.0
  0
CIRCLE
  8
30
  6
CONTINUOUS
 10
185.4659672021866
 20
12.0
 40
3.0
  0
CIRCLE
  8
30
  6
CONTINUOUS
 10
185.4659672021866
 20
4.000000000000028
 40
3.0
  0
CIRCLE
  8
30
  6
CONTINUOUS
 10
185.4659672021866
 20
-4.0
 40
3.0
  0
CIRCLE
  8
30
  6
CONTINUOUS
 10
185.4659672021866
 20
-12.0
 40
3.0
  0
CIRCLE
  8
30
  6
CONTINUOUS
 10
185.4659672021866
 20
-20.0
 40
3.0
  0
CIRCLE
  8
30
  6
CONTINUOUS
 10
185.4659672021866
 20
-28.0
 40
3.0
  0
LINE
  8
30
  6
CONTINUOUS
 10
161.4659672021866
 20
-34.0
 11
185.4659672021866
 21
-34.0
  0
LINE
  8
30
  6
CONTINUOUS
 10
161.4659672021866
 20
34.00000000000001
 11
185.4659672021866
 21
34.00000000000001
  0
LINE
  8
30
  6
CONTINUOUS
 10
185.4659672021866
 20
34.00000000000001
 11
185.4659672021866
 21
31.00000000000001
  0
LINE
  8
30
  6
CONTINUOUS
 10
185.4659672021866
 20
25.00000000000001
 11
185.4659672021866
 21
23.00000000000001
  0
LINE
  8
30
  6
CONTINUOUS
 10
185.4659672021866
 20
17.0
 11
185.4659672021866
 21
15.0
  0
LINE
  8
30
  6
CONTINUOUS
 10
185.4659672021866
 20
9.0
 11
185.4659672021866
 21
7.0
  0
LINE
  8
30
  6
CONTINUOUS
 10
185.4659672021866
 20
1.0
 11
185.4659672021866
 21
-1.0
  0
LINE
  8
30
  6
CONTINUOUS
 10
185.4659672021866
 20
-7.0
 11
185.4659672021866
 21
-9.0
  0
LINE
  8
30
  6
CONTINUOUS
 10
185.4659672021866
 20
-15.0
 11
185.4659672021866
 21
-17.0
  0
LINE
  8
30
  6
CONTINUOUS
 10
185.4659672021866
 20
-23.0
 11
185.4659672021866
 21
-25.0
  0
LINE
  8
30
  6
CONTINUOUS
 10
185.4659672021866
 20
-31.0
 11
185.4659672021866
 21
-34.0
  0
LINE
  8
30
  6
CONTINUOUS
 10
161.4659672021866
 20
34.00000000000001
 11
161.4659672021866
 21
27.00000000000001
  0
LINE
  8
30
  6
CONTINUOUS
 10
161.4659672021866
 20
21.0
 11
161.4659672021866
 21
19.0
  0
LINE
  8
30
  6
CONTINUOUS
 10
161.4659672021866
 20
13.0
 11
161.4659672021866
 21
11.0
  0
LINE
  8
30
  6
CONTINUOUS
 10
161.4659672021866
 20
5.0
 11
161.4659672021866
 21
3.0
  0
LINE
  8
30
  6
CONTINUOUS
 10
161.4659672021866
 20
-3.0
 11
161.4659672021866
 21
-5.0
  0
LINE
  8
30
  6
CONTINUOUS
 10
161.4659672021866
 20
-11.0
 11
161.4659672021866
 21
-13.0
  0
LINE
  8
30
  6
CONTINUOUS
 10
161.4659672021866
 20
-19.0
 11
161.4659672021866
 21
-21.0
  0
LINE
  8
30
  6
CONTINUOUS
 10
161.4659672021866
 20
-27.0
 11
161.4659672021866
 21
-34.0
  0
LINE
  8
30
  6
CONTINUOUS
 10
151.4659672021866
 20
15.5
 11
151.4659672021866
 21
32.5
  0
LINE
  8
30
  6
CONTINUOUS
 10
141.4659672021866
 20
15.5
 11
141.4659672021866
 21
32.5
  0
LINE
  8
30
  6
CONTINUOUS
 10
149.9659672021866
 20
34.0
 11
142.9659672021866
 21
34.0
  0
LINE
  8
30
  6
CONTINUOUS
 10
149.9659672021866
 20
14.0
 11
142.9659672021866
 21
14.0
  0
ARC
  8
30
  6
CONTINUOUS
 10
142.9659672021866
 20
15.5
 40
1.5
 50
180.0
 51
270.0
  0
ARC
  8
30
  6
CONTINUOUS
 10
149.9659672021866
 20
15.5
 40
1.5
 50
270.0
 51
0.0
  0
ARC
  8
30
  6
CONTINUOUS
 10
149.9659672021866
 20
32.5
 40
1.5
 50
0.0
 51
90.0
  0
ARC
  8
30
  6
CONTINUOUS
 10
142.9659672021866
 20
32.5
 40
1.5
 50
90.0
 51
180.0
  0
LINE
  8
1
  6
CONTINUOUS
 10
175.9659672021866
 20
-4.0
 11
175.9659672021866
 21
-12.0
  0
LINE
  8
1
  6
CONTINUOUS
 10
175.9659672021866
 20
-20.0
 11
175.9659672021866
 21
-28.0
  0
LINE
  8
1
  6
CONTINUOUS
 10
175.9659672021866
 20
-28.0
 11
177.9659672021866
 21
-28.0
  0
LINE
  8
1
  6
CONTINUOUS
 10
175.9659672021866
 20
-20.0
 11
177.9659672021866
 21
-20.0
  0
LINE
  8
1
  6
CONTINUOUS
 10
175.9659672021866
 20
-12.0
 11
177.9659672021866
 21
-12.0
  0
LINE
  8
1
  6
CONTINUOUS
 10
175.9659672021866
 20
-4.0
 11
177.9659672021866
 21
-4.0
  0
LINE
  8
1
  6
CONTINUOUS
 10
170.9659672021866
 20
-8.0
 11
170.9659672021866
 21
-24.0
  0
LINE
  8
1
  6
CONTINUOUS
 10
168.9659672021866
 20
-24.0
 11
170.9659672021866
 21
-24.0
  0
LINE
  8
1
  6
CONTINUOUS
 10
168.9659672021866
 20
-16.0
 11
170.9659672021866
 21
-16.0
  0
LINE
  8
1
  6
CONTINUOUS
 10
168.9659672021866
 20
-8.0
 11
170.9659672021866
 21
-8.0
  0
LINE
  8
11
  6
CONTINUOUS
 10
199.0659672021866
 20
45.20000000000005
 11
200.6659672021866
 21
45.20000000000005
  0
LINE
  8
11
  6
CONTINUOUS
 10
199.0659672021866
 20
-45.20000000000005
 11
200.6659672021866
 21
-45.20000000000005
  0
LINE
  8
11
  6
CONTINUOUS
 10
78.06596720218658
 20
47.70000000000005
 11
79.66596720218658
 21
47.70000000000005
  0
LINE
  8
11
  6
CONTINUOUS
 10
78.06596720218658
 20
-47.70000000000005
 11
79.66596720218658
 21
-47.70000000000005
  0
LINE
  8
11
  6
CONTINUOUS
 10
79.66596720218658
 20
-47.70000000000005
 11
79.66596720218658
 21
-45.60000000000002
  0
LINE
  8
11
  6
CONTINUOUS
 10
79.66596720218658
 20
45.60000000000002
 11
79.66596720218658
 21
47.70000000000005
  0
LINE
  8
12
  6
CONTINUOUS
 10
209.4659672021866
 20
31.14000000000004
 11
215.4659672021866
 21
31.14000000000004
  0
LINE
  8
12
  6
CONTINUOUS
 10
209.4659672021866
 20
29.81999999999999
 11
215.4659672021866
 21
29.81999999999999
  0
LINE
  8
12
  6
CONTINUOUS
 10
209.4659672021866
 20
15.90000000000003
 11
215.4659672021866
 21
15.90000000000003
  0
LINE
  8
12
  6
CONTINUOUS
 10
209.4659672021866
 20
14.57999999999998
 11
215.4659672021866
 21
14.57999999999998
  0
LINE
  8
12
  6
CONTINUOUS
 10
209.4659672021866
 20
8.28000000000003
 11
215.4659672021866
 21
8.28000000000003
  0
LINE
  8
12
  6
CONTINUOUS
 10
209.4659672021866
 20
6.95999999999998
 11
215.4659672021866
 21
6.95999999999998
  0
LINE
  8
12
  6
CONTINUOUS
 10
209.4659672021866
 20
0.660000000000025
 11
215.4659672021866
 21
0.660000000000025
  0
LINE
  8
12
  6
CONTINUOUS
 10
209.4659672021866
 20
-0.660000000000025
 11
215.4659672021866
 21
-0.660000000000025
  0
LINE
  8
12
  6
CONTINUOUS
 10
209.4659672021866
 20
-6.95999999999998
 11
215.4659672021866
 21
-6.95999999999998
  0
LINE
  8
12
  6
CONTINUOUS
 10
209.4659672021866
 20
-8.28000000000003
 11
215.4659672021866
 21
-8.28000000000003
  0
LINE
  8
12
  6
CONTINUOUS
 10
209.4659672021866
 20
-14.57999999999998
 11
215.4659672021866
 21
-14.57999999999998
  0
LINE
  8
12
  6
CONTINUOUS
 10
209.4659672021866
 20
-15.90000000000003
 11
215.4659672021866
 21
-15.90000000000003
  0
LINE
  8
12
  6
CONTINUOUS
 10
209.4659672021866
 20
-22.19999999999999
 11
215.4659672021866
 21
-22.19999999999999
  0
LINE
  8
12
  6
CONTINUOUS
 10
209.4659672021866
 20
-23.51999999999998
 11
215.4659672021866
 21
-23.51999999999998
  0
LINE
  8
12
  6
CONTINUOUS
 10
209.4659672021866
 20
-29.81999999999999
 11
215.4659672021866
 21
-29.81999999999999
  0
LINE
  8
12
  6
CONTINUOUS
 10
209.4659672021866
 20
-31.13999999999999
 11
215.4659672021866
 21
-31.13999999999999
  0
LINE
  8
12
  6
CONTINUOUS
 10
209.4659672021866
 20
23.52000000000004
 11
215.4659672021866
 21
23.52000000000004
  0
LINE
  8
12
  6
CONTINUOUS
 10
209.4659672021866
 20
22.19999999999999
 11
215.4659672021866
 21
22.19999999999999
  0
LINE
  8
12
  6
CONTINUOUS
 10
207.4659672021866
 20
27.33000000000004
 11
207.4659672021866
 21
26.00999999999999
  0
LINE
  8
12
  6
CONTINUOUS
 10
207.4659672021866
 20
19.71000000000004
 11
207.4659672021866
 21
18.38999999999999
  0
LINE
  8
12
  6
CONTINUOUS
 10
207.4659672021866
 20
12.09000000000003
 11
207.4659672021866
 21
10.76999999999998
  0
LINE
  8
12
  6
CONTINUOUS
 10
207.4659672021866
 20
4.470000000000027
 11
207.4659672021866
 21
3.149999999999977
  0
LINE
  8
12
  6
CONTINUOUS
 10
207.4659672021866
 20
-3.149999999999977
 11
207.4659672021866
 21
-4.470000000000027
  0
LINE
  8
12
  6
CONTINUOUS
 10
207.4659672021866
 20
-10.76999999999998
 11
207.4659672021866
 21
-12.09000000000003
  0
LINE
  8
12
  6
CONTINUOUS
 10
207.4659672021866
 20
-18.38999999999999
 11
207.4659672021866
 21
-19.71000000000004
  0
LINE
  8
12
  6
CONTINUOUS
 10
207.4659672021866
 20
-26.00999999999999
 11
207.4659672021866
 21
-27.32999999999998
  0
LINE
  8
12
  6
CONTINUOUS
 10
201.4659672021866
 20
33.54000000000002
 11
201.4659672021866
 21
27.33000000000004
  0
LINE
  8
12
  6
CONTINUOUS
 10
201.4659672021866
 20
26.00999999999999
 11
201.4659672021866
 21
19.71000000000004
  0
LINE
  8
12
  6
CONTINUOUS
 10
201.4659672021866
 20
18.38999999999999
 11
201.4659672021866
 21
12.09000000000003
  0
LINE
  8
12
  6
CONTINUOUS
 10
201.4659672021866
 20
10.76999999999998
 11
201.4659672021866
 21
4.470000000000027
  0
LINE
  8
12
  6
CONTINUOUS
 10
201.4659672021866
 20
3.149999999999977
 11
201.4659672021866
 21
-3.149999999999977
  0
LINE
  8
12
  6
CONTINUOUS
 10
201.4659672021866
 20
-4.470000000000027
 11
201.4659672021866
 21
-10.76999999999998
  0
LINE
  8
12
  6
CONTINUOUS
 10
201.4659672021866
 20
-12.09000000000003
 11
201.4659672021866
 21
-18.38999999999999
  0
LINE
  8
12
  6
CONTINUOUS
 10
201.4659672021866
 20
-19.71000000000004
 11
201.4659672021866
 21
-26.00999999999999
  0
LINE
  8
12
  6
CONTINUOUS
 10
201.4659672021866
 20
-27.32999999999998
 11
201.4659672021866
 21
-33.53999999999996
  0
LINE
  8
12
  6
CONTINUOUS
 10
201.4659672021866
 20
27.33000000000004
 11
207.4659672021866
 21
27.33000000000004
  0
LINE
  8
12
  6
CONTINUOUS
 10
201.4659672021866
 20
26.00999999999999
 11
207.4659672021866
 21
26.00999999999999
  0
LINE
  8
12
  6
CONTINUOUS
 10
201.4659672021866
 20
19.71000000000004
 11
207.4659672021866
 21
19.71000000000004
  0
LINE
  8
12
  6
CONTINUOUS
 10
201.4659672021866
 20
18.38999999999999
 11
207.4659672021866
 21
18.38999999999999
  0
LINE
  8
12
  6
CONTINUOUS
 10
201.4659672021866
 20
12.09000000000003
 11
207.4659672021866
 21
12.09000000000003
  0
LINE
  8
12
  6
CONTINUOUS
 10
201.4659672021866
 20
10.76999999999998
 11
207.4659672021866
 21
10.76999999999998
  0
LINE
  8
12
  6
CONTINUOUS
 10
201.4659672021866
 20
4.470000000000027
 11
207.4659672021866
 21
4.470000000000027
  0
LINE
  8
12
  6
CONTINUOUS
 10
201.4659672021866
 20
3.149999999999977
 11
207.4659672021866
 21
3.149999999999977
  0
LINE
  8
12
  6
CONTINUOUS
 10
201.4659672021866
 20
-3.149999999999977
 11
207.4659672021866
 21
-3.149999999999977
  0
LINE
  8
12
  6
CONTINUOUS
 10
201.4659672021866
 20
-4.470000000000027
 11
207.4659672021866
 21
-4.470000000000027
  0
LINE
  8
12
  6
CONTINUOUS
 10
201.4659672021866
 20
-10.76999999999998
 11
207.4659672021866
 21
-10.76999999999998
  0
LINE
  8
12
  6
CONTINUOUS
 10
201.4659672021866
 20
-12.09000000000003
 11
207.4659672021866
 21
-12.09000000000003
  0
LINE
  8
12
  6
CONTINUOUS
 10
201.4659672021866
 20
-18.38999999999999
 11
207.4659672021866
 21
-18.38999999999999
  0
LINE
  8
12
  6
CONTINUOUS
 10
201.4659672021866
 20
-19.71000000000004
 11
207.4659672021866
 21
-19.71000000000004
  0
LINE
  8
12
  6
CONTINUOUS
 10
201.4659672021866
 20
-26.00999999999999
 11
207.4659672021866
 21
-26.00999999999999
  0
LINE
  8
12
  6
CONTINUOUS
 10
201.4659672021866
 20
-27.32999999999998
 11
207.4659672021866
 21
-27.32999999999998
  0
INSERT
  8
14
  6
CONTINUOUS
  2
COMP1
 10
0.0
 20
0.0
 41
1.0
 42
1.0
 50
0.0
  0
INSERT
  8
14
  6
CONTINUOUS
  2
COMP2
 10
0.0
 20
0.0
 41
1.0
 42
1.0
 50
0.0
  0
INSERT
  8
14
  6
CONTINUOUS
  2
COMP3
 10
0.0
 20
0.0
 41
1.0
 42
1.0
 50
0.0
  0
INSERT
  8
14
  6
CONTINUOUS
  2
COMP4
 10
0.0
 20
0.0
 41
1.0
 42
1.0
 50
0.0
  0
INSERT
  8
14
  6
CONTINUOUS
  2
COMP5
 10
0.0
 20
0.0
 41
1.0
 42
1.0
 50
0.0
  0
INSERT
  8
14
  6
CONTINUOUS
  2
COMP6
 10
0.0
 20
0.0
 41
1.0
 42
1.0
 50
0.0
  0
INSERT
  8
14
  6
CONTINUOUS
  2
COMP7
 10
0.0
 20
0.0
 41
1.0
 42
1.0
 50
0.0
  0
INSERT
  8
14
  6
CONTINUOUS
  2
COMP8
 10
0.0
 20
0.0
 41
1.0
 42
1.0
 50
0.0
  0
INSERT
  8
14
  6
CONTINUOUS
  2
COMP9
 10
0.0
 20
0.0
 41
1.0
 42
1.0
 50
0.0
  0
INSERT
  8
14
  6
CONTINUOUS
  2
COMP10
 10
0.0
 20
0.0
 41
1.0
 42
1.0
 50
0.0
  0
INSERT
  8
14
  6
CONTINUOUS
  2
COMP11
 10
0.0
 20
0.0
 41
1.0
 42
1.0
 50
0.0
  0
INSERT
  8
14
  6
CONTINUOUS
  2
COMP12
 10
0.0
 20
0.0
 41
1.0
 42
1.0
 50
0.0
  0
INSERT
  8
14
  6
CONTINUOUS
  2
COMP13
 10
0.0
 20
0.0
 41
1.0
 42
1.0
 50
0.0
  0
INSERT
  8
14
  6
CONTINUOUS
  2
COMP14
 10
0.0
 20
0.0
 41
1.0
 42
1.0
 50
0.0
  0
INSERT
  8
14
  6
CONTINUOUS
  2
COMP15
 10
0.0
 20
0.0
 41
1.0
 42
1.0
 50
0.0
  0
LINE
  8
1
  6
CONTINUOUS
 10
168.9659672021866
 20
-24.0
 11
170.4659672021866
 21
-24.4
  0
LINE
  8
1
  6
CONTINUOUS
 10
170.4659672021866
 20
-23.6
 11
168.9659672021866
 21
-24.0
  0
LINE
  8
12
  6
CONTINUOUS
 10
296.0947184085846
 20
-33.53999999999996
 11
296.0947184085846
 21
33.54000000000002
  0
LINE
  8
12
  6
CONTINUOUS
 10
297.0947184085846
 20
-33.53999999999996
 11
297.0947184085846
 21
33.54000000000002
  0
LINE
  8
12
  6
CONTINUOUS
 10
287.0947184085846
 20
-33.53999999999996
 11
287.0947184085846
 21
33.54000000000002
  0
LINE
  8
12
  6
CONTINUOUS
 10
278.0947184085846
 20
-33.53999999999996
 11
278.0947184085846
 21
-33.48000000000002
  0
LINE
  8
12
  6
CONTINUOUS
 10
278.0947184085846
 20
-27.48000000000002
 11
278.0947184085846
 21
27.47999999999999
  0
LINE
  8
12
  6
CONTINUOUS
 10
278.0947184085846
 20
33.47999999999999
 11
278.0947184085846
 21
33.54000000000002
  0
LINE
  8
12
  6
CONTINUOUS
 10
297.0947184085846
 20
-33.53999999999996
 11
278.0947184085846
 21
-33.53999999999996
  0
LINE
  8
12
  6
CONTINUOUS
 10
297.0947184085846
 20
33.54000000000002
 11
278.0947184085846
 21
33.54000000000002
  0
CIRCLE
  8
10
  6
CONTINUOUS
 10
283.0947184085846
 20
-22.86000000000001
 40
2.75
  0
ARC
  8
10
  6
CONTINUOUS
 10
283.0947184085846
 20
-22.86000000000001
 40
1.75
 50
90.0
 51
98.21321070173811
  0
ARC
  8
10
  6
CONTINUOUS
 10
283.0947184085846
 20
-22.86000000000001
 40
1.75
 50
171.7867892982617
 51
188.2132107017384
  0
ARC
  8
10
  6
CONTINUOUS
 10
283.0947184085846
 20
-22.86000000000001
 40
1.75
 50
261.7867892982616
 51
278.2132107017384
  0
ARC
  8
10
  6
CONTINUOUS
 10
283.0947184085846
 20
-22.86000000000001
 40
1.75
 50
351.7867892982619
 51
8.213210701738101
  0
ARC
  8
10
  6
CONTINUOUS
 10
283.0947184085846
 20
-22.86000000000001
 40
1.75
 50
81.78678929826191
 51
90.0
  0
LINE
  8
10
  6
CONTINUOUS
 10
282.8447184085846
 20
-24.59205080756885
 11
282.8447184085846
 21
-23.70999999999998
  0
LINE
  8
10
  6
CONTINUOUS
 10
282.8447184085846
 20
-22.00999999999999
 11
282.8447184085846
 21
-21.12794919243112
  0
LINE
  8
10
  6
CONTINUOUS
 10
283.3447184085846
 20
-24.59205080756885
 11
283.3447184085846
 21
-23.70999999999998
  0
LINE
  8
10
  6
CONTINUOUS
 10
283.3447184085846
 20
-22.00999999999999
 11
283.3447184085846
 21
-21.12794919243112
  0
LINE
  8
10
  6
CONTINUOUS
 10
284.8267692161535
 20
-22.61000000000001
 11
283.9447184085846
 21
-22.61000000000001
  0
LINE
  8
10
  6
CONTINUOUS
 10
282.2447184085846
 20
-22.61000000000001
 11
281.3626676010157
 21
-22.61000000000001
  0
LINE
  8
10
  6
CONTINUOUS
 10
284.8267692161535
 20
-23.11000000000001
 11
283.9447184085846
 21
-23.11000000000001
  0
LINE
  8
10
  6
CONTINUOUS
 10
282.2447184085846
 20
-23.11000000000001
 11
281.3626676010157
 21
-23.11000000000001
  0
ARC
  8
10
  6
CONTINUOUS
 10
282.2447184085846
 20
-22.00999999999999
 40
0.6
 50
270.0
 51
0.0
  0
ARC
  8
10
  6
CONTINUOUS
 10
282.2447184085846
 20
-23.70999999999998
 40
0.6
 50
0.0
 51
90.0
  0
ARC
  8
10
  6
CONTINUOUS
 10
283.9447184085846
 20
-23.70999999999998
 40
0.6
 50
90.0
 51
180.0
  0
ARC
  8
10
  6
CONTINUOUS
 10
283.9447184085846
 20
-22.00999999999999
 40
0.6
 50
180.0
 51
270.0
  0
CIRCLE
  8
10
  6
CONTINUOUS
 10
283.0947184085846
 20
-15.24000000000001
 40
2.75
  0
ARC
  8
10
  6
CONTINUOUS
 10
283.0947184085846
 20
-15.24000000000001
 40
1.75
 50
90.0
 51
98.21321070173811
  0
ARC
  8
10
  6
CONTINUOUS
 10
283.0947184085846
 20
-15.24000000000001
 40
1.75
 50
171.7867892982617
 51
188.2132107017384
  0
ARC
  8
10
  6
CONTINUOUS
 10
283.0947184085846
 20
-15.24000000000001
 40
1.75
 50
261.7867892982619
 51
278.2132107017381
  0
ARC
  8
10
  6
CONTINUOUS
 10
283.0947184085846
 20
-15.24000000000001
 40
1.75
 50
351.7867892982619
 51
8.213210701738101
  0
ARC
  8
10
  6
CONTINUOUS
 10
283.0947184085846
 20
-15.24000000000001
 40
1.75
 50
81.78678929826191
 51
90.0
  0
LINE
  8
10
  6
CONTINUOUS
 10
282.8447184085846
 20
-16.97205080756891
 11
282.8447184085846
 21
-16.09000000000003
  0
LINE
  8
10
  6
CONTINUOUS
 10
282.8447184085846
 20
-14.38999999999999
 11
282.8447184085846
 21
-13.50794919243111
  0
LINE
  8
10
  6
CONTINUOUS
 10
283.3447184085846
 20
-16.97205080756891
 11
283.3447184085846
 21
-16.09000000000003
  0
LINE
  8
10
  6
CONTINUOUS
 10
283.3447184085846
 20
-14.38999999999999
 11
283.3447184085846
 21
-13.50794919243111
  0
LINE
  8
10
  6
CONTINUOUS
 10
284.8267692161535
 20
-14.99000000000001
 11
283.9447184085846
 21
-14.99000000000001
  0
LINE
  8
10
  6
CONTINUOUS
 10
282.2447184085846
 20
-14.99000000000001
 11
281.3626676010157
 21
-14.99000000000001
  0
LINE
  8
10
  6
CONTINUOUS
 10
284.8267692161535
 20
-15.49000000000001
 11
283.9447184085846
 21
-15.49000000000001
  0
LINE
  8
10
  6
CONTINUOUS
 10
282.2447184085846
 20
-15.49000000000001
 11
281.3626676010157
 21
-15.49000000000001
  0
ARC
  8
10
  6
CONTINUOUS
 10
282.2447184085846
 20
-14.38999999999999
 40
0.6
 50
270.0
 51
0.0
  0
ARC
  8
10
  6
CONTINUOUS
 10
282.2447184085846
 20
-16.09000000000003
 40
0.6
 50
0.0
 51
90.0
  0
ARC
  8
10
  6
CONTINUOUS
 10
283.9447184085846
 20
-16.09000000000003
 40
0.6
 50
90.0
 51
180.0
  0
ARC
  8
10
  6
CONTINUOUS
 10
283.9447184085846
 20
-14.38999999999999
 40
0.6
 50
180.0
 51
270.0
  0
CIRCLE
  8
10
  6
CONTINUOUS
 10
283.0947184085846
 20
-7.620000000000005
 40
2.75
  0
ARC
  8
10
  6
CONTINUOUS
 10
283.0947184085846
 20
-7.620000000000005
 40
1.75
 50
90.0
 51
98.21321070173811
  0
ARC
  8
10
  6
CONTINUOUS
 10
283.0947184085846
 20
-7.620000000000005
 40
1.75
 50
171.7867892982617
 51
188.2132107017384
  0
ARC
  8
10
  6
CONTINUOUS
 10
283.0947184085846
 20
-7.620000000000005
 40
1.75
 50
261.7867892982619
 51
278.2132107017381
  0
ARC
  8
10
  6
CONTINUOUS
 10
283.0947184085846
 20
-7.620000000000005
 40
1.75
 50
351.7867892982619
 51
8.213210701738101
  0
ARC
  8
10
  6
CONTINUOUS
 10
283.0947184085846
 20
-7.620000000000005
 40
1.75
 50
81.78678929826191
 51
90.0
  0
LINE
  8
10
  6
CONTINUOUS
 10
282.8447184085846
 20
-9.352050807568901
 11
282.8447184085846
 21
-8.470000000000027
  0
LINE
  8
10
  6
CONTINUOUS
 10
282.8447184085846
 20
-6.769999999999982
 11
282.8447184085846
 21
-5.887949192431108
  0
LINE
  8
10
  6
CONTINUOUS
 10
283.3447184085846
 20
-9.352050807568901
 11
283.3447184085846
 21
-8.470000000000027
  0
LINE
  8
10
  6
CONTINUOUS
 10
283.3447184085846
 20
-6.769999999999982
 11
283.3447184085846
 21
-5.887949192431108
  0
LINE
  8
10
  6
CONTINUOUS
 10
284.8267692161535
 20
-7.370000000000005
 11
283.9447184085846
 21
-7.370000000000005
  0
LINE
  8
10
  6
CONTINUOUS
 10
282.2447184085846
 20
-7.370000000000005
 11
281.3626676010157
 21
-7.370000000000005
  0
LINE
  8
10
  6
CONTINUOUS
 10
284.8267692161535
 20
-7.870000000000005
 11
283.9447184085846
 21
-7.870000000000005
  0
LINE
  8
10
  6
CONTINUOUS
 10
282.2447184085846
 20
-7.870000000000005
 11
281.3626676010157
 21
-7.870000000000005
  0
ARC
  8
10
  6
CONTINUOUS
 10
282.2447184085846
 20
-6.769999999999982
 40
0.6
 50
270.0
 51
0.0
  0
ARC
  8
10
  6
CONTINUOUS
 10
282.2447184085846
 20
-8.470000000000027
 40
0.6
 50
0.0
 51
90.0
  0
ARC
  8
10
  6
CONTINUOUS
 10
283.9447184085846
 20
-8.470000000000027
 40
0.6
 50
90.0
 51
180.0
  0
ARC
  8
10
  6
CONTINUOUS
 10
283.9447184085846
 20
-6.769999999999982
 40
0.6
 50
180.0
 51
270.0
  0
CIRCLE
  8
10
  6
CONTINUOUS
 10
283.0947184085846
 20
0.0
 40
2.75
  0
ARC
  8
10
  6
CONTINUOUS
 10
283.0947184085846
 20
0.0
 40
1.75
 50
90.0
 51
98.21321070173811
  0
ARC
  8
10
  6
CONTINUOUS
 10
283.0947184085846
 20
0.0
 40
1.75
 50
171.7867892982617
 51
188.2132107017384
  0
ARC
  8
10
  6
CONTINUOUS
 10
283.0947184085846
 20
0.0
 40
1.75
 50
261.7867892982619
 51
278.2132107017381
  0
ARC
  8
10
  6
CONTINUOUS
 10
283.0947184085846
 20
0.0
 40
1.75
 50
351.7867892982619
 51
8.213210701738101
  0
ARC
  8
10
  6
CONTINUOUS
 10
283.0947184085846
 20
0.0
 40
1.75
 50
81.78678929826191
 51
90.0
  0
LINE
  8
10
  6
CONTINUOUS
 10
282.8447184085846
 20
-1.732050807568896
 11
282.8447184085846
 21
-0.8500000000000227
  0
LINE
  8
10
  6
CONTINUOUS
 10
282.8447184085846
 20
0.8500000000000227
 11
282.8447184085846
 21
1.732050807568896
  0
LINE
  8
10
  6
CONTINUOUS
 10
283.3447184085846
 20
-1.732050807568896
 11
283.3447184085846
 21
-0.8500000000000227
  0
LINE
  8
10
  6
CONTINUOUS
 10
283.3447184085846
 20
0.8500000000000227
 11
283.3447184085846
 21
1.732050807568896
  0
LINE
  8
10
  6
CONTINUOUS
 10
284.8267692161535
 20
0.25
 11
283.9447184085846
 21
0.25
  0
LINE
  8
10
  6
CONTINUOUS
 10
282.2447184085846
 20
0.25
 11
281.3626676010157
 21
0.25
  0
LINE
  8
10
  6
CONTINUOUS
 10
284.8267692161535
 20
-0.25
 11
283.9447184085846
 21
-0.25
  0
LINE
  8
10
  6
CONTINUOUS
 10
282.2447184085846
 20
-0.25
 11
281.3626676010157
 21
-0.25
  0
ARC
  8
10
  6
CONTINUOUS
 10
282.2447184085846
 20
0.8500000000000227
 40
0.6
 50
270.0
 51
0.0
  0
ARC
  8
10
  6
CONTINUOUS
 10
282.2447184085846
 20
-0.8500000000000227
 40
0.6
 50
0.0
 51
90.0
  0
ARC
  8
10
  6
CONTINUOUS
 10
283.9447184085846
 20
-0.8500000000000227
 40
0.6
 50
90.0
 51
180.0
  0
ARC
  8
10
  6
CONTINUOUS
 10
283.9447184085846
 20
0.8500000000000227
 40
0.6
 50
180.0
 51
270.0
  0
CIRCLE
  8
10
  6
CONTINUOUS
 10
283.0947184085846
 20
7.620000000000005
 40
2.75
  0
ARC
  8
10
  6
CONTINUOUS
 10
283.0947184085846
 20
7.620000000000005
 40
1.75
 50
90.0
 51
98.21321070173811
  0
ARC
  8
10
  6
CONTINUOUS
 10
283.0947184085846
 20
7.620000000000005
 40
1.75
 50
171.7867892982617
 51
188.2132107017384
  0
ARC
  8
10
  6
CONTINUOUS
 10
283.0947184085846
 20
7.620000000000005
 40
1.75
 50
261.7867892982619
 51
278.2132107017381
  0
ARC
  8
10
  6
CONTINUOUS
 10
283.0947184085846
 20
7.620000000000005
 40
1.75
 50
351.7867892982619
 51
8.213210701738101
  0
ARC
  8
10
  6
CONTINUOUS
 10
283.0947184085846
 20
7.620000000000005
 40
1.75
 50
81.78678929826191
 51
90.0
  0
LINE
  8
10
  6
CONTINUOUS
 10
282.8447184085846
 20
5.887949192431108
 11
282.8447184085846
 21
6.769999999999982
  0
LINE
  8
10
  6
CONTINUOUS
 10
282.8447184085846
 20
8.470000000000027
 11
282.8447184085846
 21
9.352050807568901
  0
LINE
  8
10
  6
CONTINUOUS
 10
283.3447184085846
 20
5.887949192431108
 11
283.3447184085846
 21
6.769999999999982
  0
LINE
  8
10
  6
CONTINUOUS
 10
283.3447184085846
 20
8.470000000000027
 11
283.3447184085846
 21
9.352050807568901
  0
LINE
  8
10
  6
CONTINUOUS
 10
284.8267692161535
 20
7.870000000000005
 11
283.9447184085846
 21
7.870000000000005
  0
LINE
  8
10
  6
CONTINUOUS
 10
282.2447184085846
 20
7.870000000000005
 11
281.3626676010157
 21
7.870000000000005
  0
LINE
  8
10
  6
CONTINUOUS
 10
284.8267692161535
 20
7.370000000000005
 11
283.9447184085846
 21
7.370000000000005
  0
LINE
  8
10
  6
CONTINUOUS
 10
282.2447184085846
 20
7.370000000000005
 11
281.3626676010157
 21
7.370000000000005
  0
ARC
  8
10
  6
CONTINUOUS
 10
282.2447184085846
 20
8.470000000000027
 40
0.6
 50
270.0
 51
0.0
  0
ARC
  8
10
  6
CONTINUOUS
 10
282.2447184085846
 20
6.769999999999982
 40
0.6
 50
0.0
 51
90.0
  0
ARC
  8
10
  6
CONTINUOUS
 10
283.9447184085846
 20
6.769999999999982
 40
0.6
 50
90.0
 51
180.0
  0
ARC
  8
10
  6
CONTINUOUS
 10
283.9447184085846
 20
8.470000000000027
 40
0.6
 50
180.0
 51
270.0
  0
CIRCLE
  8
10
  6
CONTINUOUS
 10
283.0947184085846
 20
15.24000000000001
 40
2.75
  0
ARC
  8
10
  6
CONTINUOUS
 10
283.0947184085846
 20
15.24000000000001
 40
1.75
 50
90.0
 51
98.21321070173811
  0
ARC
  8
10
  6
CONTINUOUS
 10
283.0947184085846
 20
15.24000000000001
 40
1.75
 50
171.7867892982617
 51
188.2132107017384
  0
ARC
  8
10
  6
CONTINUOUS
 10
283.0947184085846
 20
15.24000000000001
 40
1.75
 50
261.7867892982619
 51
278.2132107017381
  0
ARC
  8
10
  6
CONTINUOUS
 10
283.0947184085846
 20
15.24000000000001
 40
1.75
 50
351.7867892982619
 51
8.213210701738101
  0
ARC
  8
10
  6
CONTINUOUS
 10
283.0947184085846
 20
15.24000000000001
 40
1.75
 50
81.78678929826191
 51
90.0
  0
LINE
  8
10
  6
CONTINUOUS
 10
282.8447184085846
 20
13.50794919243111
 11
282.8447184085846
 21
14.38999999999999
  0
LINE
  8
10
  6
CONTINUOUS
 10
282.8447184085846
 20
16.09000000000003
 11
282.8447184085846
 21
16.97205080756891
  0
LINE
  8
10
  6
CONTINUOUS
 10
283.3447184085846
 20
13.50794919243111
 11
283.3447184085846
 21
14.38999999999999
  0
LINE
  8
10
  6
CONTINUOUS
 10
283.3447184085846
 20
16.09000000000003
 11
283.3447184085846
 21
16.97205080756891
  0
LINE
  8
10
  6
CONTINUOUS
 10
284.8267692161535
 20
15.49000000000001
 11
283.9447184085846
 21
15.49000000000001
  0
LINE
  8
10
  6
CONTINUOUS
 10
282.2447184085846
 20
15.49000000000001
 11
281.3626676010157
 21
15.49000000000001
  0
LINE
  8
10
  6
CONTINUOUS
 10
284.8267692161535
 20
14.99000000000001
 11
283.9447184085846
 21
14.99000000000001
  0
LINE
  8
10
  6
CONTINUOUS
 10
282.2447184085846
 20
14.99000000000001
 11
281.3626676010157
 21
14.99000000000001
  0
ARC
  8
10
  6
CONTINUOUS
 10
282.2447184085846
 20
16.09000000000003
 40
0.6
 50
270.0
 51
0.0
  0
ARC
  8
10
  6
CONTINUOUS
 10
282.2447184085846
 20
14.38999999999999
 40
0.6
 50
0.0
 51
90.0
  0
ARC
  8
10
  6
CONTINUOUS
 10
283.9447184085846
 20
14.38999999999999
 40
0.6
 50
90.0
 51
180.0
  0
ARC
  8
10
  6
CONTINUOUS
 10
283.9447184085846
 20
16.09000000000003
 40
0.6
 50
180.0
 51
270.0
  0
CIRCLE
  8
10
  6
CONTINUOUS
 10
283.0947184085846
 20
22.86000000000001
 40
2.75
  0
ARC
  8
10
  6
CONTINUOUS
 10
283.0947184085846
 20
22.86000000000001
 40
1.75
 50
90.0
 51
98.21321070173811
  0
ARC
  8
10
  6
CONTINUOUS
 10
283.0947184085846
 20
22.86000000000001
 40
1.75
 50
171.7867892982617
 51
188.2132107017384
  0
ARC
  8
10
  6
CONTINUOUS
 10
283.0947184085846
 20
22.86000000000001
 40
1.75
 50
261.7867892982619
 51
278.2132107017381
  0
ARC
  8
10
  6
CONTINUOUS
 10
283.0947184085846
 20
22.86000000000001
 40
1.75
 50
351.7867892982619
 51
8.213210701738101
  0
ARC
  8
10
  6
CONTINUOUS
 10
283.0947184085846
 20
22.86000000000001
 40
1.75
 50
81.78678929826191
 51
90.0
  0
LINE
  8
10
  6
CONTINUOUS
 10
282.8447184085846
 20
21.12794919243112
 11
282.8447184085846
 21
22.00999999999999
  0
LINE
  8
10
  6
CONTINUOUS
 10
282.8447184085846
 20
23.71000000000004
 11
282.8447184085846
 21
24.59205080756891
  0
LINE
  8
10
  6
CONTINUOUS
 10
283.3447184085846
 20
21.12794919243112
 11
283.3447184085846
 21
22.00999999999999
  0
LINE
  8
10
  6
CONTINUOUS
 10
283.3447184085846
 20
23.71000000000004
 11
283.3447184085846
 21
24.59205080756891
  0
LINE
  8
10
  6
CONTINUOUS
 10
284.8267692161535
 20
23.11000000000001
 11
283.9447184085846
 21
23.11000000000001
  0
LINE
  8
10
  6
CONTINUOUS
 10
282.2447184085846
 20
23.11000000000001
 11
281.3626676010157
 21
23.11000000000001
  0
LINE
  8
10
  6
CONTINUOUS
 10
284.8267692161535
 20
22.61000000000001
 11
283.9447184085846
 21
22.61000000000001
  0
LINE
  8
10
  6
CONTINUOUS
 10
282.2447184085846
 20
22.61000000000001
 11
281.3626676010157
 21
22.61000000000001
  0
ARC
  8
10
  6
CONTINUOUS
 10
282.2447184085846
 20
23.71000000000004
 40
0.6
 50
270.0
 51
0.0
  0
ARC
  8
10
  6
CONTINUOUS
 10
282.2447184085846
 20
22.00999999999999
 40
0.6
 50
0.0
 51
90.0
  0
ARC
  8
10
  6
CONTINUOUS
 10
283.9447184085846
 20
22.00999999999999
 40
0.6
 50
90.0
 51
180.0
  0
ARC
  8
10
  6
CONTINUOUS
 10
283.9447184085846
 20
23.71000000000004
 40
0.6
 50
180.0
 51
270.0
  0
CIRCLE
  8
10
  6
CONTINUOUS
 10
292.0947184085846
 20
-26.66999999999996
 40
2.75
  0
ARC
  8
10
  6
CONTINUOUS
 10
292.0947184085846
 20
-26.66999999999996
 40
1.75
 50
90.0
 51
98.21321070173838
  0
ARC
  8
10
  6
CONTINUOUS
 10
292.0947184085846
 20
-26.66999999999996
 40
1.75
 50
171.7867892982619
 51
188.2132107017381
  0
ARC
  8
10
  6
CONTINUOUS
 10
292.0947184085846
 20
-26.66999999999996
 40
1.75
 50
261.7867892982619
 51
278.2132107017381
  0
ARC
  8
10
  6
CONTINUOUS
 10
292.0947184085846
 20
-26.66999999999996
 40
1.75
 50
351.7867892982619
 51
8.213210701738101
  0
ARC
  8
10
  6
CONTINUOUS
 10
292.0947184085846
 20
-26.66999999999996
 40
1.75
 50
81.78678929826164
 51
90.0
  0
LINE
  8
10
  6
CONTINUOUS
 10
291.8447184085846
 20
-28.40205080756886
 11
291.8447184085846
 21
-27.51999999999998
  0
LINE
  8
10
  6
CONTINUOUS
 10
291.8447184085846
 20
-25.81999999999999
 11
291.8447184085846
 21
-24.93794919243112
  0
LINE
  8
10
  6
CONTINUOUS
 10
292.3447184085846
 20
-28.40205080756886
 11
292.3447184085846
 21
-27.51999999999998
  0
LINE
  8
10
  6
CONTINUOUS
 10
292.3447184085846
 20
-25.81999999999999
 11
292.3447184085846
 21
-24.93794919243112
  0
LINE
  8
10
  6
CONTINUOUS
 10
293.8267692161535
 20
-26.41999999999996
 11
292.9447184085846
 21
-26.41999999999996
  0
LINE
  8
10
  6
CONTINUOUS
 10
291.2447184085846
 20
-26.41999999999996
 11
290.3626676010157
 21
-26.41999999999996
  0
LINE
  8
10
  6
CONTINUOUS
 10
293.8267692161535
 20
-26.91999999999996
 11
292.9447184085846
 21
-26.91999999999996
  0
LINE
  8
10
  6
CONTINUOUS
 10
291.2447184085846
 20
-26.91999999999996
 11
290.3626676010157
 21
-26.91999999999996
  0
ARC
  8
10
  6
CONTINUOUS
 10
291.2447184085846
 20
-25.81999999999999
 40
0.6
 50
270.0
 51
0.0
  0
ARC
  8
10
  6
CONTINUOUS
 10
291.2447184085846
 20
-27.51999999999998
 40
0.6
 50
0.0
 51
90.0
  0
ARC
  8
10
  6
CONTINUOUS
 10
292.9447184085846
 20
-27.51999999999998
 40
0.6
 50
90.0
 51
180.0
  0
ARC
  8
10
  6
CONTINUOUS
 10
292.9447184085846
 20
-25.81999999999999
 40
0.6
 50
180.0
 51
270.0
  0
CIRCLE
  8
10
  6
CONTINUOUS
 10
292.0947184085846
 20
-19.05000000000001
 40
2.75
  0
ARC
  8
10
  6
CONTINUOUS
 10
292.0947184085846
 20
-19.05000000000001
 40
1.75
 50
90.0
 51
98.21321070173811
  0
ARC
  8
10
  6
CONTINUOUS
 10
292.0947184085846
 20
-19.05000000000001
 40
1.75
 50
171.7867892982619
 51
188.2132107017381
  0
ARC
  8
10
  6
CONTINUOUS
 10
292.0947184085846
 20
-19.05000000000001
 40
1.75
 50
261.7867892982619
 51
278.2132107017381
  0
ARC
  8
10
  6
CONTINUOUS
 10
292.0947184085846
 20
-19.05000000000001
 40
1.75
 50
351.7867892982619
 51
8.213210701738101
  0
ARC
  8
10
  6
CONTINUOUS
 10
292.0947184085846
 20
-19.05000000000001
 40
1.75
 50
81.78678929826191
 51
90.0
  0
LINE
  8
10
  6
CONTINUOUS
 10
291.8447184085846
 20
-20.78205080756891
 11
291.8447184085846
 21
-19.89999999999998
  0
LINE
  8
10
  6
CONTINUOUS
 10
291.8447184085846
 20
-18.19999999999999
 11
291.8447184085846
 21
-17.31794919243112
  0
LINE
  8
10
  6
CONTINUOUS
 10
292.3447184085846
 20
-20.78205080756891
 11
292.3447184085846
 21
-19.89999999999998
  0
LINE
  8
10
  6
CONTINUOUS
 10
292.3447184085846
 20
-18.19999999999999
 11
292.3447184085846
 21
-17.31794919243112
  0
LINE
  8
10
  6
CONTINUOUS
 10
293.8267692161535
 20
-18.80000000000001
 11
292.9447184085846
 21
-18.80000000000001
  0
LINE
  8
10
  6
CONTINUOUS
 10
291.2447184085846
 20
-18.80000000000001
 11
290.3626676010157
 21
-18.80000000000001
  0
LINE
  8
10
  6
CONTINUOUS
 10
293.8267692161535
 20
-19.30000000000001
 11
292.9447184085846
 21
-19.30000000000001
  0
LINE
  8
10
  6
CONTINUOUS
 10
291.2447184085846
 20
-19.30000000000001
 11
290.3626676010157
 21
-19.30000000000001
  0
ARC
  8
10
  6
CONTINUOUS
 10
291.2447184085846
 20
-18.19999999999999
 40
0.6
 50
270.0
 51
0.0
  0
ARC
  8
10
  6
CONTINUOUS
 10
291.2447184085846
 20
-19.89999999999998
 40
0.6
 50
0.0
 51
90.0
  0
ARC
  8
10
  6
CONTINUOUS
 10
292.9447184085846
 20
-19.89999999999998
 40
0.6
 50
90.0
 51
180.0
  0
ARC
  8
10
  6
CONTINUOUS
 10
292.9447184085846
 20
-18.19999999999999
 40
0.6
 50
180.0
 51
270.0
  0
CIRCLE
  8
10
  6
CONTINUOUS
 10
292.0947184085846
 20
-11.43000000000001
 40
2.75
  0
ARC
  8
10
  6
CONTINUOUS
 10
292.0947184085846
 20
-11.43000000000001
 40
1.75
 50
90.0
 51
98.21321070173811
  0
ARC
  8
10
  6
CONTINUOUS
 10
292.0947184085846
 20
-11.43000000000001
 40
1.75
 50
171.7867892982619
 51
188.2132107017381
  0
ARC
  8
10
  6
CONTINUOUS
 10
292.0947184085846
 20
-11.43000000000001
 40
1.75
 50
261.7867892982619
 51
278.2132107017381
  0
ARC
  8
10
  6
CONTINUOUS
 10
292.0947184085846
 20
-11.43000000000001
 40
1.75
 50
351.7867892982619
 51
8.213210701738101
  0
ARC
  8
10
  6
CONTINUOUS
 10
292.0947184085846
 20
-11.43000000000001
 40
1.75
 50
81.78678929826191
 51
90.0
  0
LINE
  8
10
  6
CONTINUOUS
 10
291.8447184085846
 20
-13.1620508075689
 11
291.8447184085846
 21
-12.28000000000003
  0
LINE
  8
10
  6
CONTINUOUS
 10
291.8447184085846
 20
-10.57999999999998
 11
291.8447184085846
 21
-9.697949192431111
  0
LINE
  8
10
  6
CONTINUOUS
 10
292.3447184085846
 20
-13.1620508075689
 11
292.3447184085846
 21
-12.28000000000003
  0
LINE
  8
10
  6
CONTINUOUS
 10
292.3447184085846
 20
-10.57999999999998
 11
292.3447184085846
 21
-9.697949192431111
  0
LINE
  8
10
  6
CONTINUOUS
 10
293.8267692161535
 20
-11.18000000000001
 11
292.9447184085846
 21
-11.18000000000001
  0
LINE
  8
10
  6
CONTINUOUS
 10
291.2447184085846
 20
-11.18000000000001
 11
290.3626676010157
 21
-11.18000000000001
  0
LINE
  8
10
  6
CONTINUOUS
 10
293.8267692161535
 20
-11.68000000000001
 11
292.9447184085846
 21
-11.68000000000001
  0
LINE
  8
10
  6
CONTINUOUS
 10
291.2447184085846
 20
-11.68000000000001
 11
290.3626676010157
 21
-11.68000000000001
  0
ARC
  8
10
  6
CONTINUOUS
 10
291.2447184085846
 20
-10.57999999999998
 40
0.6
 50
270.0
 51
0.0
  0
ARC
  8
10
  6
CONTINUOUS
 10
291.2447184085846
 20
-12.28000000000003
 40
0.6
 50
0.0
 51
90.0
  0
ARC
  8
10
  6
CONTINUOUS
 10
292.9447184085846
 20
-12.28000000000003
 40
0.6
 50
90.0
 51
180.0
  0
ARC
  8
10
  6
CONTINUOUS
 10
292.9447184085846
 20
-10.57999999999998
 40
0.6
 50
180.0
 51
270.0
  0
CIRCLE
  8
10
  6
CONTINUOUS
 10
292.0947184085846
 20
-3.810000000000002
 40
2.75
  0
ARC
  8
10
  6
CONTINUOUS
 10
292.0947184085846
 20
-3.810000000000002
 40
1.75
 50
90.0
 51
98.21321070173811
  0
ARC
  8
10
  6
CONTINUOUS
 10
292.0947184085846
 20
-3.810000000000002
 40
1.75
 50
171.7867892982619
 51
188.2132107017381
  0
ARC
  8
10
  6
CONTINUOUS
 10
292.0947184085846
 20
-3.810000000000002
 40
1.75
 50
261.7867892982619
 51
278.2132107017381
  0
ARC
  8
10
  6
CONTINUOUS
 10
292.0947184085846
 20
-3.810000000000002
 40
1.75
 50
351.7867892982619
 51
8.213210701738101
  0
ARC
  8
10
  6
CONTINUOUS
 10
292.0947184085846
 20
-3.810000000000002
 40
1.75
 50
81.78678929826191
 51
90.0
  0
LINE
  8
10
  6
CONTINUOUS
 10
291.8447184085846
 20
-5.542050807568899
 11
291.8447184085846
 21
-4.660000000000025
  0
LINE
  8
10
  6
CONTINUOUS
 10
291.8447184085846
 20
-2.95999999999998
 11
291.8447184085846
 21
-2.077949192431106
  0
LINE
  8
10
  6
CONTINUOUS
 10
292.3447184085846
 20
-5.542050807568899
 11
292.3447184085846
 21
-4.660000000000025
  0
LINE
  8
10
  6
CONTINUOUS
 10
292.3447184085846
 20
-2.95999999999998
 11
292.3447184085846
 21
-2.077949192431106
  0
LINE
  8
10
  6
CONTINUOUS
 10
293.8267692161535
 20
-3.560000000000002
 11
292.9447184085846
 21
-3.560000000000002
  0
LINE
  8
10
  6
CONTINUOUS
 10
291.2447184085846
 20
-3.560000000000002
 11
290.3626676010157
 21
-3.560000000000002
  0
LINE
  8
10
  6
CONTINUOUS
 10
293.8267692161535
 20
-4.060000000000002
 11
292.9447184085846
 21
-4.060000000000002
  0
LINE
  8
10
  6
CONTINUOUS
 10
291.2447184085846
 20
-4.060000000000002
 11
290.3626676010157
 21
-4.060000000000002
  0
ARC
  8
10
  6
CONTINUOUS
 10
291.2447184085846
 20
-2.95999999999998
 40
0.6
 50
270.0
 51
0.0
  0
ARC
  8
10
  6
CONTINUOUS
 10
291.2447184085846
 20
-4.660000000000025
 40
0.6
 50
0.0
 51
90.0
  0
ARC
  8
10
  6
CONTINUOUS
 10
292.9447184085846
 20
-4.660000000000025
 40
0.6
 50
90.0
 51
180.0
  0
ARC
  8
10
  6
CONTINUOUS
 10
292.9447184085846
 20
-2.95999999999998
 40
0.6
 50
180.0
 51
270.0
  0
CIRCLE
  8
10
  6
CONTINUOUS
 10
292.0947184085846
 20
3.810000000000002
 40
2.75
  0
ARC
  8
10
  6
CONTINUOUS
 10
292.0947184085846
 20
3.810000000000002
 40
1.75
 50
90.0
 51
98.21321070173811
  0
ARC
  8
10
  6
CONTINUOUS
 10
292.0947184085846
 20
3.810000000000002
 40
1.75
 50
171.7867892982619
 51
188.2132107017381
  0
ARC
  8
10
  6
CONTINUOUS
 10
292.0947184085846
 20
3.810000000000002
 40
1.75
 50
261.7867892982619
 51
278.2132107017381
  0
ARC
  8
10
  6
CONTINUOUS
 10
292.0947184085846
 20
3.810000000000002
 40
1.75
 50
351.7867892982619
 51
8.213210701738101
  0
ARC
  8
10
  6
CONTINUOUS
 10
292.0947184085846
 20
3.810000000000002
 40
1.75
 50
81.78678929826191
 51
90.0
  0
LINE
  8
10
  6
CONTINUOUS
 10
291.8447184085846
 20
2.077949192431106
 11
291.8447184085846
 21
2.95999999999998
  0
LINE
  8
10
  6
CONTINUOUS
 10
291.8447184085846
 20
4.660000000000025
 11
291.8447184085846
 21
5.542050807568899
  0
LINE
  8
10
  6
CONTINUOUS
 10
292.3447184085846
 20
2.077949192431106
 11
292.3447184085846
 21
2.95999999999998
  0
LINE
  8
10
  6
CONTINUOUS
 10
292.3447184085846
 20
4.660000000000025
 11
292.3447184085846
 21
5.542050807568899
  0
LINE
  8
10
  6
CONTINUOUS
 10
293.8267692161535
 20
4.060000000000002
 11
292.9447184085846
 21
4.060000000000002
  0
LINE
  8
10
  6
CONTINUOUS
 10
291.2447184085846
 20
4.060000000000002
 11
290.3626676010157
 21
4.060000000000002
  0
LINE
  8
10
  6
CONTINUOUS
 10
293.8267692161535
 20
3.560000000000002
 11
292.9447184085846
 21
3.560000000000002
  0
LINE
  8
10
  6
CONTINUOUS
 10
291.2447184085846
 20
3.560000000000002
 11
290.3626676010157
 21
3.560000000000002
  0
ARC
  8
10
  6
CONTINUOUS
 10
291.2447184085846
 20
4.660000000000025
 40
0.6
 50
270.0
 51
0.0
  0
ARC
  8
10
  6
CONTINUOUS
 10
291.2447184085846
 20
2.95999999999998
 40
0.6
 50
0.0
 51
90.0
  0
ARC
  8
10
  6
CONTINUOUS
 10
292.9447184085846
 20
2.95999999999998
 40
0.6
 50
90.0
 51
180.0
  0
ARC
  8
10
  6
CONTINUOUS
 10
292.9447184085846
 20
4.660000000000025
 40
0.6
 50
180.0
 51
270.0
  0
CIRCLE
  8
10
  6
CONTINUOUS
 10
292.0947184085846
 20
11.43000000000001
 40
2.75
  0
ARC
  8
10
  6
CONTINUOUS
 10
292.0947184085846
 20
11.43000000000001
 40
1.75
 50
90.0
 51
98.21321070173811
  0
ARC
  8
10
  6
CONTINUOUS
 10
292.0947184085846
 20
11.43000000000001
 40
1.75
 50
171.7867892982619
 51
188.2132107017381
  0
ARC
  8
10
  6
CONTINUOUS
 10
292.0947184085846
 20
11.43000000000001
 40
1.75
 50
261.7867892982619
 51
278.2132107017381
  0
ARC
  8
10
  6
CONTINUOUS
 10
292.0947184085846
 20
11.43000000000001
 40
1.75
 50
351.7867892982619
 51
8.213210701738101
  0
ARC
  8
10
  6
CONTINUOUS
 10
292.0947184085846
 20
11.43000000000001
 40
1.75
 50
81.78678929826191
 51
90.0
  0
LINE
  8
10
  6
CONTINUOUS
 10
291.8447184085846
 20
9.697949192431111
 11
291.8447184085846
 21
10.57999999999998
  0
LINE
  8
10
  6
CONTINUOUS
 10
291.8447184085846
 20
12.28000000000003
 11
291.8447184085846
 21
13.1620508075689
  0
LINE
  8
10
  6
CONTINUOUS
 10
292.3447184085846
 20
9.697949192431111
 11
292.3447184085846
 21
10.57999999999998
  0
LINE
  8
10
  6
CONTINUOUS
 10
292.3447184085846
 20
12.28000000000003
 11
292.3447184085846
 21
13.1620508075689
  0
LINE
  8
10
  6
CONTINUOUS
 10
293.8267692161535
 20
11.68000000000001
 11
292.9447184085846
 21
11.68000000000001
  0
LINE
  8
10
  6
CONTINUOUS
 10
291.2447184085846
 20
11.68000000000001
 11
290.3626676010157
 21
11.68000000000001
  0
LINE
  8
10
  6
CONTINUOUS
 10
293.8267692161535
 20
11.18000000000001
 11
292.9447184085846
 21
11.18000000000001
  0
LINE
  8
10
  6
CONTINUOUS
 10
291.2447184085846
 20
11.18000000000001
 11
290.3626676010157
 21
11.18000000000001
  0
ARC
  8
10
  6
CONTINUOUS
 10
291.2447184085846
 20
12.28000000000003
 40
0.6
 50
270.0
 51
0.0
  0
ARC
  8
10
  6
CONTINUOUS
 10
291.2447184085846
 20
10.57999999999998
 40
0.6
 50
0.0
 51
90.0
  0
ARC
  8
10
  6
CONTINUOUS
 10
292.9447184085846
 20
10.57999999999998
 40
0.6
 50
90.0
 51
180.0
  0
ARC
  8
10
  6
CONTINUOUS
 10
292.9447184085846
 20
12.28000000000003
 40
0.6
 50
180.0
 51
270.0
  0
CIRCLE
  8
10
  6
CONTINUOUS
 10
292.0947184085846
 20
19.05000000000001
 40
2.75
  0
ARC
  8
10
  6
CONTINUOUS
 10
292.0947184085846
 20
19.05000000000001
 40
1.75
 50
90.0
 51
98.21321070173811
  0
ARC
  8
10
  6
CONTINUOUS
 10
292.0947184085846
 20
19.05000000000001
 40
1.75
 50
171.7867892982619
 51
188.2132107017381
  0
ARC
  8
10
  6
CONTINUOUS
 10
292.0947184085846
 20
19.05000000000001
 40
1.75
 50
261.7867892982619
 51
278.2132107017381
  0
ARC
  8
10
  6
CONTINUOUS
 10
292.0947184085846
 20
19.05000000000001
 40
1.75
 50
351.7867892982619
 51
8.213210701738101
  0
ARC
  8
10
  6
CONTINUOUS
 10
292.0947184085846
 20
19.05000000000001
 40
1.75
 50
81.78678929826191
 51
90.0
  0
LINE
  8
10
  6
CONTINUOUS
 10
291.8447184085846
 20
17.31794919243112
 11
291.8447184085846
 21
18.19999999999999
  0
LINE
  8
10
  6
CONTINUOUS
 10
291.8447184085846
 20
19.90000000000003
 11
291.8447184085846
 21
20.78205080756891
  0
LINE
  8
10
  6
CONTINUOUS
 10
292.3447184085846
 20
17.31794919243112
 11
292.3447184085846
 21
18.19999999999999
  0
LINE
  8
10
  6
CONTINUOUS
 10
292.3447184085846
 20
19.90000000000003
 11
292.3447184085846
 21
20.78205080756891
  0
LINE
  8
10
  6
CONTINUOUS
 10
293.8267692161535
 20
19.30000000000001
 11
292.9447184085846
 21
19.30000000000001
  0
LINE
  8
10
  6
CONTINUOUS
 10
291.2447184085846
 20
19.30000000000001
 11
290.3626676010157
 21
19.30000000000001
  0
LINE
  8
10
  6
CONTINUOUS
 10
293.8267692161535
 20
18.80000000000001
 11
292.9447184085846
 21
18.80000000000001
  0
LINE
  8
10
  6
CONTINUOUS
 10
291.2447184085846
 20
18.80000000000001
 11
290.3626676010157
 21
18.80000000000001
  0
ARC
  8
10
  6
CONTINUOUS
 10
291.2447184085846
 20
19.90000000000003
 40
0.6
 50
270.0
 51
0.0
  0
ARC
  8
10
  6
CONTINUOUS
 10
291.2447184085846
 20
18.19999999999999
 40
0.6
 50
0.0
 51
90.0
  0
ARC
  8
10
  6
CONTINUOUS
 10
292.9447184085846
 20
18.19999999999999
 40
0.6
 50
90.0
 51
180.0
  0
ARC
  8
10
  6
CONTINUOUS
 10
292.9447184085846
 20
19.90000000000003
 40
0.6
 50
180.0
 51
270.0
  0
CIRCLE
  8
10
  6
CONTINUOUS
 10
292.0947184085846
 20
26.67000000000002
 40
2.75
  0
ARC
  8
10
  6
CONTINUOUS
 10
292.0947184085846
 20
26.67000000000002
 40
1.75
 50
90.0
 51
98.21321070173811
  0
ARC
  8
10
  6
CONTINUOUS
 10
292.0947184085846
 20
26.67000000000002
 40
1.75
 50
171.7867892982619
 51
188.2132107017381
  0
ARC
  8
10
  6
CONTINUOUS
 10
292.0947184085846
 20
26.67000000000002
 40
1.75
 50
261.7867892982619
 51
278.2132107017381
  0
ARC
  8
10
  6
CONTINUOUS
 10
292.0947184085846
 20
26.67000000000002
 40
1.75
 50
351.7867892982619
 51
8.213210701738101
  0
ARC
  8
10
  6
CONTINUOUS
 10
292.0947184085846
 20
26.67000000000002
 40
1.75
 50
81.78678929826191
 51
90.0
  0
LINE
  8
10
  6
CONTINUOUS
 10
291.8447184085846
 20
24.93794919243112
 11
291.8447184085846
 21
25.81999999999999
  0
LINE
  8
10
  6
CONTINUOUS
 10
291.8447184085846
 20
27.52000000000004
 11
291.8447184085846
 21
28.40205080756891
  0
LINE
  8
10
  6
CONTINUOUS
 10
292.3447184085846
 20
24.93794919243112
 11
292.3447184085846
 21
25.81999999999999
  0
LINE
  8
10
  6
CONTINUOUS
 10
292.3447184085846
 20
27.52000000000004
 11
292.3447184085846
 21
28.40205080756891
  0
LINE
  8
10
  6
CONTINUOUS
 10
293.8267692161535
 20
26.92000000000002
 11
292.9447184085846
 21
26.92000000000002
  0
LINE
  8
10
  6
CONTINUOUS
 10
291.2447184085846
 20
26.92000000000002
 11
290.3626676010157
 21
26.92000000000002
  0
LINE
  8
10
  6
CONTINUOUS
 10
293.8267692161535
 20
26.42000000000002
 11
292.9447184085846
 21
26.42000000000002
  0
LINE
  8
10
  6
CONTINUOUS
 10
291.2447184085846
 20
26.42000000000002
 11
290.3626676010157
 21
26.42000000000002
  0
ARC
  8
10
  6
CONTINUOUS
 10
291.2447184085846
 20
27.52000000000004
 40
0.6
 50
270.0
 51
0.0
  0
ARC
  8
10
  6
CONTINUOUS
 10
291.2447184085846
 20
25.81999999999999
 40
0.6
 50
0.0
 51
90.0
  0
ARC
  8
10
  6
CONTINUOUS
 10
292.9447184085846
 20
25.81999999999999
 40
0.6
 50
90.0
 51
180.0
  0
ARC
  8
10
  6
CONTINUOUS
 10
292.9447184085846
 20
27.52000000000004
 40
0.6
 50
180.0
 51
270.0
  0
LINE
  8
12
  6
CONTINUOUS
 10
287.0947184085846
 20
27.33000000000004
 11
278.0947184085846
 21
27.33000000000004
  0
LINE
  8
12
  6
CONTINUOUS
 10
287.0947184085846
 20
26.00999999999999
 11
278.0947184085846
 21
26.00999999999999
  0
LINE
  8
12
  6
CONTINUOUS
 10
287.0947184085846
 20
19.71000000000004
 11
278.0947184085846
 21
19.71000000000004
  0
LINE
  8
12
  6
CONTINUOUS
 10
287.0947184085846
 20
18.38999999999999
 11
278.0947184085846
 21
18.38999999999999
  0
LINE
  8
12
  6
CONTINUOUS
 10
287.0947184085846
 20
12.09000000000003
 11
278.0947184085846
 21
12.09000000000003
  0
LINE
  8
12
  6
CONTINUOUS
 10
287.0947184085846
 20
10.76999999999998
 11
278.0947184085846
 21
10.76999999999998
  0
LINE
  8
12
  6
CONTINUOUS
 10
287.0947184085846
 20
4.470000000000027
 11
278.0947184085846
 21
4.470000000000027
  0
LINE
  8
12
  6
CONTINUOUS
 10
287.0947184085846
 20
3.149999999999977
 11
278.0947184085846
 21
3.149999999999977
  0
LINE
  8
12
  6
CONTINUOUS
 10
287.0947184085846
 20
-3.149999999999977
 11
278.0947184085846
 21
-3.149999999999977
  0
LINE
  8
12
  6
CONTINUOUS
 10
287.0947184085846
 20
-4.470000000000027
 11
278.0947184085846
 21
-4.470000000000027
  0
LINE
  8
12
  6
CONTINUOUS
 10
287.0947184085846
 20
-10.76999999999998
 11
278.0947184085846
 21
-10.76999999999998
  0
LINE
  8
12
  6
CONTINUOUS
 10
287.0947184085846
 20
-12.09000000000003
 11
278.0947184085846
 21
-12.09000000000003
  0
LINE
  8
12
  6
CONTINUOUS
 10
287.0947184085846
 20
-18.38999999999999
 11
278.0947184085846
 21
-18.38999999999999
  0
LINE
  8
12
  6
CONTINUOUS
 10
287.0947184085846
 20
-19.71000000000004
 11
278.0947184085846
 21
-19.71000000000004
  0
LINE
  8
12
  6
CONTINUOUS
 10
287.0947184085846
 20
-26.00999999999999
 11
278.0947184085846
 21
-26.00999999999999
  0
LINE
  8
12
  6
CONTINUOUS
 10
287.0947184085846
 20
-27.32999999999998
 11
278.0947184085846
 21
-27.32999999999998
  0
LINE
  8
12
  6
CONTINUOUS
 10
296.0947184085846
 20
-29.81999999999999
 11
287.0947184085846
 21
-29.81999999999999
  0
LINE
  8
12
  6
CONTINUOUS
 10
296.0947184085846
 20
-31.13999999999999
 11
287.0947184085846
 21
-31.13999999999999
  0
LINE
  8
12
  6
CONTINUOUS
 10
296.0947184085846
 20
-23.51999999999998
 11
287.0947184085846
 21
-23.51999999999998
  0
LINE
  8
12
  6
CONTINUOUS
 10
296.0947184085846
 20
-22.19999999999999
 11
287.0947184085846
 21
-22.19999999999999
  0
LINE
  8
12
  6
CONTINUOUS
 10
296.0947184085846
 20
-15.90000000000003
 11
287.0947184085846
 21
-15.90000000000003
  0
LINE
  8
12
  6
CONTINUOUS
 10
296.0947184085846
 20
-14.57999999999998
 11
287.0947184085846
 21
-14.57999999999998
  0
LINE
  8
12
  6
CONTINUOUS
 10
296.0947184085846
 20
-8.28000000000003
 11
287.0947184085846
 21
-8.28000000000003
  0
LINE
  8
12
  6
CONTINUOUS
 10
296.0947184085846
 20
-6.95999999999998
 11
287.0947184085846
 21
-6.95999999999998
  0
LINE
  8
12
  6
CONTINUOUS
 10
296.0947184085846
 20
-0.660000000000025
 11
287.0947184085846
 21
-0.660000000000025
  0
LINE
  8
12
  6
CONTINUOUS
 10
296.0947184085846
 20
0.660000000000025
 11
287.0947184085846
 21
0.660000000000025
  0
LINE
  8
12
  6
CONTINUOUS
 10
296.0947184085846
 20
6.95999999999998
 11
287.0947184085846
 21
6.95999999999998
  0
LINE
  8
12
  6
CONTINUOUS
 10
296.0947184085846
 20
8.28000000000003
 11
287.0947184085846
 21
8.28000000000003
  0
LINE
  8
12
  6
CONTINUOUS
 10
296.0947184085846
 20
14.57999999999998
 11
287.0947184085846
 21
14.57999999999998
  0
LINE
  8
12
  6
CONTINUOUS
 10
296.0947184085846
 20
15.90000000000003
 11
287.0947184085846
 21
15.90000000000003
  0
LINE
  8
12
  6
CONTINUOUS
 10
296.0947184085846
 20
22.19999999999999
 11
287.0947184085846
 21
22.19999999999999
  0
LINE
  8
12
  6
CONTINUOUS
 10
296.0947184085846
 20
23.52000000000004
 11
287.0947184085846
 21
23.52000000000004
  0
LINE
  8
12
  6
CONTINUOUS
 10
296.0947184085846
 20
29.81999999999999
 11
287.0947184085846
 21
29.81999999999999
  0
LINE
  8
12
  6
CONTINUOUS
 10
296.0947184085846
 20
31.14000000000004
 11
287.0947184085846
 21
31.14000000000004
  0
LINE
  8
12
  6
CONTINUOUS
 10
280.0947184085846
 20
-33.53999999999996
 11
280.0947184085846
 21
-33.48000000000002
  0
LINE
  8
12
  6
CONTINUOUS
 10
280.0947184085846
 20
-27.48000000000002
 11
280.0947184085846
 21
-27.32999999999998
  0
LINE
  8
12
  6
CONTINUOUS
 10
280.0947184085846
 20
-26.00999999999999
 11
280.0947184085846
 21
-19.71000000000004
  0
LINE
  8
12
  6
CONTINUOUS
 10
280.0947184085846
 20
-18.38999999999999
 11
280.0947184085846
 21
-12.09000000000003
  0
LINE
  8
12
  6
CONTINUOUS
 10
280.0947184085846
 20
-10.76999999999998
 11
280.0947184085846
 21
-4.470000000000027
  0
LINE
  8
12
  6
CONTINUOUS
 10
280.0947184085846
 20
-3.149999999999977
 11
280.0947184085846
 21
3.149999999999977
  0
LINE
  8
12
  6
CONTINUOUS
 10
280.0947184085846
 20
4.470000000000027
 11
280.0947184085846
 21
10.76999999999998
  0
LINE
  8
12
  6
CONTINUOUS
 10
280.0947184085846
 20
12.09000000000003
 11
280.0947184085846
 21
18.38999999999999
  0
LINE
  8
12
  6
CONTINUOUS
 10
280.0947184085846
 20
19.71000000000004
 11
280.0947184085846
 21
26.00999999999999
  0
LINE
  8
12
  6
CONTINUOUS
 10
280.0947184085846
 20
27.33000000000004
 11
280.0947184085846
 21
27.47999999999999
  0
LINE
  8
12
  6
CONTINUOUS
 10
280.0947184085846
 20
33.47999999999999
 11
280.0947184085846
 21
33.54000000000002
  0
LINE
  8
12
  6
CONTINUOUS
 10
286.0947184085846
 20
-33.53999999999996
 11
286.0947184085846
 21
-27.32999999999998
  0
LINE
  8
12
  6
CONTINUOUS
 10
286.0947184085846
 20
-26.00999999999999
 11
286.0947184085846
 21
-19.71000000000004
  0
LINE
  8
12
  6
CONTINUOUS
 10
286.0947184085846
 20
-18.38999999999999
 11
286.0947184085846
 21
-12.09000000000003
  0
LINE
  8
12
  6
CONTINUOUS
 10
286.0947184085846
 20
-10.76999999999998
 11
286.0947184085846
 21
-4.470000000000027
  0
LINE
  8
12
  6
CONTINUOUS
 10
286.0947184085846
 20
-3.149999999999977
 11
286.0947184085846
 21
3.149999999999977
  0
LINE
  8
12
  6
CONTINUOUS
 10
286.0947184085846
 20
4.470000000000027
 11
286.0947184085846
 21
10.76999999999998
  0
LINE
  8
12
  6
CONTINUOUS
 10
286.0947184085846
 20
12.09000000000003
 11
286.0947184085846
 21
18.38999999999999
  0
LINE
  8
12
  6
CONTINUOUS
 10
286.0947184085846
 20
19.71000000000004
 11
286.0947184085846
 21
26.00999999999999
  0
LINE
  8
12
  6
CONTINUOUS
 10
286.0947184085846
 20
27.33000000000004
 11
286.0947184085846
 21
33.54000000000002
  0
LINE
  8
12
  6
CONTINUOUS
 10
289.0947184085846
 20
-29.81999999999999
 11
289.0947184085846
 21
-23.51999999999998
  0
LINE
  8
12
  6
CONTINUOUS
 10
289.0947184085846
 20
-22.19999999999999
 11
289.0947184085846
 21
-15.90000000000003
  0
LINE
  8
12
  6
CONTINUOUS
 10
289.0947184085846
 20
-14.57999999999998
 11
289.0947184085846
 21
-8.28000000000003
  0
LINE
  8
12
  6
CONTINUOUS
 10
289.0947184085846
 20
-6.95999999999998
 11
289.0947184085846
 21
-0.660000000000025
  0
LINE
  8
12
  6
CONTINUOUS
 10
289.0947184085846
 20
0.660000000000025
 11
289.0947184085846
 21
6.95999999999998
  0
LINE
  8
12
  6
CONTINUOUS
 10
289.0947184085846
 20
8.28000000000003
 11
289.0947184085846
 21
14.57999999999998
  0
LINE
  8
12
  6
CONTINUOUS
 10
289.0947184085846
 20
15.90000000000003
 11
289.0947184085846
 21
22.19999999999999
  0
LINE
  8
12
  6
CONTINUOUS
 10
289.0947184085846
 20
23.52000000000004
 11
289.0947184085846
 21
29.81999999999999
  0
LINE
  8
12
  6
CONTINUOUS
 10
295.0947184085846
 20
-29.81999999999999
 11
295.0947184085846
 21
-23.51999999999998
  0
LINE
  8
12
  6
CONTINUOUS
 10
295.0947184085846
 20
-22.19999999999999
 11
295.0947184085846
 21
-15.90000000000003
  0
LINE
  8
12
  6
CONTINUOUS
 10
295.0947184085846
 20
-14.57999999999998
 11
295.0947184085846
 21
-8.28000000000003
  0
LINE
  8
12
  6
CONTINUOUS
 10
295.0947184085846
 20
-6.95999999999998
 11
295.0947184085846
 21
-0.660000000000025
  0
LINE
  8
12
  6
CONTINUOUS
 10
295.0947184085846
 20
0.660000000000025
 11
295.0947184085846
 21
6.95999999999998
  0
LINE
  8
12
  6
CONTINUOUS
 10
295.0947184085846
 20
8.28000000000003
 11
295.0947184085846
 21
14.57999999999998
  0
LINE
  8
12
  6
CONTINUOUS
 10
295.0947184085846
 20
15.90000000000003
 11
295.0947184085846
 21
22.19999999999999
  0
LINE
  8
12
  6
CONTINUOUS
 10
295.0947184085846
 20
23.52000000000004
 11
295.0947184085846
 21
29.81999999999999
  0
CIRCLE
  8
10
  6
CONTINUOUS
 10
283.0947184085846
 20
-30.46000000000002
 40
2.75
  0
ARC
  8
10
  6
CONTINUOUS
 10
283.0947184085846
 20
-30.46000000000002
 40
1.75
 50
90.0
 51
98.21321070173811
  0
ARC
  8
10
  6
CONTINUOUS
 10
283.0947184085846
 20
-30.46000000000002
 40
1.75
 50
171.7867892982617
 51
188.2132107017384
  0
ARC
  8
10
  6
CONTINUOUS
 10
283.0947184085846
 20
-30.46000000000002
 40
1.75
 50
261.7867892982616
 51
278.2132107017384
  0
ARC
  8
10
  6
CONTINUOUS
 10
283.0947184085846
 20
-30.46000000000002
 40
1.75
 50
351.7867892982619
 51
8.213210701738101
  0
ARC
  8
10
  6
CONTINUOUS
 10
283.0947184085846
 20
-30.46000000000002
 40
1.75
 50
81.78678929826191
 51
90.0
  0
LINE
  8
10
  6
CONTINUOUS
 10
282.8447184085846
 20
-32.19205080756886
 11
282.8447184085846
 21
-31.30999999999998
  0
LINE
  8
10
  6
CONTINUOUS
 10
282.8447184085846
 20
-29.60999999999999
 11
282.8447184085846
 21
-28.72794919243112
  0
LINE
  8
10
  6
CONTINUOUS
 10
283.3447184085846
 20
-32.19205080756886
 11
283.3447184085846
 21
-31.30999999999998
  0
LINE
  8
10
  6
CONTINUOUS
 10
283.3447184085846
 20
-29.60999999999999
 11
283.3447184085846
 21
-28.72794919243112
  0
LINE
  8
10
  6
CONTINUOUS
 10
284.8267692161535
 20
-30.21000000000002
 11
283.9447184085846
 21
-30.21000000000002
  0
LINE
  8
10
  6
CONTINUOUS
 10
282.2447184085846
 20
-30.21000000000002
 11
281.3626676010157
 21
-30.21000000000002
  0
LINE
  8
10
  6
CONTINUOUS
 10
284.8267692161535
 20
-30.71000000000002
 11
283.9447184085846
 21
-30.71000000000002
  0
LINE
  8
10
  6
CONTINUOUS
 10
282.2447184085846
 20
-30.71000000000002
 11
281.3626676010157
 21
-30.71000000000002
  0
ARC
  8
10
  6
CONTINUOUS
 10
282.2447184085846
 20
-29.60999999999999
 40
0.6
 50
270.0
 51
0.0
  0
ARC
  8
10
  6
CONTINUOUS
 10
282.2447184085846
 20
-31.30999999999998
 40
0.6
 50
0.0
 51
90.0
  0
ARC
  8
10
  6
CONTINUOUS
 10
283.9447184085846
 20
-31.30999999999998
 40
0.6
 50
90.0
 51
180.0
  0
ARC
  8
10
  6
CONTINUOUS
 10
283.9447184085846
 20
-29.60999999999999
 40
0.6
 50
180.0
 51
270.0
  0
LINE
  8
15
  6
CONTINUOUS
 10
286.5947184085546
 20
-33.48000000000002
 11
286.5947184085546
 21
-27.48000000000002
  0
LINE
  8
15
  6
CONTINUOUS
 10
286.5947184085546
 20
-27.48000000000002
 11
267.3947184085546
 21
-27.48000000000002
  0
LINE
  8
15
  6
CONTINUOUS
 10
286.5947184085546
 20
-33.48000000000002
 11
267.3947184085546
 21
-33.48000000000002
  0
LINE
  8
15
  6
CONTINUOUS
 10
275.7947184085546
 20
-33.48000000000002
 11
275.7947184085546
 21
-27.48000000000002
  0
LINE
  8
15
  6
CONTINUOUS
 10
267.3947184085546
 20
-33.48000000000002
 11
267.3947184085546
 21
-27.48000000000002
  0
LINE
  8
15
  6
CONTINUOUS
 10
286.5947184085546
 20
27.47999999999999
 11
286.5947184085546
 21
33.47999999999999
  0
LINE
  8
15
  6
CONTINUOUS
 10
286.5947184085546
 20
33.47999999999999
 11
267.3947184085546
 21
33.47999999999999
  0
LINE
  8
15
  6
CONTINUOUS
 10
286.5947184085546
 20
27.47999999999999
 11
267.3947184085546
 21
27.47999999999999
  0
LINE
  8
15
  6
CONTINUOUS
 10
275.7947184085546
 20
27.47999999999999
 11
275.7947184085546
 21
33.47999999999999
  0
LINE
  8
15
  6
CONTINUOUS
 10
267.3947184085546
 20
27.47999999999999
 11
267.3947184085546
 21
33.47999999999999
  0
CIRCLE
  8
10
  6
CONTINUOUS
 10
283.0947184085846
 20
30.46000000000002
 40
2.75
  0
ARC
  8
10
  6
CONTINUOUS
 10
283.0947184085846
 20
30.46000000000002
 40
1.75
 50
90.0
 51
98.21321070173811
  0
ARC
  8
10
  6
CONTINUOUS
 10
283.0947184085846
 20
30.46000000000002
 40
1.75
 50
171.7867892982617
 51
188.2132107017384
  0
ARC
  8
10
  6
CONTINUOUS
 10
283.0947184085846
 20
30.46000000000002
 40
1.75
 50
261.7867892982619
 51
278.2132107017381
  0
ARC
  8
10
  6
CONTINUOUS
 10
283.0947184085846
 20
30.46000000000002
 40
1.75
 50
351.7867892982619
 51
8.213210701738101
  0
ARC
  8
10
  6
CONTINUOUS
 10
283.0947184085846
 20
30.46000000000002
 40
1.75
 50
81.78678929826191
 51
90.0
  0
LINE
  8
10
  6
CONTINUOUS
 10
282.8447184085846
 20
28.72794919243112
 11
282.8447184085846
 21
29.60999999999999
  0
LINE
  8
10
  6
CONTINUOUS
 10
282.8447184085846
 20
31.31000000000004
 11
282.8447184085846
 21
32.19205080756891
  0
LINE
  8
10
  6
CONTINUOUS
 10
283.3447184085846
 20
28.72794919243112
 11
283.3447184085846
 21
29.60999999999999
  0
LINE
  8
10
  6
CONTINUOUS
 10
283.3447184085846
 20
31.31000000000004
 11
283.3447184085846
 21
32.19205080756891
  0
LINE
  8
10
  6
CONTINUOUS
 10
284.8267692161535
 20
30.71000000000002
 11
283.9447184085846
 21
30.71000000000002
  0
LINE
  8
10
  6
CONTINUOUS
 10
282.2447184085846
 20
30.71000000000002
 11
281.3626676010157
 21
30.71000000000002
  0
LINE
  8
10
  6
CONTINUOUS
 10
284.8267692161535
 20
30.21000000000002
 11
283.9447184085846
 21
30.21000000000002
  0
LINE
  8
10
  6
CONTINUOUS
 10
282.2447184085846
 20
30.21000000000002
 11
281.3626676010157
 21
30.21000000000002
  0
ARC
  8
10
  6
CONTINUOUS
 10
282.2447184085846
 20
31.31000000000004
 40
0.6
 50
270.0
 51
0.0
  0
ARC
  8
10
  6
CONTINUOUS
 10
282.2447184085846
 20
29.60999999999999
 40
0.6
 50
0.0
 51
90.0
  0
ARC
  8
10
  6
CONTINUOUS
 10
283.9447184085846
 20
29.60999999999999
 40
0.6
 50
90.0
 51
180.0
  0
ARC
  8
10
  6
CONTINUOUS
 10
283.9447184085846
 20
31.31000000000004
 40
0.6
 50
180.0
 51
270.0
  0
CIRCLE
  8
10
  6
CONTINUOUS
 10
271.3947184085846
 20
30.46000000000002
 40
2.75
  0
ARC
  8
10
  6
CONTINUOUS
 10
271.3947184085846
 20
30.46000000000002
 40
1.75
 50
90.0
 51
98.21321070173811
  0
ARC
  8
10
  6
CONTINUOUS
 10
271.3947184085846
 20
30.46000000000002
 40
1.75
 50
171.7867892982617
 51
188.2132107017384
  0
ARC
  8
10
  6
CONTINUOUS
 10
271.3947184085846
 20
30.46000000000002
 40
1.75
 50
261.7867892982619
 51
278.2132107017381
  0
ARC
  8
10
  6
CONTINUOUS
 10
271.3947184085846
 20
30.46000000000002
 40
1.75
 50
351.7867892982619
 51
8.213210701738101
  0
ARC
  8
10
  6
CONTINUOUS
 10
271.3947184085846
 20
30.46000000000002
 40
1.75
 50
81.78678929826191
 51
90.0
  0
LINE
  8
10
  6
CONTINUOUS
 10
271.1447184085846
 20
28.72794919243112
 11
271.1447184085846
 21
29.60999999999999
  0
LINE
  8
10
  6
CONTINUOUS
 10
271.1447184085846
 20
31.31000000000004
 11
271.1447184085846
 21
32.19205080756891
  0
LINE
  8
10
  6
CONTINUOUS
 10
271.6447184085846
 20
28.72794919243112
 11
271.6447184085846
 21
29.60999999999999
  0
LINE
  8
10
  6
CONTINUOUS
 10
271.6447184085846
 20
31.31000000000004
 11
271.6447184085846
 21
32.19205080756891
  0
LINE
  8
10
  6
CONTINUOUS
 10
273.1267692161535
 20
30.71000000000002
 11
272.2447184085846
 21
30.71000000000002
  0
LINE
  8
10
  6
CONTINUOUS
 10
270.5447184085846
 20
30.71000000000002
 11
269.6626676010158
 21
30.71000000000002
  0
LINE
  8
10
  6
CONTINUOUS
 10
273.1267692161535
 20
30.21000000000002
 11
272.2447184085846
 21
30.21000000000002
  0
LINE
  8
10
  6
CONTINUOUS
 10
270.5447184085846
 20
30.21000000000002
 11
269.6626676010158
 21
30.21000000000002
  0
ARC
  8
10
  6
CONTINUOUS
 10
270.5447184085846
 20
31.31000000000004
 40
0.6
 50
270.0
 51
0.0
  0
ARC
  8
10
  6
CONTINUOUS
 10
270.5447184085846
 20
29.60999999999999
 40
0.6
 50
0.0
 51
90.0
  0
ARC
  8
10
  6
CONTINUOUS
 10
272.2447184085846
 20
29.60999999999999
 40
0.6
 50
90.0
 51
180.0
  0
ARC
  8
10
  6
CONTINUOUS
 10
272.2447184085846
 20
31.31000000000004
 40
0.6
 50
180.0
 51
270.0
  0
CIRCLE
  8
10
  6
CONTINUOUS
 10
271.3947184085846
 20
-30.46000000000002
 40
2.75
  0
ARC
  8
10
  6
CONTINUOUS
 10
271.3947184085846
 20
-30.46000000000002
 40
1.75
 50
90.0
 51
98.21321070173811
  0
ARC
  8
10
  6
CONTINUOUS
 10
271.3947184085846
 20
-30.46000000000002
 40
1.75
 50
171.7867892982617
 51
188.2132107017384
  0
ARC
  8
10
  6
CONTINUOUS
 10
271.3947184085846
 20
-30.46000000000002
 40
1.75
 50
261.7867892982616
 51
278.2132107017384
  0
ARC
  8
10
  6
CONTINUOUS
 10
271.3947184085846
 20
-30.46000000000002
 40
1.75
 50
351.7867892982619
 51
8.213210701738101
  0
ARC
  8
10
  6
CONTINUOUS
 10
271.3947184085846
 20
-30.46000000000002
 40
1.75
 50
81.78678929826191
 51
90.0
  0
LINE
  8
10
  6
CONTINUOUS
 10
271.1447184085846
 20
-32.19205080756886
 11
271.1447184085846
 21
-31.30999999999998
  0
LINE
  8
10
  6
CONTINUOUS
 10
271.1447184085846
 20
-29.60999999999999
 11
271.1447184085846
 21
-28.72794919243112
  0
LINE
  8
10
  6
CONTINUOUS
 10
271.6447184085846
 20
-32.19205080756886
 11
271.6447184085846
 21
-31.30999999999998
  0
LINE
  8
10
  6
CONTINUOUS
 10
271.6447184085846
 20
-29.60999999999999
 11
271.6447184085846
 21
-28.72794919243112
  0
LINE
  8
10
  6
CONTINUOUS
 10
273.1267692161535
 20
-30.21000000000002
 11
272.2447184085846
 21
-30.21000000000002
  0
LINE
  8
10
  6
CONTINUOUS
 10
270.5447184085846
 20
-30.21000000000002
 11
269.6626676010158
 21
-30.21000000000002
  0
LINE
  8
10
  6
CONTINUOUS
 10
273.1267692161535
 20
-30.71000000000002
 11
272.2447184085846
 21
-30.71000000000002
  0
LINE
  8
10
  6
CONTINUOUS
 10
270.5447184085846
 20
-30.71000000000002
 11
269.6626676010158
 21
-30.71000000000002
  0
ARC
  8
10
  6
CONTINUOUS
 10
270.5447184085846
 20
-29.60999999999999
 40
0.6
 50
270.0
 51
0.0
  0
ARC
  8
10
  6
CONTINUOUS
 10
270.5447184085846
 20
-31.30999999999998
 40
0.6
 50
0.0
 51
90.0
  0
ARC
  8
10
  6
CONTINUOUS
 10
272.2447184085846
 20
-31.30999999999998
 40
0.6
 50
90.0
 51
180.0
  0
ARC
  8
10
  6
CONTINUOUS
 10
272.2447184085846
 20
-29.60999999999999
 40
0.6
 50
180.0
 51
270.0
  0
INSERT
  8
30
  6
CONTINUOUS
  2
COMP16
 10
0.0
 20
0.0
 41
1.0
 42
1.0
 50
0.0
  0
INSERT
  8
20
  6
CONTINUOUS
  2
COMP17
 10
0.0
 20
0.0
 41
1.0
 42
1.0
 50
0.0
  0
INSERT
  8
20
  6
CONTINUOUS
  2
COMP18
 10
0.0
 20
0.0
 41
1.0
 42
1.0
 50
0.0
  0
INSERT
  8
20
  6
CONTINUOUS
  2
COMP19
 10
0.0
 20
0.0
 41
1.0
 42
1.0
 50
0.0
  0
INSERT
  8
20
  6
CONTINUOUS
  2
COMP20
 10
0.0
 20
0.0
 41
1.0
 42
1.0
 50
0.0
  0
INSERT
  8
20
  6
CONTINUOUS
  2
COMP21
 10
0.0
 20
0.0
 41
1.0
 42
1.0
 50
0.0
  0
INSERT
  8
20
  6
CONTINUOUS
  2
COMP22
 10
0.0
 20
0.0
 41
1.0
 42
1.0
 50
0.0
  0
INSERT
  8
20
  6
CONTINUOUS
  2
COMP23
 10
0.0
 20
0.0
 41
1.0
 42
1.0
 50
0.0
  0
INSERT
  8
20
  6
CONTINUOUS
  2
COMP24
 10
0.0
 20
0.0
 41
1.0
 42
1.0
 50
0.0
  0
INSERT
  8
20
  6
CONTINUOUS
  2
COMP25
 10
0.0
 20
0.0
 41
1.0
 42
1.0
 50
0.0
  0
INSERT
  8
20
  6
CONTINUOUS
  2
COMP26
 10
0.0
 20
0.0
 41
1.0
 42
1.0
 50
0.0
  0
INSERT
  8
20
  6
CONTINUOUS
  2
COMP27
 10
0.0
 20
0.0
 41
1.0
 42
1.0
 50
0.0
  0
INSERT
  8
20
  6
CONTINUOUS
  2
COMP28
 10
0.0
 20
0.0
 41
1.0
 42
1.0
 50
0.0
  0
INSERT
  8
20
  6
CONTINUOUS
  2
COMP29
 10
0.0
 20
0.0
 41
1.0
 42
1.0
 50
0.0
  0
INSERT
  8
20
  6
CONTINUOUS
  2
COMP30
 10
0.0
 20
0.0
 41
1.0
 42
1.0
 50
0.0
  0
INSERT
  8
20
  6
CONTINUOUS
  2
COMP31
 10
0.0
 20
0.0
 41
1.0
 42
1.0
 50
0.0
  0
INSERT
  8
20
  6
CONTINUOUS
  2
COMP32
 10
0.0
 20
0.0
 41
1.0
 42
1.0
 50
0.0
  0
INSERT
  8
20
  6
CONTINUOUS
  2
COMP33
 10
0.0
 20
0.0
 41
1.0
 42
1.0
 50
0.0
  0
INSERT
  8
30
  6
CONTINUOUS
  2
COMP34
 10
0.0
 20
0.0
 41
1.0
 42
1.0
 50
0.0
  0
INSERT
  8
30
  6
CONTINUOUS
  2
COMP35
 10
0.0
 20
0.0
 41
1.0
 42
1.0
 50
0.0
  0
INSERT
  8
20
  6
CONTINUOUS
  2
COMP36
 10
0.0
 20
0.0
 41
1.0
 42
1.0
 50
0.0
  0
INSERT
  8
20
  6
CONTINUOUS
  2
COMP37
 10
0.0
 20
0.0
 41
1.0
 42
1.0
 50
0.0
  0
INSERT
  8
20
  6
CONTINUOUS
  2
COMP38
 10
0.0
 20
0.0
 41
1.0
 42
1.0
 50
0.0
  0
INSERT
  8
20
  6
CONTINUOUS
  2
COMP39
 10
0.0
 20
0.0
 41
1.0
 42
1.0
 50
0.0
  0
INSERT
  8
20
  6
CONTINUOUS
  2
COMP40
 10
0.0
 20
0.0
 41
1.0
 42
1.0
 50
0.0
  0
INSERT
  8
20
  6
CONTINUOUS
  2
COMP41
 10
0.0
 20
0.0
 41
1.0
 42
1.0
 50
0.0
  0
INSERT
  8
20
  6
CONTINUOUS
  2
COMP42
 10
0.0
 20
0.0
 41
1.0
 42
1.0
 50
0.0
  0
INSERT
  8
20
  6
CONTINUOUS
  2
COMP43
 10
0.0
 20
0.0
 41
1.0
 42
1.0
 50
0.0
  0
INSERT
  8
20
  6
CONTINUOUS
  2
COMP44
 10
0.0
 20
0.0
 41
1.0
 42
1.0
 50
0.0
  0
INSERT
  8
20
  6
CONTINUOUS
  2
COMP45
 10
0.0
 20
0.0
 41
1.0
 42
1.0
 50
0.0
  0
INSERT
  8
20
  6
CONTINUOUS
  2
COMP46
 10
0.0
 20
0.0
 41
1.0
 42
1.0
 50
0.0
  0
INSERT
  8
20
  6
CONTINUOUS
  2
COMP47
 10
0.0
 20
0.0
 41
1.0
 42
1.0
 50
0.0
  0
INSERT
  8
20
  6
CONTINUOUS
  2
COMP48
 10
0.0
 20
0.0
 41
1.0
 42
1.0
 50
0.0
  0
INSERT
  8
20
  6
CONTINUOUS
  2
COMP49
 10
0.0
 20
0.0
 41
1.0
 42
1.0
 50
0.0
  0
INSERT
  8
20
  6
CONTINUOUS
  2
COMP50
 10
0.0
 20
0.0
 41
1.0
 42
1.0
 50
0.0
  0
INSERT
  8
20
  6
CONTINUOUS
  2
COMP51
 10
0.0
 20
0.0
 41
1.0
 42
1.0
 50
0.0
  0
INSERT
  8
20
  6
CONTINUOUS
  2
COMP52
 10
0.0
 20
0.0
 41
1.0
 42
1.0
 50
0.0
  0
INSERT
  8
30
  6
CONTINUOUS
  2
COMP53
 10
0.0
 20
0.0
 41
1.0
 42
1.0
 50
0.0
  0
INSERT
  8
30
  6
CONTINUOUS
  2
COMP54
 10
0.0
 20
0.0
 41
1.0
 42
1.0
 50
0.0
  0
INSERT
  8
30
  6
CONTINUOUS
  2
COMP55
 10
0.0
 20
0.0
 41
1.0
 42
1.0
 50
0.0
  0
INSERT
  8
30
  6
CONTINUOUS
  2
COMP56
 10
0.0
 20
0.0
 41
1.0
 42
1.0
 50
0.0
  0
INSERT
  8
30
  6
CONTINUOUS
  2
COMP57
 10
0.0
 20
0.0
 41
1.0
 42
1.0
 50
0.0
  0
INSERT
  8
30
  6
CONTINUOUS
  2
COMP58
 10
0.0
 20
0.0
 41
1.0
 42
1.0
 50
0.0
  0
INSERT
  8
30
  6
CONTINUOUS
  2
COMP59
 10
0.0
 20
0.0
 41
1.0
 42
1.0
 50
0.0
  0
INSERT
  8
30
  6
CONTINUOUS
  2
COMP60
 10
0.0
 20
0.0
 41
1.0
 42
1.0
 50
0.0
  0
INSERT
  8
30
  6
CONTINUOUS
  2
COMP61
 10
0.0
 20
0.0
 41
1.0
 42
1.0
 50
0.0
  0
INSERT
  8
30
  6
CONTINUOUS
  2
COMP62
 10
0.0
 20
0.0
 41
1.0
 42
1.0
 50
0.0
  0
INSERT
  8
30
  6
CONTINUOUS
  2
COMP63
 10
0.0
 20
0.0
 41
1.0
 42
1.0
 50
0.0
  0
INSERT
  8
30
  6
CONTINUOUS
  2
COMP64
 10
0.0
 20
0.0
 41
1.0
 42
1.0
 50
0.0
  0
INSERT
  8
30
  6
CONTINUOUS
  2
COMP65
 10
0.0
 20
0.0
 41
1.0
 42
1.0
 50
0.0
  0
INSERT
  8
30
  6
CONTINUOUS
  2
COMP66
 10
0.0
 20
0.0
 41
1.0
 42
1.0
 50
0.0
  0
INSERT
  8
30
  6
CONTINUOUS
  2
COMP67
 10
0.0
 20
0.0
 41
1.0
 42
1.0
 50
0.0
  0
ENDSEC
  0
EOF
