  0
SECTION
  2
HEADER
  9
$ACADVER
  1
AC1006
  9
$INSBASE
 10
0.0
 20
0.0
 30
0.0
  9
$EXTMIN
 10
-136.9970722198486
 20
-74.47971343994141
  9
$EXTMAX
 10
219.9900262145996
 20
101.5202865600586
  9
$LIMMIN
 10
-136.9970722198486
 20
-74.47971343994141
  9
$LIMMAX
 10
219.9900262145996
 20
101.5202865600586
  9
$ORTHOMODE
 70
     0
  9
$REGENMODE
 70
     1
  9
$FILLMODE
 70
     1
  9
$QTEXTMODE
 70
     0
  9
$MIRRTEXT
 70
     1
  9
$DRAGMODE
 70
     2
  9
$LTSCALE
 40
1.0
  9
$OSMODE
 70
     0
  9
$ATTMODE
 70
     1
  9
$TEXTSIZE
 40
3.0
  9
$TRACEWID
 40
0.5
  9
$TEXTSTYLE
  7
STANDARD
  9
$CLAYER
  8
0
  9
$CELTYPE
  6
BYLAYER
  9
$CECOLOR
 62
   256
  9
$DIMSCALE
 40
1.0
  9
$DIMASZ
 40
3.0
  9
$DIMEXO
 40
1.0
  9
$DIMDLI
 40
5.0
  9
$DIMRND
 40
0.0
  9
$DIMDLE
 40
5.0
  9
$DIMEXE
 40
2.0
  9
$DIMTP
 40
0.0
  9
$DIMTM
 40
0.0
  9
$DIMTXT
 40
3.0
  9
$DIMCEN
 40
2.0
  9
$DIMTSZ
 40
0.0
  9
$DIMTOL
 70
     0
  9
$DIMLIM
 70
     0
  9
$DIMTIH
 70
     0
  9
$DIMTOH
 70
     0
  9
$DIMSE1
 70
     0
  9
$DIMSE2
 70
     0
  9
$DIMTAD
 70
     1
  9
$DIMZIN
 70
     8
  9
$DIMBLK
  1

  9
$DIMASO
 70
     1
  9
$DIMSHO
 70
     0
  9
$DIMPOST
  1

  9
$DIMAPOST
  1

  9
$DIMALT
 70
     0
  9
$DIMALTD
 70
     4
  9
$DIMALTF
 40
25.4
  9
$DIMLFAC
 40
1.0
  9
$DIMTOFL
 70
     1
  9
$DIMTVP
 40
1.0
  9
$DIMTIX
 70
     0
  9
$DIMSOXD
 70
     0
  9
$DIMSAH
 70
     0
  9
$DIMBLK1
  1

  9
$DIMBLK2
  1

  9
$LUNITS
 70
     2
  9
$LUPREC
 70
     4
  9
$AXISMODE
 70
     0
  9
$AXISUNIT
 10
0.0
 20
0.0
  9
$SKETCHINC
 40
1.0
  9
$FILLETRAD
 40
0.0
  9
$AUNITS
 70
     0
  9
$AUPREC
 70
     0
  9
$MENU
  1
acad
  9
$ELEVATION
 40
0.0
  9
$THICKNESS
 40
0.0
  9
$LIMCHECK
 70
     0
  9
$BLIPMODE
 70
     1
  9
$CHAMFERA
 40
0.0
  9
$CHAMFERB
 40
0.0
  9
$SKPOLY
 70
     0
  9
$TDCREATE
 40
2454078.680578704
  9
$TDUPDATE
 40
2454078.680578704
  9
$TDINDWG
 40
0.0
  9
$TDUSRTIMER
 40
0.0
  9
$USRTIMER
 70
     1
  9
$ANGBASE
 50
0.0
  9
$ANGDIR
 70
     0
  9
$PDMODE
 70
     0
  9
$PDSIZE
 40
0.0
  9
$PLINEWID
 40
0.0
  9
$COORDS
 70
     0
  9
$SPLFRAME
 70
     0
  9
$SPLINETYPE
 70
     6
  9
$SPLINESEGS
 70
     8
  9
$ATTDIA
 70
     0
  9
$ATTREQ
 70
     1
  9
$HANDLING
 70
     0
  9
$HANDSEED
  5
0
  9
$SURFTAB1
 70
     6
  9
$SURFTAB2
 70
     6
  9
$SURFTYPE
 70
     6
  9
$SURFU
 70
     6
  9
$SURFV
 70
     6
  9
$FLATLAND
 70
     0
  9
$UCSNAME
  2

  9
$UCSORG
 10
0.0
 20
0.0
 30
0.0
  9
$UCSXDIR
 10
1.0
 20
0.0
 30
0.0
  9
$UCSYDIR
 10
0.0
 20
1.0
 30
0.0
  9
$USERI1
 70
     0
  9
$USERI2
 70
     0
  9
$USERI3
 70
     0
  9
$USERI4
 70
     0
  9
$USERI5
 70
     0
  9
$USERR1
 40
0.0
  9
$USERR2
 40
0.0
  9
$USERR3
 40
0.0
  9
$USERR4
 40
0.0
  9
$USERR5
 40
0.0
  9
$WORLDVIEW
 70
     1
  0
ENDSEC
  0
SECTION
  2
TABLES
  0
TABLE
  2
VPORT
 70
     1
  0
VPORT
  2
*ACTIVE
 70
     0
 10
0.0
 20
0.0
 11
1.0
 21
1.0
 12
41.49647699737548
 22
13.52028656005859
 13
0.0
 23
0.0
 14
0.0
 24
0.0
 15
0.0
 25
0.0
 16
0.0
 26
0.0
 36
1.0
 17
0.0
 27
0.0
 37
0.0
 40
356.9870984344482
 41
1.5
 42
50.0
 43
0.0
 44
0.0
 50
0.0
 51
0.0
 71
     0
 72
   100
 73
     1
 74
     1
 75
     0
 76
     0
 77
     0
 78
     0
  0
ENDTAB
  0
TABLE
  2
LTYPE
 70
    20
  0
LTYPE
  2
CONTINUOUS
 70
    64
  3
solid line
 72
    65
 73
     0
 40
0.0
  0
ENDTAB
  0
TABLE
  2
LAYER
 70
    20
  0
LAYER
  2
0
 70
    64
 62
     7
  6
CONTINUOUS
  0
LAYER
  2
15
 70
    64
 62
     7
  6
CONTINUOUS
  0
LAYER
  2
16
 70
    64
 62
     7
  6
CONTINUOUS
  0
LAYER
  2
10
 70
    64
 62
     7
  6
CONTINUOUS
  0
LAYER
  2
100
 70
    64
 62
     7
  6
CONTINUOUS
  0
LAYER
  2
20
 70
    64
 62
     7
  6
CONTINUOUS
  0
LAYER
  2
18
 70
    64
 62
     7
  6
CONTINUOUS
  0
ENDTAB
  0
TABLE
  2
STYLE
 70
     4
  0
ENDTAB
  0
TABLE
  2
VIEW
 70
     0
  0
ENDTAB
  0
TABLE
  2
UCS
 70
     0
  0
ENDTAB
  0
TABLE
  2
DWGMGR
 70
     0
  0
ENDTAB
  0
ENDSEC
  0
SECTION
  2
BLOCKS
  0
BLOCK
  8
100
  2
COMP1
 70
    64
 10
0.0
 20
0.0
  0
LINE
  8
100
  6
CONTINUOUS
 10
119.4029277801514
 20
-36.16352004468441
 11
129.4029277801513
 21
-36.16352004468441
  0
LINE
  8
100
  6
CONTINUOUS
 10
119.4029277801514
 20
-37.11602004468441
 11
129.4029277801513
 21
-37.11602004468441
  0
LINE
  8
100
  6
CONTINUOUS
 10
129.4029277801513
 20
-36.16352004468441
 11
129.4029277801513
 21
-37.11602004468441
  0
ENDBLK
  8
100
  0
BLOCK
  8
100
  2
COMP2
 70
    64
 10
0.0
 20
0.0
  0
LINE
  8
100
  6
CONTINUOUS
 10
119.4029277801514
 20
-43.78352004468441
 11
129.4029277801513
 21
-43.78352004468441
  0
LINE
  8
100
  6
CONTINUOUS
 10
119.4029277801514
 20
-44.73602004468441
 11
131.9029277801513
 21
-44.73602004468441
  0
LINE
  8
100
  6
CONTINUOUS
 10
129.4029277801513
 20
-43.78352004468441
 11
129.4029277801513
 21
-44.73602004468441
  0
ENDBLK
  8
100
  0
BLOCK
  8
100
  2
COMP3
 70
    64
 10
0.0
 20
0.0
  0
LINE
  8
100
  6
CONTINUOUS
 10
119.4029277801514
 20
32.41647995531559
 11
129.4029277801513
 21
32.41647995531559
  0
LINE
  8
100
  6
CONTINUOUS
 10
119.4029277801514
 20
31.46397995531559
 11
129.4029277801513
 21
31.46397995531559
  0
LINE
  8
100
  6
CONTINUOUS
 10
129.4029277801513
 20
32.41647995531559
 11
129.4029277801513
 21
31.46397995531559
  0
ENDBLK
  8
100
  0
BLOCK
  8
100
  2
COMP4
 70
    64
 10
0.0
 20
0.0
  0
LINE
  8
100
  6
CONTINUOUS
 10
119.4029277801514
 20
40.03647995531559
 11
131.9029277801513
 21
40.03647995531559
  0
LINE
  8
100
  6
CONTINUOUS
 10
119.4029277801514
 20
39.08397995531559
 11
129.4029277801513
 21
39.08397995531559
  0
LINE
  8
100
  6
CONTINUOUS
 10
129.4029277801513
 20
40.03647995531559
 11
129.4029277801513
 21
39.08397995531559
  0
ENDBLK
  8
100
  0
ENDSEC
  0
SECTION
  2
ENTITIES
  0
LINE
  8
15
  6
CONTINUOUS
 10
-94.99707221984863
 20
-74.47971343994141
 11
-94.99707221984863
 21
101.5202865600586
  0
LINE
  8
15
  6
CONTINUOUS
 10
-136.9970722198486
 20
-74.47971343994141
 11
-136.9970722198486
 21
101.5202865600586
  0
LINE
  8
15
  6
CONTINUOUS
 10
-136.9970722198486
 20
-65.47971343994141
 11
-94.99707221984863
 21
-65.47971343994141
  0
LINE
  8
16
  6
CONTINUOUS
 10
-135.9970722198486
 20
-64.47971343994141
 11
-95.99707221984863
 21
-64.47971343994141
  0
LINE
  8
10
  6
CONTINUOUS
 10
-135.9970722198486
 20
83.52028656005859
 11
-95.99707221984863
 21
83.52028656005859
  0
LINE
  8
10
  6
CONTINUOUS
 10
-135.9970722198486
 20
67.52028656005859
 11
-95.99707221984863
 21
67.52028656005859
  0
LINE
  8
10
  6
CONTINUOUS
 10
-135.9970722198486
 20
47.52028656005859
 11
-95.99707221984863
 21
47.52028656005859
  0
LINE
  8
10
  6
CONTINUOUS
 10
-135.9970722198486
 20
34.52028656005859
 11
-95.99707221984863
 21
34.52028656005859
  0
LINE
  8
10
  6
CONTINUOUS
 10
-135.9970722198486
 20
22.52028656005859
 11
-95.99707221984863
 21
22.52028656005859
  0
LINE
  8
10
  6
CONTINUOUS
 10
-135.9970722198486
 20
9.520286560058594
 11
-95.99707221984863
 21
9.520286560058594
  0
LINE
  8
10
  6
CONTINUOUS
 10
-135.9970722198486
 20
-3.479713439941406
 11
-95.99707221984863
 21
-3.479713439941406
  0
LINE
  8
10
  6
CONTINUOUS
 10
-135.9970722198486
 20
-4.479713439941406
 11
-95.99707221984863
 21
-4.479713439941406
  0
LINE
  8
10
  6
CONTINUOUS
 10
-135.9970722198486
 20
-17.47971343994141
 11
-95.99707221984863
 21
-17.47971343994141
  0
LINE
  8
10
  6
CONTINUOUS
 10
-135.9970722198486
 20
-30.47971343994141
 11
-95.99707221984863
 21
-30.47971343994141
  0
LINE
  8
10
  6
CONTINUOUS
 10
-135.9970722198486
 20
-29.47971343994141
 11
-95.99707221984863
 21
-29.47971343994141
  0
LINE
  8
10
  6
CONTINUOUS
 10
-135.9970722198486
 20
-16.47971343994141
 11
-95.99707221984863
 21
-16.47971343994141
  0
LINE
  8
10
  6
CONTINUOUS
 10
-135.9970722198486
 20
35.52028656005859
 11
-95.99707221984863
 21
35.52028656005859
  0
LINE
  8
10
  6
CONTINUOUS
 10
-135.9970722198486
 20
48.52028656005859
 11
-95.99707221984863
 21
48.52028656005859
  0
LINE
  8
10
  6
CONTINUOUS
 10
-135.9970722198486
 20
66.52028656005859
 11
-95.99707221984863
 21
66.52028656005859
  0
LINE
  8
10
  6
CONTINUOUS
 10
-135.9970722198486
 20
8.520286560058594
 11
-95.99707221984863
 21
8.520286560058594
  0
LINE
  8
10
  6
CONTINUOUS
 10
-135.9970722198486
 20
21.52028656005859
 11
-95.99707221984863
 21
21.52028656005859
  0
LINE
  8
100
  6
CONTINUOUS
 10
-95.99707221984863
 20
-64.47971343994141
 11
-95.99707221984863
 21
-30.47971343994141
  0
LINE
  8
100
  6
CONTINUOUS
 10
-135.9970722198486
 20
-64.47971343994141
 11
-135.9970722198486
 21
-30.47971343994141
  0
LINE
  8
10
  6
CONTINUOUS
 10
-95.99707221984863
 20
-29.47971343994141
 11
-95.99707221984863
 21
-17.47971343994141
  0
LINE
  8
10
  6
CONTINUOUS
 10
-95.99707221984863
 20
-16.47971343994141
 11
-95.99707221984863
 21
-4.479713439941406
  0
LINE
  8
10
  6
CONTINUOUS
 10
-95.99707221984863
 20
-3.479713439941406
 11
-95.99707221984863
 21
8.520286560058594
  0
LINE
  8
10
  6
CONTINUOUS
 10
-95.99707221984863
 20
9.520286560058594
 11
-95.99707221984863
 21
21.52028656005859
  0
LINE
  8
10
  6
CONTINUOUS
 10
-95.99707221984863
 20
22.52028656005859
 11
-95.99707221984863
 21
34.52028656005859
  0
LINE
  8
10
  6
CONTINUOUS
 10
-95.99707221984863
 20
35.52028656005859
 11
-95.99707221984863
 21
47.52028656005859
  0
LINE
  8
10
  6
CONTINUOUS
 10
-95.99707221984863
 20
48.52028656005859
 11
-95.99707221984863
 21
66.52028656005859
  0
LINE
  8
10
  6
CONTINUOUS
 10
-95.99707221984863
 20
67.52028656005859
 11
-95.99707221984863
 21
83.52028656005859
  0
LINE
  8
10
  6
CONTINUOUS
 10
-135.9970722198486
 20
83.52028656005859
 11
-135.9970722198486
 21
67.52028656005859
  0
LINE
  8
10
  6
CONTINUOUS
 10
-135.9970722198486
 20
66.52028656005859
 11
-135.9970722198486
 21
48.52028656005859
  0
LINE
  8
10
  6
CONTINUOUS
 10
-135.9970722198486
 20
47.52028656005859
 11
-135.9970722198486
 21
35.52028656005859
  0
LINE
  8
10
  6
CONTINUOUS
 10
-135.9970722198486
 20
34.52028656005859
 11
-135.9970722198486
 21
22.52028656005859
  0
LINE
  8
10
  6
CONTINUOUS
 10
-135.9970722198486
 20
21.52028656005859
 11
-135.9970722198486
 21
9.520286560058594
  0
LINE
  8
10
  6
CONTINUOUS
 10
-135.9970722198486
 20
8.520286560058594
 11
-135.9970722198486
 21
-3.479713439941406
  0
LINE
  8
10
  6
CONTINUOUS
 10
-135.9970722198486
 20
-4.479713439941406
 11
-135.9970722198486
 21
-16.47971343994141
  0
LINE
  8
10
  6
CONTINUOUS
 10
-135.9970722198486
 20
-17.47971343994141
 11
-135.9970722198486
 21
-29.47971343994141
  0
CIRCLE
  8
10
  6
CONTINUOUS
 10
-122.9970722198486
 20
2.520286560058594
 40
2.0
  0
CIRCLE
  8
10
  6
CONTINUOUS
 10
-122.9970722198486
 20
15.52028656005859
 40
2.0
  0
CIRCLE
  8
10
  6
CONTINUOUS
 10
-122.9970722198486
 20
28.52028656005859
 40
2.0
  0
CIRCLE
  8
10
  6
CONTINUOUS
 10
-122.9970722198486
 20
41.52028656005859
 40
2.0
  0
CIRCLE
  8
10
  6
CONTINUOUS
 10
-122.9970722198486
 20
75.52028656005859
 40
2.5
  0
CIRCLE
  8
10
  6
CONTINUOUS
 10
-118.9970722198486
 20
-38.47971343994141
 40
3.75
  0
CIRCLE
  8
10
  6
CONTINUOUS
 10
-118.9970722198486
 20
-48.47971343994141
 40
3.75
  0
CIRCLE
  8
10
  6
CONTINUOUS
 10
-118.9970722198486
 20
-38.47971343994141
 40
3.5
  0
CIRCLE
  8
10
  6
CONTINUOUS
 10
-118.9970722198486
 20
-48.47971343994141
 40
3.5
  0
CIRCLE
  8
10
  6
CONTINUOUS
 10
-118.9970722198486
 20
-38.47971343994141
 40
1.0
  0
CIRCLE
  8
10
  6
CONTINUOUS
 10
-118.9970722198486
 20
-48.47971343994141
 40
1.0
  0
LINE
  8
10
  6
CONTINUOUS
 10
-108.0099220275879
 20
-19.47971343994141
 11
-105.0099220275879
 21
-19.47971343994141
  0
LINE
  8
10
  6
CONTINUOUS
 10
-105.0099220275879
 20
-19.47971343994141
 11
-112.0099220275879
 21
-26.47971343994141
  0
LINE
  8
10
  6
CONTINUOUS
 10
-112.0099220275879
 20
-26.47971343994141
 11
-109.0099220275879
 21
-26.47971343994141
  0
LINE
  8
10
  6
CONTINUOUS
 10
-122.5034156123443
 20
-22.61005652260717
 11
-123.2694371163314
 21
-22.17522806394005
  0
LINE
  8
10
  6
CONTINUOUS
 10
-123.2694371163314
 20
-24.78419881594277
 11
-122.5034156123443
 21
-24.34937035727565
  0
ARC
  8
10
  6
CONTINUOUS
 10
-122.9970722198486
 20
-23.47971343994141
 40
0.9999999999999983
 50
299.5812044690321
 51
60.41879553096794
  0
ARC
  8
10
  6
CONTINUOUS
 10
-124.0099220275879
 20
-23.47971343994141
 40
1.5
 50
60.41879553096862
 51
299.5812044690314
  0
ARC
  8
10
  6
CONTINUOUS
 10
-122.9970722198486
 20
-23.47971343994141
 40
2.000000000000001
 50
226.7516524355719
 51
133.2483475644281
  0
LINE
  8
15
  6
CONTINUOUS
 10
-136.9970722198486
 20
92.52028656005859
 11
-94.99707221984863
 21
92.52028656005859
  0
POLYLINE
  8
20
  6
CONTINUOUS
 66
     1
 70
     0
 40
0.0
 41
0.0
  0
VERTEX
  8
20
 10
-134.2470703125
 20
91.56269073486328
 42
0.3090019582989393
  0
VERTEX
  8
20
 10
-134.9970703125
 20
92.07831573486328
 42
0.2704006299832661
  0
VERTEX
  8
20
 10
-135.7470703125
 20
91.56269073486328
 42
0.1145173096578547
  0
VERTEX
  8
20
 10
-135.9814453125
 20
90.67206573486328
 42
0.1335999338839629
  0
VERTEX
  8
20
 10
-135.7470703125
 20
89.78144073486328
 42
0.2703922249219019
  0
VERTEX
  8
20
 10
-134.9970703125
 20
89.26581573486328
  0
SEQEND
  8
20
  0
POLYLINE
  8
20
  6
CONTINUOUS
 66
     1
 70
     0
 40
0.0
 41
0.0
  0
VERTEX
  8
20
 10
-134.9501953125
 20
89.26581573486328
 42
0.3418382727339513
  0
VERTEX
  8
20
 10
-134.1533203125
 20
89.96894073486328
  0
SEQEND
  8
20
  0
POLYLINE
  8
20
  6
CONTINUOUS
 66
     1
 70
     0
 40
0.0
 41
0.0
  0
VERTEX
  8
20
 10
-132.2783203125
 20
89.73456573486328
 42
0.2974544963194762
  0
VERTEX
  8
20
 10
-131.4345703125
 20
89.26581573486328
  0
SEQEND
  8
20
  0
POLYLINE
  8
20
  6
CONTINUOUS
 66
     1
 70
     0
 40
0.0
 41
0.0
  0
VERTEX
  8
20
 10
-131.3876953125
 20
89.26581573486328
 42
0.4079369840793699
  0
VERTEX
  8
20
 10
-130.4970703125
 20
89.96894073486328
 42
0.3913209113497961
  0
VERTEX
  8
20
 10
-131.1064453125
 20
90.76581573486328
 42
-0.01432291666666667
  0
VERTEX
  8
20
 10
-131.9033203125
 20
90.95331573486328
 42
-0.3869331138427493
  0
VERTEX
  8
20
 10
-132.2314453125
 20
91.51581573486328
 42
-0.3544352710689848
  0
VERTEX
  8
20
 10
-131.4345703125
 20
92.07831573486328
 42
-0.2195567736247847
  0
VERTEX
  8
20
 10
-130.6376953125
 20
91.70331573486328
  0
SEQEND
  8
20
  0
POLYLINE
  8
20
  6
CONTINUOUS
 66
     1
 70
     0
 40
0.0
 41
0.0
  0
VERTEX
  8
20
 10
-128.8564453125
 20
89.26581573486328
  0
VERTEX
  8
20
 10
-127.8720703125
 20
92.07831573486328
  0
VERTEX
  8
20
 10
-126.8876953125
 20
89.26581573486328
  0
SEQEND
  8
20
  0
POLYLINE
  8
20
  6
CONTINUOUS
 66
     1
 70
     0
 40
0.0
 41
0.0
  0
VERTEX
  8
20
 10
-128.5283203125
 20
90.20331573486328
  0
VERTEX
  8
20
 10
-127.2158203125
 20
90.20331573486328
  0
SEQEND
  8
20
  0
POLYLINE
  8
20
  6
CONTINUOUS
 66
     1
 70
     0
 40
0.0
 41
0.0
  0
VERTEX
  8
20
 10
-125.2470703125
 20
90.67206573486328
  0
VERTEX
  8
20
 10
-123.3251953125
 20
90.67206573486328
  0
SEQEND
  8
20
  0
POLYLINE
  8
20
  6
CONTINUOUS
 66
     1
 70
     0
 40
0.0
 41
0.0
  0
VERTEX
  8
20
 10
-120.0439453125
 20
92.07831573486328
  0
VERTEX
  8
20
 10
-121.4501953125
 20
92.07831573486328
  0
VERTEX
  8
20
 10
-121.4501953125
 20
90.81269073486328
 42
-0.4975183385115188
  0
VERTEX
  8
20
 10
-120.0439453125
 20
90.67206573486328
  0
SEQEND
  8
20
  0
POLYLINE
  8
20
  6
CONTINUOUS
 66
     1
 70
     0
 40
0.0
 41
0.0
  0
VERTEX
  8
20
 10
-121.4501953125
 20
89.54706573486328
 42
0.4975183385115188
  0
VERTEX
  8
20
 10
-120.0439453125
 20
89.68769073486328
 42
0.2380952380952381
  0
VERTEX
  8
20
 10
-120.0439453125
 20
90.67206573486328
  0
SEQEND
  8
20
  0
POLYLINE
  8
20
  6
CONTINUOUS
 66
     1
 70
     0
 40
0.0
 41
0.0
  0
VERTEX
  8
20
 10
-118.0283203125
 20
90.67206573486328
 42
-0.1525073946855055
  0
VERTEX
  8
20
 10
-117.7470703125
 20
91.75019073486328
 42
-0.2609613762860516
  0
VERTEX
  8
20
 10
-117.1845703125
 20
92.07831573486328
  0
SEQEND
  8
20
  0
POLYLINE
  8
20
  6
CONTINUOUS
 66
     1
 70
     0
 40
0.0
 41
0.0
  0
VERTEX
  8
20
 10
-116.3408203125
 20
90.67206573486328
 42
0.1524946707380307
  0
VERTEX
  8
20
 10
-116.6220703125
 20
91.75019073486328
 42
0.2609548515065239
  0
VERTEX
  8
20
 10
-117.1845703125
 20
92.07831573486328
  0
SEQEND
  8
20
  0
POLYLINE
  8
20
  6
CONTINUOUS
 66
     1
 70
     0
 40
0.0
 41
0.0
  0
VERTEX
  8
20
 10
-116.3408203125
 20
90.67206573486328
 42
-0.1524946707380307
  0
VERTEX
  8
20
 10
-116.6220703125
 20
89.59394073486328
 42
-0.2609548515065239
  0
VERTEX
  8
20
 10
-117.1845703125
 20
89.26581573486328
  0
SEQEND
  8
20
  0
POLYLINE
  8
20
  6
CONTINUOUS
 66
     1
 70
     0
 40
0.0
 41
0.0
  0
VERTEX
  8
20
 10
-118.0283203125
 20
90.67206573486328
 42
0.1525073946855055
  0
VERTEX
  8
20
 10
-117.7470703125
 20
89.59394073486328
 42
0.2609613762860516
  0
VERTEX
  8
20
 10
-117.1845703125
 20
89.26581573486328
  0
SEQEND
  8
20
  0
POLYLINE
  8
20
  6
CONTINUOUS
 66
     1
 70
     0
 40
0.0
 41
0.0
  0
VERTEX
  8
20
 10
-114.3251953125
 20
89.96894073486328
 42
0.6684475086618884
  0
VERTEX
  8
20
 10
-112.954091324321
 20
89.54119528485174
 42
0.6684394231677509
  0
VERTEX
  8
20
 10
-113.622069901094
 20
90.81268624533276
  0
SEQEND
  8
20
  0
POLYLINE
  8
20
  6
CONTINUOUS
 66
     1
 70
     0
 40
0.0
 41
0.0
  0
VERTEX
  8
20
 10
-113.6220703125
 20
92.07831573486328
 42
-0.4466012380573939
  0
VERTEX
  8
20
 10
-112.9160162569887
 20
91.44550323486328
 42
-0.4466017716687098
  0
VERTEX
  8
20
 10
-113.6220703814385
 20
90.8126901066458
  0
SEQEND
  8
20
  0
POLYLINE
  8
20
  6
CONTINUOUS
 66
     1
 70
     0
 40
0.0
 41
0.0
  0
VERTEX
  8
20
 10
-113.6220703125
 20
92.07831573486328
 42
0.3448845321208721
  0
VERTEX
  8
20
 10
-114.3251953125
 20
91.51581573486328
  0
SEQEND
  8
20
  0
POLYLINE
  8
20
  6
CONTINUOUS
 66
     1
 70
     0
 40
0.0
 41
0.0
  0
VERTEX
  8
20
 10
-109.3095703125
 20
91.56269073486328
 42
0.3090019582989393
  0
VERTEX
  8
20
 10
-110.0595703125
 20
92.07831573486328
 42
0.2704006299832661
  0
VERTEX
  8
20
 10
-110.8095703125
 20
91.56269073486328
 42
0.1145338153679309
  0
VERTEX
  8
20
 10
-111.0439453125
 20
90.67206573486328
 42
0.1336153935026087
  0
VERTEX
  8
20
 10
-110.8095703125
 20
89.78144073486328
 42
0.2703922249219019
  0
VERTEX
  8
20
 10
-110.0595703125
 20
89.26581573486328
  0
SEQEND
  8
20
  0
POLYLINE
  8
20
  6
CONTINUOUS
 66
     1
 70
     0
 40
0.0
 41
0.0
  0
VERTEX
  8
20
 10
-110.0126953125
 20
89.26581573486328
 42
0.3418382727339513
  0
VERTEX
  8
20
 10
-109.2158203125
 20
89.96894073486328
  0
SEQEND
  8
20
  0
POLYLINE
  8
20
  6
CONTINUOUS
 66
     1
 70
     0
 40
0.0
 41
0.0
  0
VERTEX
  8
20
 10
-107.6430053710938
 20
68.08278656005859
  0
VERTEX
  8
20
 10
-107.6430053710938
 20
69.95778656005859
  0
VERTEX
  8
20
 10
-107.0805053710938
 20
69.95778656005859
  0
SEQEND
  8
20
  0
POLYLINE
  8
20
  6
CONTINUOUS
 66
     1
 70
     0
 40
0.0
 41
0.0
  0
VERTEX
  8
20
 10
-107.0805053710938
 20
69.11403656005859
  0
VERTEX
  8
20
 10
-107.6430053710938
 20
69.11403656005859
  0
SEQEND
  8
20
  0
POLYLINE
  8
20
  6
CONTINUOUS
 66
     1
 70
     0
 40
0.0
 41
0.0
  0
VERTEX
  8
20
 10
-107.0805053710938
 20
69.11403656005859
 42
0.395985126317279
  0
VERTEX
  8
20
 10
-106.6117553710938
 20
69.55153656005859
  0
SEQEND
  8
20
  0
POLYLINE
  8
20
  6
CONTINUOUS
 66
     1
 70
     0
 40
0.0
 41
0.0
  0
VERTEX
  8
20
 10
-107.0805053710938
 20
69.95778656005859
 42
-0.4219464920412241
  0
VERTEX
  8
20
 10
-106.6117553710938
 20
69.55153656005859
  0
SEQEND
  8
20
  0
POLYLINE
  8
20
  6
CONTINUOUS
 66
     1
 70
     0
 40
0.0
 41
0.0
  0
VERTEX
  8
20
 10
-105.3305053710938
 20
68.58278656005859
 42
-0.07142857142857143
  0
VERTEX
  8
20
 10
-105.3305053710938
 20
69.45778656005859
 42
-0.1388601774958121
  0
VERTEX
  8
20
 10
-105.2055053710938
 20
69.80153656005859
 42
-0.1560680614506254
  0
VERTEX
  8
20
 10
-105.0180053710938
 20
69.92653656005859
  0
SEQEND
  8
20
  0
POLYLINE
  8
20
  6
CONTINUOUS
 66
     1
 70
     0
 40
0.0
 41
0.0
  0
VERTEX
  8
20
 10
-104.2055053710938
 20
69.80153656005859
 42
0.1560680614506254
  0
VERTEX
  8
20
 10
-104.3930053710938
 20
69.92653656005859
  0
SEQEND
  8
20
  0
POLYLINE
  8
20
  6
CONTINUOUS
 66
     1
 70
     0
 40
0.0
 41
0.0
  0
VERTEX
  8
20
 10
-104.0805053710938
 20
69.45778656005859
 42
0.1388601774958121
  0
VERTEX
  8
20
 10
-104.2055053710938
 20
69.80153656005859
  0
SEQEND
  8
20
  0
POLYLINE
  8
20
  6
CONTINUOUS
 66
     1
 70
     0
 40
0.0
 41
0.0
  0
VERTEX
  8
20
 10
-104.0805053710938
 20
68.58278656005859
 42
0.07142857142857143
  0
VERTEX
  8
20
 10
-104.0805053710938
 20
69.45778656005859
  0
SEQEND
  8
20
  0
POLYLINE
  8
20
  6
CONTINUOUS
 66
     1
 70
     0
 40
0.0
 41
0.0
  0
VERTEX
  8
20
 10
-105.0180053710938
 20
69.92653656005859
 42
-0.09999999999999999
  0
VERTEX
  8
20
 10
-104.3930053710938
 20
69.92653656005859
  0
SEQEND
  8
20
  0
POLYLINE
  8
20
  6
CONTINUOUS
 66
     1
 70
     0
 40
0.0
 41
0.0
  0
VERTEX
  8
20
 10
-105.3305053710938
 20
68.58278656005859
 42
0.1388601774958121
  0
VERTEX
  8
20
 10
-105.2055053710938
 20
68.23903656005859
 42
0.1560680614506254
  0
VERTEX
  8
20
 10
-105.0180053710938
 20
68.11403656005859
 42
0.09999999999999999
  0
VERTEX
  8
20
 10
-104.3930053710938
 20
68.11403656005859
  0
SEQEND
  8
20
  0
POLYLINE
  8
20
  6
CONTINUOUS
 66
     1
 70
     0
 40
0.0
 41
0.0
  0
VERTEX
  8
20
 10
-104.2055053710938
 20
68.23903656005859
 42
-0.1560680614506254
  0
VERTEX
  8
20
 10
-104.3930053710938
 20
68.11403656005859
  0
SEQEND
  8
20
  0
POLYLINE
  8
20
  6
CONTINUOUS
 66
     1
 70
     0
 40
0.0
 41
0.0
  0
VERTEX
  8
20
 10
-104.0805053710938
 20
68.58278656005859
 42
-0.1388601774958121
  0
VERTEX
  8
20
 10
-104.2055053710938
 20
68.23903656005859
  0
SEQEND
  8
20
  0
POLYLINE
  8
20
  6
CONTINUOUS
 66
     1
 70
     0
 40
0.0
 41
0.0
  0
VERTEX
  8
20
 10
-103.0805053710938
 20
69.95778656005859
  0
VERTEX
  8
20
 10
-102.6742553710938
 20
68.08278656005859
  0
VERTEX
  8
20
 10
-102.3305053710938
 20
69.67653656005859
  0
VERTEX
  8
20
 10
-101.9867553710938
 20
68.08278656005859
  0
VERTEX
  8
20
 10
-101.5805053710938
 20
69.95778656005859
  0
SEQEND
  8
20
  0
POLYLINE
  8
20
  6
CONTINUOUS
 66
     1
 70
     0
 40
0.0
 41
0.0
  0
VERTEX
  8
20
 10
-99.29925537109375
 20
68.08278656005859
  0
VERTEX
  8
20
 10
-100.6117553710938
 20
68.08278656005859
  0
VERTEX
  8
20
 10
-100.6117553710938
 20
69.95778656005859
  0
VERTEX
  8
20
 10
-99.29925537109375
 20
69.95778656005859
  0
SEQEND
  8
20
  0
POLYLINE
  8
20
  6
CONTINUOUS
 66
     1
 70
     0
 40
0.0
 41
0.0
  0
VERTEX
  8
20
 10
-100.6117553710938
 20
69.11403656005859
  0
VERTEX
  8
20
 10
-99.67425537109375
 20
69.11403656005859
  0
SEQEND
  8
20
  0
POLYLINE
  8
20
  6
CONTINUOUS
 66
     1
 70
     0
 40
0.0
 41
0.0
  0
VERTEX
  8
20
 10
-98.14300537109375
 20
68.08278656005859
  0
VERTEX
  8
20
 10
-98.14300537109375
 20
69.95778656005859
  0
VERTEX
  8
20
 10
-97.58050537109375
 20
69.95778656005859
  0
SEQEND
  8
20
  0
POLYLINE
  8
20
  6
CONTINUOUS
 66
     1
 70
     0
 40
0.0
 41
0.0
  0
VERTEX
  8
20
 10
-98.14300537109375
 20
69.11403656005859
  0
VERTEX
  8
20
 10
-97.58050537109375
 20
69.11403656005859
  0
VERTEX
  8
20
 10
-97.11175537109375
 20
68.08278656005859
  0
SEQEND
  8
20
  0
POLYLINE
  8
20
  6
CONTINUOUS
 66
     1
 70
     0
 40
0.0
 41
0.0
  0
VERTEX
  8
20
 10
-97.58050537109375
 20
69.11403656005859
 42
0.395985126317279
  0
VERTEX
  8
20
 10
-97.11175537109375
 20
69.55153656005859
  0
SEQEND
  8
20
  0
POLYLINE
  8
20
  6
CONTINUOUS
 66
     1
 70
     0
 40
0.0
 41
0.0
  0
VERTEX
  8
20
 10
-97.58050537109375
 20
69.95778656005859
 42
-0.4219464920412241
  0
VERTEX
  8
20
 10
-97.11175537109375
 20
69.55153656005859
  0
SEQEND
  8
20
  0
POLYLINE
  8
20
  6
CONTINUOUS
 66
     1
 70
     0
 40
0.0
 41
0.0
  0
VERTEX
  8
20
 10
-104.8746948242188
 20
37.95778656005859
  0
VERTEX
  8
20
 10
-104.8746948242188
 20
36.08278656005859
  0
SEQEND
  8
20
  0
POLYLINE
  8
20
  6
CONTINUOUS
 66
     1
 70
     0
 40
0.0
 41
0.0
  0
VERTEX
  8
20
 10
-105.5309448242188
 20
37.95778656005859
  0
VERTEX
  8
20
 10
-104.2184448242188
 20
37.95778656005859
  0
SEQEND
  8
20
  0
POLYLINE
  8
20
  6
CONTINUOUS
 66
     1
 70
     0
 40
0.0
 41
0.0
  0
VERTEX
  8
20
 10
-103.1559448242188
 20
36.08278656005859
  0
VERTEX
  8
20
 10
-102.4996948242188
 20
37.95778656005859
  0
VERTEX
  8
20
 10
-101.8434448242188
 20
36.08278656005859
  0
SEQEND
  8
20
  0
POLYLINE
  8
20
  6
CONTINUOUS
 66
     1
 70
     0
 40
0.0
 41
0.0
  0
VERTEX
  8
20
 10
-102.9371948242188
 20
36.70778656005859
  0
VERTEX
  8
20
 10
-102.0621948242188
 20
36.70778656005859
  0
SEQEND
  8
20
  0
POLYLINE
  8
20
  6
CONTINUOUS
 66
     1
 70
     0
 40
0.0
 41
0.0
  0
VERTEX
  8
20
 10
-100.6871948242188
 20
36.08278656005859
  0
VERTEX
  8
20
 10
-100.6871948242188
 20
37.95778656005859
  0
VERTEX
  8
20
 10
-100.1246948242188
 20
37.95778656005859
  0
SEQEND
  8
20
  0
POLYLINE
  8
20
  6
CONTINUOUS
 66
     1
 70
     0
 40
0.0
 41
0.0
  0
VERTEX
  8
20
 10
-100.6871948242188
 20
37.11403656005859
  0
VERTEX
  8
20
 10
-100.1246948242188
 20
37.11403656005859
  0
VERTEX
  8
20
 10
-99.65594482421875
 20
36.08278656005859
  0
SEQEND
  8
20
  0
POLYLINE
  8
20
  6
CONTINUOUS
 66
     1
 70
     0
 40
0.0
 41
0.0
  0
VERTEX
  8
20
 10
-100.1246948242188
 20
37.11403656005859
 42
0.39599609375
  0
VERTEX
  8
20
 10
-99.65594482421875
 20
37.55153656005859
  0
SEQEND
  8
20
  0
POLYLINE
  8
20
  6
CONTINUOUS
 66
     1
 70
     0
 40
0.0
 41
0.0
  0
VERTEX
  8
20
 10
-100.1246948242188
 20
37.95778656005859
 42
-0.4219464920412241
  0
VERTEX
  8
20
 10
-99.65594482421875
 20
37.55153656005859
  0
SEQEND
  8
20
  0
POLYLINE
  8
20
  6
CONTINUOUS
 66
     1
 70
     0
 40
0.0
 41
0.0
  0
VERTEX
  8
20
 10
-97.09344482421875
 20
36.08278656005859
  0
VERTEX
  8
20
 10
-98.40594482421875
 20
36.08278656005859
  0
VERTEX
  8
20
 10
-98.40594482421875
 20
37.95778656005859
  0
VERTEX
  8
20
 10
-97.09344482421875
 20
37.95778656005859
  0
SEQEND
  8
20
  0
POLYLINE
  8
20
  6
CONTINUOUS
 66
     1
 70
     0
 40
0.0
 41
0.0
  0
VERTEX
  8
20
 10
-98.40594482421875
 20
37.11403656005859
  0
VERTEX
  8
20
 10
-97.46844482421875
 20
37.11403656005859
  0
SEQEND
  8
20
  0
POLYLINE
  8
20
  6
CONTINUOUS
 66
     1
 70
     0
 40
0.0
 41
0.0
  0
VERTEX
  8
20
 10
-105.2675170898438
 20
24.95778656005859
  0
VERTEX
  8
20
 10
-104.1425170898438
 20
24.95778656005859
  0
VERTEX
  8
20
 10
-105.2675170898438
 20
23.08278656005859
  0
VERTEX
  8
20
 10
-104.1425170898438
 20
23.08278656005859
  0
SEQEND
  8
20
  0
POLYLINE
  8
20
  6
CONTINUOUS
 66
     1
 70
     0
 40
0.0
 41
0.0
  0
VERTEX
  8
20
 10
-101.6737670898438
 20
23.08278656005859
  0
VERTEX
  8
20
 10
-102.9862670898438
 20
23.08278656005859
  0
VERTEX
  8
20
 10
-102.9862670898438
 20
24.95778656005859
  0
VERTEX
  8
20
 10
-101.6737670898438
 20
24.95778656005859
  0
SEQEND
  8
20
  0
POLYLINE
  8
20
  6
CONTINUOUS
 66
     1
 70
     0
 40
0.0
 41
0.0
  0
VERTEX
  8
20
 10
-102.9862670898438
 20
24.11403656005859
  0
VERTEX
  8
20
 10
-102.0487670898438
 20
24.11403656005859
  0
SEQEND
  8
20
  0
POLYLINE
  8
20
  6
CONTINUOUS
 66
     1
 70
     0
 40
0.0
 41
0.0
  0
VERTEX
  8
20
 10
-100.5175170898438
 20
23.08278656005859
  0
VERTEX
  8
20
 10
-100.5175170898438
 20
24.95778656005859
  0
VERTEX
  8
20
 10
-99.95501708984375
 20
24.95778656005859
  0
SEQEND
  8
20
  0
POLYLINE
  8
20
  6
CONTINUOUS
 66
     1
 70
     0
 40
0.0
 41
0.0
  0
VERTEX
  8
20
 10
-100.5175170898438
 20
24.11403656005859
  0
VERTEX
  8
20
 10
-99.95501708984375
 20
24.11403656005859
  0
VERTEX
  8
20
 10
-99.48626708984375
 20
23.08278656005859
  0
SEQEND
  8
20
  0
POLYLINE
  8
20
  6
CONTINUOUS
 66
     1
 70
     0
 40
0.0
 41
0.0
  0
VERTEX
  8
20
 10
-99.95501708984375
 20
24.11403656005859
 42
0.39599609375
  0
VERTEX
  8
20
 10
-99.48626708984375
 20
24.55153656005859
  0
SEQEND
  8
20
  0
POLYLINE
  8
20
  6
CONTINUOUS
 66
     1
 70
     0
 40
0.0
 41
0.0
  0
VERTEX
  8
20
 10
-99.95501708984375
 20
24.95778656005859
 42
-0.4219464920412241
  0
VERTEX
  8
20
 10
-99.48626708984375
 20
24.55153656005859
  0
SEQEND
  8
20
  0
POLYLINE
  8
20
  6
CONTINUOUS
 66
     1
 70
     0
 40
0.0
 41
0.0
  0
VERTEX
  8
20
 10
-98.20501708984375
 20
23.58278656005859
 42
-0.07142857142857143
  0
VERTEX
  8
20
 10
-98.20501708984375
 20
24.45778656005859
 42
-0.1388032518702531
  0
VERTEX
  8
20
 10
-98.08001708984375
 20
24.80153656005859
 42
-0.1560058593749999
  0
VERTEX
  8
20
 10
-97.89251708984375
 20
24.92653656005859
  0
SEQEND
  8
20
  0
POLYLINE
  8
20
  6
CONTINUOUS
 66
     1
 70
     0
 40
0.0
 41
0.0
  0
VERTEX
  8
20
 10
-97.08001708984375
 20
24.80153656005859
 42
0.1560058593749999
  0
VERTEX
  8
20
 10
-97.26751708984375
 20
24.92653656005859
  0
SEQEND
  8
20
  0
POLYLINE
  8
20
  6
CONTINUOUS
 66
     1
 70
     0
 40
0.0
 41
0.0
  0
VERTEX
  8
20
 10
-96.95501708984375
 20
24.45778656005859
 42
0.1388404774378878
  0
VERTEX
  8
20
 10
-97.08001708984375
 20
24.80153656005859
  0
SEQEND
  8
20
  0
POLYLINE
  8
20
  6
CONTINUOUS
 66
     1
 70
     0
 40
0.0
 41
0.0
  0
VERTEX
  8
20
 10
-96.95501708984375
 20
23.58278656005859
 42
0.07142857142857143
  0
VERTEX
  8
20
 10
-96.95501708984375
 20
24.45778656005859
  0
SEQEND
  8
20
  0
POLYLINE
  8
20
  6
CONTINUOUS
 66
     1
 70
     0
 40
0.0
 41
0.0
  0
VERTEX
  8
20
 10
-97.89251708984375
 20
24.92653656005859
 42
-0.09999999999999999
  0
VERTEX
  8
20
 10
-97.26751708984375
 20
24.92653656005859
  0
SEQEND
  8
20
  0
POLYLINE
  8
20
  6
CONTINUOUS
 66
     1
 70
     0
 40
0.0
 41
0.0
  0
VERTEX
  8
20
 10
-98.20501708984375
 20
23.58278656005859
 42
0.1388032518702531
  0
VERTEX
  8
20
 10
-98.08001708984375
 20
23.23903656005859
 42
0.1560058593749999
  0
VERTEX
  8
20
 10
-97.89251708984375
 20
23.11403656005859
 42
0.09999999999999999
  0
VERTEX
  8
20
 10
-97.26751708984375
 20
23.11403656005859
  0
SEQEND
  8
20
  0
POLYLINE
  8
20
  6
CONTINUOUS
 66
     1
 70
     0
 40
0.0
 41
0.0
  0
VERTEX
  8
20
 10
-97.08001708984375
 20
23.23903656005859
 42
-0.1560058593749999
  0
VERTEX
  8
20
 10
-97.26751708984375
 20
23.11403656005859
  0
SEQEND
  8
20
  0
POLYLINE
  8
20
  6
CONTINUOUS
 66
     1
 70
     0
 40
0.0
 41
0.0
  0
VERTEX
  8
20
 10
-96.95501708984375
 20
23.58278656005859
 42
-0.1388404774378878
  0
VERTEX
  8
20
 10
-97.08001708984375
 20
23.23903656005859
  0
SEQEND
  8
20
  0
POLYLINE
  8
20
  6
CONTINUOUS
 66
     1
 70
     0
 40
0.0
 41
0.0
  0
VERTEX
  8
20
 10
-104.1425170898438
 20
11.61403656005859
 42
0.3021931961323905
  0
VERTEX
  8
20
 10
-104.7050170898438
 20
11.95778656005859
 42
0.3318279123915235
  0
VERTEX
  8
20
 10
-105.2675170898438
 20
11.61403656005859
 42
0.09745105672602984
  0
VERTEX
  8
20
 10
-105.3612670898438
 20
11.02028656005859
  0
SEQEND
  8
20
  0
POLYLINE
  8
20
  6
CONTINUOUS
 66
     1
 70
     0
 40
0.0
 41
0.0
  0
VERTEX
  8
20
 10
-104.7050170898438
 20
10.08278656005859
 42
-0.3318279123915235
  0
VERTEX
  8
20
 10
-105.2675170898438
 20
10.42653656005859
 42
-0.09745105672602984
  0
VERTEX
  8
20
 10
-105.3612670898438
 20
11.02028656005859
  0
SEQEND
  8
20
  0
POLYLINE
  8
20
  6
CONTINUOUS
 66
     1
 70
     0
 40
0.0
 41
0.0
  0
VERTEX
  8
20
 10
-104.7050170898438
 20
10.08278656005859
 42
0.1969490968939551
  0
VERTEX
  8
20
 10
-104.2675170898438
 20
10.27028656005859
 42
0.1590770231073117
  0
VERTEX
  8
20
 10
-104.1112670898438
 20
10.86403656005859
  0
SEQEND
  8
20
  0
POLYLINE
  8
20
  6
CONTINUOUS
 66
     1
 70
     0
 40
0.0
 41
0.0
  0
VERTEX
  8
20
 10
-104.1112670898438
 20
10.08278656005859
  0
VERTEX
  8
20
 10
-104.1112670898438
 20
10.86403656005859
  0
VERTEX
  8
20
 10
-104.6425170898438
 20
10.86403656005859
  0
SEQEND
  8
20
  0
POLYLINE
  8
20
  6
CONTINUOUS
 66
     1
 70
     0
 40
0.0
 41
0.0
  0
VERTEX
  8
20
 10
-102.9862670898438
 20
10.08278656005859
  0
VERTEX
  8
20
 10
-102.3300170898438
 20
11.95778656005859
  0
VERTEX
  8
20
 10
-101.6737670898438
 20
10.08278656005859
  0
SEQEND
  8
20
  0
POLYLINE
  8
20
  6
CONTINUOUS
 66
     1
 70
     0
 40
0.0
 41
0.0
  0
VERTEX
  8
20
 10
-102.7675170898438
 20
10.70778656005859
  0
VERTEX
  8
20
 10
-101.8925170898438
 20
10.70778656005859
  0
SEQEND
  8
20
  0
POLYLINE
  8
20
  6
CONTINUOUS
 66
     1
 70
     0
 40
0.0
 41
0.0
  0
VERTEX
  8
20
 10
-99.95501708984375
 20
11.95778656005859
  0
VERTEX
  8
20
 10
-99.95501708984375
 20
10.08278656005859
  0
SEQEND
  8
20
  0
POLYLINE
  8
20
  6
CONTINUOUS
 66
     1
 70
     0
 40
0.0
 41
0.0
  0
VERTEX
  8
20
 10
-100.1425170898438
 20
10.08278656005859
  0
VERTEX
  8
20
 10
-99.76751708984375
 20
10.08278656005859
  0
SEQEND
  8
20
  0
POLYLINE
  8
20
  6
CONTINUOUS
 66
     1
 70
     0
 40
0.0
 41
0.0
  0
VERTEX
  8
20
 10
-100.1425170898438
 20
11.95778656005859
  0
VERTEX
  8
20
 10
-99.76751708984375
 20
11.95778656005859
  0
SEQEND
  8
20
  0
POLYLINE
  8
20
  6
CONTINUOUS
 66
     1
 70
     0
 40
0.0
 41
0.0
  0
VERTEX
  8
20
 10
-98.14251708984375
 20
10.08278656005859
  0
VERTEX
  8
20
 10
-98.14251708984375
 20
11.95778656005859
  0
VERTEX
  8
20
 10
-97.01751708984375
 20
10.08278656005859
  0
VERTEX
  8
20
 10
-97.01751708984375
 20
11.95778656005859
  0
SEQEND
  8
20
  0
POLYLINE
  8
20
  6
CONTINUOUS
 66
     1
 70
     0
 40
0.0
 41
0.0
  0
VERTEX
  8
20
 10
-105.0130004882813
 20
-2.604713439941406
 42
0.2974585220526675
  0
VERTEX
  8
20
 10
-104.4505004882813
 20
-2.917213439941406
  0
SEQEND
  8
20
  0
POLYLINE
  8
20
  6
CONTINUOUS
 66
     1
 70
     0
 40
0.0
 41
0.0
  0
VERTEX
  8
20
 10
-104.4192504882813
 20
-2.917213439941406
 42
0.4079387729169314
  0
VERTEX
  8
20
 10
-103.8255004882813
 20
-2.448463439941406
 42
0.3913532956858163
  0
VERTEX
  8
20
 10
-104.2317504882813
 20
-1.917213439941406
 42
-0.01431613156272763
  0
VERTEX
  8
20
 10
-104.7630004882813
 20
-1.792213439941406
 42
-0.386882504440048
  0
VERTEX
  8
20
 10
-104.9817504882813
 20
-1.417213439941406
 42
-0.3544187960937325
  0
VERTEX
  8
20
 10
-104.4505004882813
 20
-1.042213439941406
 42
-0.2195675929896393
  0
VERTEX
  8
20
 10
-103.9192504882813
 20
-1.292213439941406
  0
SEQEND
  8
20
  0
POLYLINE
  8
20
  6
CONTINUOUS
 66
     1
 70
     0
 40
0.0
 41
0.0
  0
VERTEX
  8
20
 10
-102.6380004882813
 20
-2.917213439941406
  0
VERTEX
  8
20
 10
-102.6380004882813
 20
-1.042213439941406
  0
VERTEX
  8
20
 10
-102.0755004882813
 20
-1.042213439941406
  0
SEQEND
  8
20
  0
POLYLINE
  8
20
  6
CONTINUOUS
 66
     1
 70
     0
 40
0.0
 41
0.0
  0
VERTEX
  8
20
 10
-102.0755004882813
 20
-1.885963439941406
  0
VERTEX
  8
20
 10
-102.6380004882813
 20
-1.885963439941406
  0
SEQEND
  8
20
  0
POLYLINE
  8
20
  6
CONTINUOUS
 66
     1
 70
     0
 40
0.0
 41
0.0
  0
VERTEX
  8
20
 10
-102.0755004882813
 20
-1.885963439941406
 42
0.39599609375
  0
VERTEX
  8
20
 10
-101.6067504882813
 20
-1.448463439941406
  0
SEQEND
  8
20
  0
POLYLINE
  8
20
  6
CONTINUOUS
 66
     1
 70
     0
 40
0.0
 41
0.0
  0
VERTEX
  8
20
 10
-102.0755004882813
 20
-1.042213439941406
 42
-0.4219405962189934
  0
VERTEX
  8
20
 10
-101.6067504882813
 20
-1.448463439941406
  0
SEQEND
  8
20
  0
POLYLINE
  8
20
  6
CONTINUOUS
 66
     1
 70
     0
 40
0.0
 41
0.0
  0
VERTEX
  8
20
 10
-100.3567504882813
 20
-2.917213439941406
  0
VERTEX
  8
20
 10
-99.70050048828125
 20
-1.042213439941406
  0
VERTEX
  8
20
 10
-99.04425048828125
 20
-2.917213439941406
  0
SEQEND
  8
20
  0
POLYLINE
  8
20
  6
CONTINUOUS
 66
     1
 70
     0
 40
0.0
 41
0.0
  0
VERTEX
  8
20
 10
-100.1380004882813
 20
-2.292213439941406
  0
VERTEX
  8
20
 10
-99.26300048828125
 20
-2.292213439941406
  0
SEQEND
  8
20
  0
POLYLINE
  8
20
  6
CONTINUOUS
 66
     1
 70
     0
 40
0.0
 41
0.0
  0
VERTEX
  8
20
 10
-97.88800048828125
 20
-2.917213439941406
  0
VERTEX
  8
20
 10
-97.88800048828125
 20
-1.042213439941406
  0
VERTEX
  8
20
 10
-96.76300048828125
 20
-2.917213439941406
  0
VERTEX
  8
20
 10
-96.76300048828125
 20
-1.042213439941406
  0
SEQEND
  8
20
  0
POLYLINE
  8
20
  6
CONTINUOUS
 66
     1
 70
     0
 40
0.0
 41
0.0
  0
VERTEX
  8
20
 10
-118.6276397705078
 20
-19.01983261108398
 42
0.3090239372518139
  0
VERTEX
  8
20
 10
-119.1276397705078
 20
-18.67608261108398
 42
0.2703807796917498
  0
VERTEX
  8
20
 10
-119.6276397705078
 20
-19.01983261108398
 42
0.1145143325547374
  0
VERTEX
  8
20
 10
-119.7838897705078
 20
-19.61358261108398
 42
0.1335844741349431
  0
VERTEX
  8
20
 10
-119.6276397705078
 20
-20.20733261108398
 42
0.2703835812312522
  0
VERTEX
  8
20
 10
-119.1276397705078
 20
-20.55108261108398
  0
SEQEND
  8
20
  0
POLYLINE
  8
20
  6
CONTINUOUS
 66
     1
 70
     0
 40
0.0
 41
0.0
  0
VERTEX
  8
20
 10
-119.0963897705078
 20
-20.55108261108398
 42
0.3418533325796874
  0
VERTEX
  8
20
 10
-118.5651397705078
 20
-20.08233261108398
  0
SEQEND
  8
20
  0
POLYLINE
  8
20
  6
CONTINUOUS
 66
     1
 70
     0
 40
0.0
 41
0.0
  0
VERTEX
  8
20
 10
-117.4088897705078
 20
-20.55108261108398
  0
VERTEX
  8
20
 10
-116.7526397705078
 20
-18.67608261108398
  0
VERTEX
  8
20
 10
-116.0963897705078
 20
-20.55108261108398
  0
SEQEND
  8
20
  0
POLYLINE
  8
20
  6
CONTINUOUS
 66
     1
 70
     0
 40
0.0
 41
0.0
  0
VERTEX
  8
20
 10
-117.1901397705078
 20
-19.92608261108398
  0
VERTEX
  8
20
 10
-116.3151397705078
 20
-19.92608261108398
  0
SEQEND
  8
20
  0
POLYLINE
  8
20
  6
CONTINUOUS
 66
     1
 70
     0
 40
0.0
 41
0.0
  0
VERTEX
  8
20
 10
-114.9401397705078
 20
-18.67608261108398
  0
VERTEX
  8
20
 10
-114.9401397705078
 20
-20.55108261108398
  0
VERTEX
  8
20
 10
-113.7213897705078
 20
-20.55108261108398
  0
SEQEND
  8
20
  0
POLYLINE
  8
20
  6
CONTINUOUS
 66
     1
 70
     0
 40
0.0
 41
0.0
  0
VERTEX
  8
20
 10
-112.0026397705078
 20
-18.67608261108398
  0
VERTEX
  8
20
 10
-112.0026397705078
 20
-20.55108261108398
  0
SEQEND
  8
20
  0
POLYLINE
  8
20
  6
CONTINUOUS
 66
     1
 70
     0
 40
0.0
 41
0.0
  0
VERTEX
  8
20
 10
-112.1901397705078
 20
-20.55108261108398
  0
VERTEX
  8
20
 10
-111.8151397705078
 20
-20.55108261108398
  0
SEQEND
  8
20
  0
POLYLINE
  8
20
  6
CONTINUOUS
 66
     1
 70
     0
 40
0.0
 41
0.0
  0
VERTEX
  8
20
 10
-112.1901397705078
 20
-18.67608261108398
  0
VERTEX
  8
20
 10
-111.8151397705078
 20
-18.67608261108398
  0
SEQEND
  8
20
  0
POLYLINE
  8
20
  6
CONTINUOUS
 66
     1
 70
     0
 40
0.0
 41
0.0
  0
VERTEX
  8
20
 10
-109.6276397705078
 20
-20.55108261108398
  0
VERTEX
  8
20
 10
-110.1901397705078
 20
-20.55108261108398
  0
VERTEX
  8
20
 10
-110.1901397705078
 20
-18.67608261108398
  0
VERTEX
  8
20
 10
-109.6276397705078
 20
-18.67608261108398
  0
SEQEND
  8
20
  0
POLYLINE
  8
20
  6
CONTINUOUS
 66
     1
 70
     0
 40
0.0
 41
0.0
  0
VERTEX
  8
20
 10
-109.6276397705078
 20
-19.51983261108398
  0
VERTEX
  8
20
 10
-110.1901397705078
 20
-19.51983261108398
  0
SEQEND
  8
20
  0
POLYLINE
  8
20
  6
CONTINUOUS
 66
     1
 70
     0
 40
0.0
 41
0.0
  0
VERTEX
  8
20
 10
-109.0651397705078
 20
-20.01983261108398
 42
-0.4493390456337503
  0
VERTEX
  8
20
 10
-109.6276397705078
 20
-20.55108261108398
  0
SEQEND
  8
20
  0
POLYLINE
  8
20
  6
CONTINUOUS
 66
     1
 70
     0
 40
0.0
 41
0.0
  0
VERTEX
  8
20
 10
-109.6276397705078
 20
-19.51983261108398
 42
0.39599609375
  0
VERTEX
  8
20
 10
-109.1588897705078
 20
-19.08233261108398
  0
SEQEND
  8
20
  0
POLYLINE
  8
20
  6
CONTINUOUS
 66
     1
 70
     0
 40
0.0
 41
0.0
  0
VERTEX
  8
20
 10
-109.6276397705078
 20
-19.51983261108398
 42
-0.4152245581069569
  0
VERTEX
  8
20
 10
-109.0651397705078
 20
-20.01983261108398
  0
SEQEND
  8
20
  0
POLYLINE
  8
20
  6
CONTINUOUS
 66
     1
 70
     0
 40
0.0
 41
0.0
  0
VERTEX
  8
20
 10
-109.6276397705078
 20
-18.67608261108398
 42
-0.4219405962189934
  0
VERTEX
  8
20
 10
-109.1588897705078
 20
-19.08233261108398
  0
SEQEND
  8
20
  0
POLYLINE
  8
20
  6
CONTINUOUS
 66
     1
 70
     0
 40
0.0
 41
0.0
  0
VERTEX
  8
20
 10
-107.1743774414063
 20
-25.89178848266602
 42
0.3090239372518139
  0
VERTEX
  8
20
 10
-107.6743774414063
 20
-25.54803848266602
 42
0.2704006299832661
  0
VERTEX
  8
20
 10
-108.1743774414063
 20
-25.89178848266602
 42
0.1145143325547374
  0
VERTEX
  8
20
 10
-108.3306274414063
 20
-26.48553848266602
 42
0.1336076637095826
  0
VERTEX
  8
20
 10
-108.1743774414063
 20
-27.07928848266602
 42
0.2703922249219021
  0
VERTEX
  8
20
 10
-107.6743774414063
 20
-27.42303848266602
  0
SEQEND
  8
20
  0
POLYLINE
  8
20
  6
CONTINUOUS
 66
     1
 70
     0
 40
0.0
 41
0.0
  0
VERTEX
  8
20
 10
-107.6431274414063
 20
-27.42303848266602
 42
0.3418533325796874
  0
VERTEX
  8
20
 10
-107.1118774414063
 20
-26.95428848266602
  0
SEQEND
  8
20
  0
POLYLINE
  8
20
  6
CONTINUOUS
 66
     1
 70
     0
 40
0.0
 41
0.0
  0
VERTEX
  8
20
 10
-105.8618774414063
 20
-25.54803848266602
  0
VERTEX
  8
20
 10
-105.8618774414063
 20
-27.42303848266602
  0
SEQEND
  8
20
  0
POLYLINE
  8
20
  6
CONTINUOUS
 66
     1
 70
     0
 40
0.0
 41
0.0
  0
VERTEX
  8
20
 10
-104.7368774414063
 20
-27.42303848266602
  0
VERTEX
  8
20
 10
-104.7368774414063
 20
-25.54803848266602
  0
SEQEND
  8
20
  0
POLYLINE
  8
20
  6
CONTINUOUS
 66
     1
 70
     0
 40
0.0
 41
0.0
  0
VERTEX
  8
20
 10
-105.8618774414063
 20
-26.39178848266602
  0
VERTEX
  8
20
 10
-104.7368774414063
 20
-26.39178848266602
  0
SEQEND
  8
20
  0
POLYLINE
  8
20
  6
CONTINUOUS
 66
     1
 70
     0
 40
0.0
 41
0.0
  0
VERTEX
  8
20
 10
-102.2681274414063
 20
-27.42303848266602
  0
VERTEX
  8
20
 10
-103.5806274414063
 20
-27.42303848266602
  0
VERTEX
  8
20
 10
-103.5806274414063
 20
-25.54803848266602
  0
VERTEX
  8
20
 10
-102.2681274414063
 20
-25.54803848266602
  0
SEQEND
  8
20
  0
POLYLINE
  8
20
  6
CONTINUOUS
 66
     1
 70
     0
 40
0.0
 41
0.0
  0
VERTEX
  8
20
 10
-103.5806274414063
 20
-26.39178848266602
  0
VERTEX
  8
20
 10
-102.6431274414063
 20
-26.39178848266602
  0
SEQEND
  8
20
  0
POLYLINE
  8
20
  6
CONTINUOUS
 66
     1
 70
     0
 40
0.0
 41
0.0
  0
VERTEX
  8
20
 10
-100.0493774414063
 20
-25.89178848266602
 42
0.3090239372518139
  0
VERTEX
  8
20
 10
-100.5493774414063
 20
-25.54803848266602
 42
0.2704006299832661
  0
VERTEX
  8
20
 10
-101.0493774414063
 20
-25.89178848266602
 42
0.1145143325547374
  0
VERTEX
  8
20
 10
-101.2056274414063
 20
-26.48553848266602
 42
0.1336076637095826
  0
VERTEX
  8
20
 10
-101.0493774414063
 20
-27.07928848266602
 42
0.2703922249219021
  0
VERTEX
  8
20
 10
-100.5493774414063
 20
-27.42303848266602
  0
SEQEND
  8
20
  0
POLYLINE
  8
20
  6
CONTINUOUS
 66
     1
 70
     0
 40
0.0
 41
0.0
  0
VERTEX
  8
20
 10
-100.5181274414063
 20
-27.42303848266602
 42
0.3418533325796874
  0
VERTEX
  8
20
 10
-99.98687744140625
 20
-26.95428848266602
  0
SEQEND
  8
20
  0
POLYLINE
  8
20
  6
CONTINUOUS
 66
     1
 70
     0
 40
0.0
 41
0.0
  0
VERTEX
  8
20
 10
-98.73687744140625
 20
-25.54803848266602
  0
VERTEX
  8
20
 10
-98.73687744140625
 20
-27.42303848266602
  0
SEQEND
  8
20
  0
POLYLINE
  8
20
  6
CONTINUOUS
 66
     1
 70
     0
 40
0.0
 41
0.0
  0
VERTEX
  8
20
 10
-97.51812744140625
 20
-25.54803848266602
  0
VERTEX
  8
20
 10
-98.73687744140625
 20
-26.76678848266602
  0
SEQEND
  8
20
  0
POLYLINE
  8
20
  6
CONTINUOUS
 66
     1
 70
     0
 40
0.0
 41
0.0
  0
VERTEX
  8
20
 10
-98.45562744140625
 20
-26.48553848266602
  0
VERTEX
  8
20
 10
-97.51812744140625
 20
-27.42303848266602
  0
SEQEND
  8
20
  0
POLYLINE
  8
20
  6
CONTINUOUS
 66
     1
 70
     0
 40
0.0
 41
0.0
  0
VERTEX
  8
20
 10
-126.0698852539063
 20
-39.61858367919922
  0
VERTEX
  8
20
 10
-126.0698852539063
 20
-37.79045867919922
  0
SEQEND
  8
20
  0
POLYLINE
  8
20
  6
CONTINUOUS
 66
     1
 70
     0
 40
0.0
 41
0.0
  0
VERTEX
  8
20
 10
-125.1792602539063
 20
-38.68108367919922
  0
VERTEX
  8
20
 10
-127.0073852539063
 20
-38.68108367919922
  0
SEQEND
  8
20
  0
POLYLINE
  8
20
  6
CONTINUOUS
 66
     1
 70
     0
 40
0.0
 41
0.0
  0
VERTEX
  8
20
 10
-126.8412170410156
 20
-48.78432464599609
  0
VERTEX
  8
20
 10
-124.9193420410156
 20
-48.78432464599609
  0
SEQEND
  8
20
  0
POLYLINE
  8
20
  6
CONTINUOUS
 66
     1
 70
     0
 40
0.0
 41
0.0
  0
VERTEX
  8
20
 10
-113.267707824707
 20
-53.74466323852539
  0
VERTEX
  8
20
 10
-113.267707824707
 20
-51.86966323852539
  0
VERTEX
  8
20
 10
-112.611457824707
 20
-52.90091323852539
  0
VERTEX
  8
20
 10
-111.955207824707
 20
-51.86966323852539
  0
VERTEX
  8
20
 10
-111.955207824707
 20
-53.74466323852539
  0
SEQEND
  8
20
  0
POLYLINE
  8
20
  6
CONTINUOUS
 66
     1
 70
     0
 40
0.0
 41
0.0
  0
VERTEX
  8
20
 10
-110.861457824707
 20
-53.24466323852539
 42
-0.07142857142857143
  0
VERTEX
  8
20
 10
-110.861457824707
 20
-52.36966323852539
 42
-0.1388032518702531
  0
VERTEX
  8
20
 10
-110.736457824707
 20
-52.02591323852539
 42
-0.1560058593749999
  0
VERTEX
  8
20
 10
-110.548957824707
 20
-51.90091323852539
  0
SEQEND
  8
20
  0
POLYLINE
  8
20
  6
CONTINUOUS
 66
     1
 70
     0
 40
0.0
 41
0.0
  0
VERTEX
  8
20
 10
-109.736457824707
 20
-52.02591323852539
 42
0.1560058593749999
  0
VERTEX
  8
20
 10
-109.923957824707
 20
-51.90091323852539
  0
SEQEND
  8
20
  0
POLYLINE
  8
20
  6
CONTINUOUS
 66
     1
 70
     0
 40
0.0
 41
0.0
  0
VERTEX
  8
20
 10
-109.611457824707
 20
-52.36966323852539
 42
0.1388032518702531
  0
VERTEX
  8
20
 10
-109.736457824707
 20
-52.02591323852539
  0
SEQEND
  8
20
  0
POLYLINE
  8
20
  6
CONTINUOUS
 66
     1
 70
     0
 40
0.0
 41
0.0
  0
VERTEX
  8
20
 10
-109.611457824707
 20
-53.24466323852539
 42
0.07142857142857143
  0
VERTEX
  8
20
 10
-109.611457824707
 20
-52.36966323852539
  0
SEQEND
  8
20
  0
POLYLINE
  8
20
  6
CONTINUOUS
 66
     1
 70
     0
 40
0.0
 41
0.0
  0
VERTEX
  8
20
 10
-110.548957824707
 20
-51.90091323852539
 42
-0.09999999999999999
  0
VERTEX
  8
20
 10
-109.923957824707
 20
-51.90091323852539
  0
SEQEND
  8
20
  0
POLYLINE
  8
20
  6
CONTINUOUS
 66
     1
 70
     0
 40
0.0
 41
0.0
  0
VERTEX
  8
20
 10
-110.861457824707
 20
-53.24466323852539
 42
0.1388131011168277
  0
VERTEX
  8
20
 10
-110.736457824707
 20
-53.58841323852539
 42
0.1560058593749999
  0
VERTEX
  8
20
 10
-110.548957824707
 20
-53.71341323852539
 42
0.09999999999999999
  0
VERTEX
  8
20
 10
-109.923957824707
 20
-53.71341323852539
  0
SEQEND
  8
20
  0
POLYLINE
  8
20
  6
CONTINUOUS
 66
     1
 70
     0
 40
0.0
 41
0.0
  0
VERTEX
  8
20
 10
-109.736457824707
 20
-53.58841323852539
 42
-0.1560058593749999
  0
VERTEX
  8
20
 10
-109.923957824707
 20
-53.71341323852539
  0
SEQEND
  8
20
  0
POLYLINE
  8
20
  6
CONTINUOUS
 66
     1
 70
     0
 40
0.0
 41
0.0
  0
VERTEX
  8
20
 10
-109.611457824707
 20
-53.24466323852539
 42
-0.1388131011168277
  0
VERTEX
  8
20
 10
-109.736457824707
 20
-53.58841323852539
  0
SEQEND
  8
20
  0
POLYLINE
  8
20
  6
CONTINUOUS
 66
     1
 70
     0
 40
0.0
 41
0.0
  0
VERTEX
  8
20
 10
-108.423957824707
 20
-53.74466323852539
  0
VERTEX
  8
20
 10
-108.423957824707
 20
-51.86966323852539
  0
VERTEX
  8
20
 10
-107.298957824707
 20
-53.74466323852539
  0
VERTEX
  8
20
 10
-107.298957824707
 20
-51.86966323852539
  0
SEQEND
  8
20
  0
POLYLINE
  8
20
  6
CONTINUOUS
 66
     1
 70
     0
 40
0.0
 41
0.0
  0
VERTEX
  8
20
 10
-105.486457824707
 20
-51.86966323852539
  0
VERTEX
  8
20
 10
-105.486457824707
 20
-53.74466323852539
  0
SEQEND
  8
20
  0
POLYLINE
  8
20
  6
CONTINUOUS
 66
     1
 70
     0
 40
0.0
 41
0.0
  0
VERTEX
  8
20
 10
-105.673957824707
 20
-53.74466323852539
  0
VERTEX
  8
20
 10
-105.298957824707
 20
-53.74466323852539
  0
SEQEND
  8
20
  0
POLYLINE
  8
20
  6
CONTINUOUS
 66
     1
 70
     0
 40
0.0
 41
0.0
  0
VERTEX
  8
20
 10
-105.673957824707
 20
-51.86966323852539
  0
VERTEX
  8
20
 10
-105.298957824707
 20
-51.86966323852539
  0
SEQEND
  8
20
  0
POLYLINE
  8
20
  6
CONTINUOUS
 66
     1
 70
     0
 40
0.0
 41
0.0
  0
VERTEX
  8
20
 10
-103.111457824707
 20
-51.86966323852539
  0
VERTEX
  8
20
 10
-103.111457824707
 20
-53.74466323852539
  0
SEQEND
  8
20
  0
POLYLINE
  8
20
  6
CONTINUOUS
 66
     1
 70
     0
 40
0.0
 41
0.0
  0
VERTEX
  8
20
 10
-103.767707824707
 20
-51.86966323852539
  0
VERTEX
  8
20
 10
-102.455207824707
 20
-51.86966323852539
  0
SEQEND
  8
20
  0
POLYLINE
  8
20
  6
CONTINUOUS
 66
     1
 70
     0
 40
0.0
 41
0.0
  0
VERTEX
  8
20
 10
-101.361457824707
 20
-53.24466323852539
 42
-0.07142857142857143
  0
VERTEX
  8
20
 10
-101.361457824707
 20
-52.36966323852539
 42
-0.1388032518702531
  0
VERTEX
  8
20
 10
-101.236457824707
 20
-52.02591323852539
 42
-0.1560058593749999
  0
VERTEX
  8
20
 10
-101.048957824707
 20
-51.90091323852539
  0
SEQEND
  8
20
  0
POLYLINE
  8
20
  6
CONTINUOUS
 66
     1
 70
     0
 40
0.0
 41
0.0
  0
VERTEX
  8
20
 10
-100.236457824707
 20
-52.02591323852539
 42
0.1560058593749999
  0
VERTEX
  8
20
 10
-100.423957824707
 20
-51.90091323852539
  0
SEQEND
  8
20
  0
POLYLINE
  8
20
  6
CONTINUOUS
 66
     1
 70
     0
 40
0.0
 41
0.0
  0
VERTEX
  8
20
 10
-100.111457824707
 20
-52.36966323852539
 42
0.1388032518702531
  0
VERTEX
  8
20
 10
-100.236457824707
 20
-52.02591323852539
  0
SEQEND
  8
20
  0
POLYLINE
  8
20
  6
CONTINUOUS
 66
     1
 70
     0
 40
0.0
 41
0.0
  0
VERTEX
  8
20
 10
-100.111457824707
 20
-53.24466323852539
 42
0.07142857142857143
  0
VERTEX
  8
20
 10
-100.111457824707
 20
-52.36966323852539
  0
SEQEND
  8
20
  0
POLYLINE
  8
20
  6
CONTINUOUS
 66
     1
 70
     0
 40
0.0
 41
0.0
  0
VERTEX
  8
20
 10
-101.048957824707
 20
-51.90091323852539
 42
-0.09999999999999999
  0
VERTEX
  8
20
 10
-100.423957824707
 20
-51.90091323852539
  0
SEQEND
  8
20
  0
POLYLINE
  8
20
  6
CONTINUOUS
 66
     1
 70
     0
 40
0.0
 41
0.0
  0
VERTEX
  8
20
 10
-101.361457824707
 20
-53.24466323852539
 42
0.1388131011168277
  0
VERTEX
  8
20
 10
-101.236457824707
 20
-53.58841323852539
 42
0.1560058593749999
  0
VERTEX
  8
20
 10
-101.048957824707
 20
-53.71341323852539
 42
0.09999999999999999
  0
VERTEX
  8
20
 10
-100.423957824707
 20
-53.71341323852539
  0
SEQEND
  8
20
  0
POLYLINE
  8
20
  6
CONTINUOUS
 66
     1
 70
     0
 40
0.0
 41
0.0
  0
VERTEX
  8
20
 10
-100.236457824707
 20
-53.58841323852539
 42
-0.1560058593749999
  0
VERTEX
  8
20
 10
-100.423957824707
 20
-53.71341323852539
  0
SEQEND
  8
20
  0
POLYLINE
  8
20
  6
CONTINUOUS
 66
     1
 70
     0
 40
0.0
 41
0.0
  0
VERTEX
  8
20
 10
-100.111457824707
 20
-53.24466323852539
 42
-0.1388131011168277
  0
VERTEX
  8
20
 10
-100.236457824707
 20
-53.58841323852539
  0
SEQEND
  8
20
  0
POLYLINE
  8
20
  6
CONTINUOUS
 66
     1
 70
     0
 40
0.0
 41
0.0
  0
VERTEX
  8
20
 10
-98.92395782470703
 20
-53.74466323852539
  0
VERTEX
  8
20
 10
-98.92395782470703
 20
-51.86966323852539
  0
VERTEX
  8
20
 10
-98.36145782470703
 20
-51.86966323852539
  0
SEQEND
  8
20
  0
POLYLINE
  8
20
  6
CONTINUOUS
 66
     1
 70
     0
 40
0.0
 41
0.0
  0
VERTEX
  8
20
 10
-98.92395782470703
 20
-52.71341323852539
  0
VERTEX
  8
20
 10
-98.36145782470703
 20
-52.71341323852539
  0
VERTEX
  8
20
 10
-97.89270782470703
 20
-53.74466323852539
  0
SEQEND
  8
20
  0
POLYLINE
  8
20
  6
CONTINUOUS
 66
     1
 70
     0
 40
0.0
 41
0.0
  0
VERTEX
  8
20
 10
-98.36145782470703
 20
-52.71341323852539
 42
0.39599609375
  0
VERTEX
  8
20
 10
-97.89270782470703
 20
-52.27591323852539
  0
SEQEND
  8
20
  0
POLYLINE
  8
20
  6
CONTINUOUS
 66
     1
 70
     0
 40
0.0
 41
0.0
  0
VERTEX
  8
20
 10
-98.36145782470703
 20
-51.86966323852539
 42
-0.4219166419325917
  0
VERTEX
  8
20
 10
-97.89270782470703
 20
-52.27591323852539
  0
SEQEND
  8
20
  0
POLYLINE
  8
20
  6
CONTINUOUS
 66
     1
 70
     0
 40
0.0
 41
0.0
  0
VERTEX
  8
20
 10
-134.9970703125
 20
88.38953399658203
  0
VERTEX
  8
20
 10
-134.9970703125
 20
85.57703399658203
  0
SEQEND
  8
20
  0
POLYLINE
  8
20
  6
CONTINUOUS
 66
     1
 70
     0
 40
0.0
 41
0.0
  0
VERTEX
  8
20
 10
-135.9814453125
 20
88.38953399658203
  0
VERTEX
  8
20
 10
-134.0126953125
 20
88.38953399658203
  0
SEQEND
  8
20
  0
POLYLINE
  8
20
  6
CONTINUOUS
 66
     1
 70
     0
 40
0.0
 41
0.0
  0
VERTEX
  8
20
 10
-131.7158203125
 20
87.31140899658203
  0
VERTEX
  8
20
 10
-131.7158203125
 20
85.48328399658203
  0
SEQEND
  8
20
  0
POLYLINE
  8
20
  6
CONTINUOUS
 66
     1
 70
     0
 40
0.0
 41
0.0
  0
VERTEX
  8
20
 10
-131.7158203125
 20
87.03015899658203
 42
-0.278558118999334
  0
VERTEX
  8
20
 10
-131.0126953125
 20
87.31140899658203
  0
SEQEND
  8
20
  0
POLYLINE
  8
20
  6
CONTINUOUS
 66
     1
 70
     0
 40
0.0
 41
0.0
  0
VERTEX
  8
20
 10
-127.4033203125
 20
85.85828399658203
 42
-0.3001302083333333
  0
VERTEX
  8
20
 10
-127.8720703125
 20
85.57703399658203
  0
SEQEND
  8
20
  0
POLYLINE
  8
20
  6
CONTINUOUS
 66
     1
 70
     0
 40
0.0
 41
0.0
  0
VERTEX
  8
20
 10
-127.8720703125
 20
87.26453399658203
 42
0.2172823430783226
  0
VERTEX
  8
20
 10
-128.3876953125
 20
87.03015899658203
  0
SEQEND
  8
20
  0
POLYLINE
  8
20
  6
CONTINUOUS
 66
     1
 70
     0
 40
0.0
 41
0.0
  0
VERTEX
  8
20
 10
-127.3564453125
 20
85.85828399658203
 42
0.3796539548563507
  0
VERTEX
  8
20
 10
-127.0283203125
 20
85.57703399658203
  0
SEQEND
  8
20
  0
POLYLINE
  8
20
  6
CONTINUOUS
 66
     1
 70
     0
 40
0.0
 41
0.0
  0
VERTEX
  8
20
 10
-127.8720703125
 20
87.26453399658203
 42
-0.4372473929181642
  0
VERTEX
  8
20
 10
-127.3564453125
 20
86.79578399658203
  0
VERTEX
  8
20
 10
-127.3564453125
 20
85.85828399658203
  0
SEQEND
  8
20
  0
POLYLINE
  8
20
  6
CONTINUOUS
 66
     1
 70
     0
 40
0.0
 41
0.0
  0
VERTEX
  8
20
 10
-128.2470703125
 20
85.67078399658203
 42
0.1516132120631882
  0
VERTEX
  8
20
 10
-127.8720703125
 20
85.57703399658203
  0
SEQEND
  8
20
  0
POLYLINE
  8
20
  6
CONTINUOUS
 66
     1
 70
     0
 40
0.0
 41
0.0
  0
VERTEX
  8
20
 10
-128.2470703125
 20
85.67078399658203
 42
-0.6299803157777451
  0
VERTEX
  8
20
 10
-128.1064453125
 20
86.46765899658203
  0
VERTEX
  8
20
 10
-127.3564453125
 20
86.70203399658203
  0
SEQEND
  8
20
  0
POLYLINE
  8
20
  6
CONTINUOUS
 66
     1
 70
     0
 40
0.0
 41
0.0
  0
VERTEX
  8
20
 10
-123.7470703125
 20
85.48328399658203
  0
VERTEX
  8
20
 10
-123.7470703125
 20
86.60828399658203
  0
SEQEND
  8
20
  0
POLYLINE
  8
20
  6
CONTINUOUS
 66
     1
 70
     0
 40
0.0
 41
0.0
  0
VERTEX
  8
20
 10
-124.8720703125
 20
86.60828399658203
 42
-0.4142135623730812
  0
VERTEX
  8
20
 10
-124.3095703125
 20
87.17078399658203
 42
-0.4142135623730812
  0
VERTEX
  8
20
 10
-123.7470703125
 20
86.60828399658203
  0
SEQEND
  8
20
  0
POLYLINE
  8
20
  6
CONTINUOUS
 66
     1
 70
     0
 40
0.0
 41
0.0
  0
VERTEX
  8
20
 10
-124.8720703125
 20
87.17078399658203
  0
VERTEX
  8
20
 10
-124.8720703125
 20
85.48328399658203
  0
SEQEND
  8
20
  0
POLYLINE
  8
20
  6
CONTINUOUS
 66
     1
 70
     0
 40
0.0
 41
0.0
  0
VERTEX
  8
20
 10
-121.2626953125
 20
85.85828399658203
 42
0.2993087548049213
  0
VERTEX
  8
20
 10
-120.7470703125
 20
85.57703399658203
 42
0.4082915227166196
  0
VERTEX
  8
20
 10
-120.1845703125
 20
85.99890899658203
 42
0.3904485907105995
  0
VERTEX
  8
20
 10
-120.5595703125
 20
86.46765899658203
 42
-0.01224489795918365
  0
VERTEX
  8
20
 10
-121.0283203125
 20
86.56140899658203
 42
-0.3778802248752893
  0
VERTEX
  8
20
 10
-121.2626953125
 20
86.88953399658203
 42
-0.3584228381593209
  0
VERTEX
  8
20
 10
-120.7470703125
 20
87.26453399658203
 42
-0.2124163433243926
  0
VERTEX
  8
20
 10
-120.2783203125
 20
87.03015899658203
  0
SEQEND
  8
20
  0
POLYLINE
  8
20
  6
CONTINUOUS
 66
     1
 70
     0
 40
0.0
 41
0.0
  0
VERTEX
  8
20
 10
-117.1845703125
 20
86.74890899658203
 42
-0.4142135623730644
  0
VERTEX
  8
20
 10
-116.7626953125
 20
87.17078399658203
 42
-0.4142135623730644
  0
VERTEX
  8
20
 10
-116.3408203125
 20
86.74890899658203
  0
SEQEND
  8
20
  0
POLYLINE
  8
20
  6
CONTINUOUS
 66
     1
 70
     0
 40
0.0
 41
0.0
  0
VERTEX
  8
20
 10
-117.1845703125
 20
86.74890899658203
 42
0.4142135623730644
  0
VERTEX
  8
20
 10
-117.6064453125
 20
87.17078399658203
 42
0.4142135623730644
  0
VERTEX
  8
20
 10
-118.0283203125
 20
86.74890899658203
  0
SEQEND
  8
20
  0
POLYLINE
  8
20
  6
CONTINUOUS
 66
     1
 70
     0
 40
0.0
 41
0.0
  0
VERTEX
  8
20
 10
-116.3408203125
 20
86.74890899658203
  0
VERTEX
  8
20
 10
-116.3408203125
 20
85.48328399658203
  0
SEQEND
  8
20
  0
POLYLINE
  8
20
  6
CONTINUOUS
 66
     1
 70
     0
 40
0.0
 41
0.0
  0
VERTEX
  8
20
 10
-117.1845703125
 20
86.74890899658203
  0
VERTEX
  8
20
 10
-117.1845703125
 20
85.48328399658203
  0
SEQEND
  8
20
  0
POLYLINE
  8
20
  6
CONTINUOUS
 66
     1
 70
     0
 40
0.0
 41
0.0
  0
VERTEX
  8
20
 10
-118.0283203125
 20
85.48328399658203
  0
VERTEX
  8
20
 10
-118.0283203125
 20
87.17078399658203
  0
SEQEND
  8
20
  0
POLYLINE
  8
20
  6
CONTINUOUS
 66
     1
 70
     0
 40
0.0
 41
0.0
  0
VERTEX
  8
20
 10
-113.6220703125
 20
87.17078399658203
  0
VERTEX
  8
20
 10
-113.6220703125
 20
85.48328399658203
  0
SEQEND
  8
20
  0
POLYLINE
  8
20
  6
CONTINUOUS
 66
     1
 70
     0
 40
0.0
 41
0.0
  0
VERTEX
  8
20
 10
-113.6220703125
 20
87.59265899658203
  0
VERTEX
  8
20
 10
-113.6220703125
 20
88.01453399658203
  0
SEQEND
  8
20
  0
POLYLINE
  8
20
  6
CONTINUOUS
 66
     1
 70
     0
 40
0.0
 41
0.0
  0
VERTEX
  8
20
 10
-110.2001953125
 20
88.38953399658203
  0
VERTEX
  8
20
 10
-110.2001953125
 20
85.99890899658203
 42
0.8690476190476191
  0
VERTEX
  8
20
 10
-109.2158203125
 20
85.99890899658203
  0
SEQEND
  8
20
  0
POLYLINE
  8
20
  6
CONTINUOUS
 66
     1
 70
     0
 40
0.0
 41
0.0
  0
VERTEX
  8
20
 10
-110.6220703125
 20
87.26453399658203
  0
VERTEX
  8
20
 10
-109.4970703125
 20
87.26453399658203
  0
SEQEND
  8
20
  0
POLYLINE
  8
20
  6
CONTINUOUS
 66
     1
 70
     0
 40
0.0
 41
0.0
  0
VERTEX
  8
20
 10
-106.6376953125
 20
88.38953399658203
  0
VERTEX
  8
20
 10
-106.6376953125
 20
85.99890899658203
 42
0.8690476190476191
  0
VERTEX
  8
20
 10
-105.6533203125
 20
85.99890899658203
  0
SEQEND
  8
20
  0
POLYLINE
  8
20
  6
CONTINUOUS
 66
     1
 70
     0
 40
0.0
 41
0.0
  0
VERTEX
  8
20
 10
-107.0595703125
 20
87.26453399658203
  0
VERTEX
  8
20
 10
-105.9345703125
 20
87.26453399658203
  0
SEQEND
  8
20
  0
POLYLINE
  8
20
  6
CONTINUOUS
 66
     1
 70
     0
 40
0.0
 41
0.0
  0
VERTEX
  8
20
 10
-102.9345703125
 20
87.26453399658203
 42
0.3120323721191117
  0
VERTEX
  8
20
 10
-103.6376953125
 20
86.79578399658203
 42
0.125
  0
VERTEX
  8
20
 10
-103.6376953125
 20
86.04578399658203
 42
0.3258748823140563
  0
VERTEX
  8
20
 10
-102.9345703125
 20
85.57703399658203
 42
0.3560079531258248
  0
VERTEX
  8
20
 10
-102.2783203125
 20
86.04578399658203
  0
SEQEND
  8
20
  0
POLYLINE
  8
20
  6
CONTINUOUS
 66
     1
 70
     0
 40
0.0
 41
0.0
  0
VERTEX
  8
20
 10
-103.6845703125
 20
86.51453399658203
  0
VERTEX
  8
20
 10
-102.2314453125
 20
86.51453399658203
 42
0.4901491300969927
  0
VERTEX
  8
20
 10
-102.9345703125
 20
87.26453399658203
  0
SEQEND
  8
20
  0
POLYLINE
  8
20
  6
CONTINUOUS
 66
     1
 70
     0
 40
0.0
 41
0.0
  0
VERTEX
  8
20
 10
-99.6533203125
 20
87.31140899658203
  0
VERTEX
  8
20
 10
-99.6533203125
 20
85.48328399658203
  0
SEQEND
  8
20
  0
POLYLINE
  8
20
  6
CONTINUOUS
 66
     1
 70
     0
 40
0.0
 41
0.0
  0
VERTEX
  8
20
 10
-99.6533203125
 20
87.03015899658203
 42
-0.2785603909199415
  0
VERTEX
  8
20
 10
-98.9501953125
 20
87.31140899658203
  0
SEQEND
  8
20
  0
LINE
  8
100
  6
CONTINUOUS
 10
-44.99707221984863
 20
-64.47971343994141
 11
-44.99707221984863
 21
91.52028656005859
  0
LINE
  8
100
  6
CONTINUOUS
 10
-42.19707221984864
 20
-74.47971343994141
 11
-42.19707221984864
 21
101.5202865600586
  0
LINE
  8
100
  6
CONTINUOUS
 10
119.4029277801514
 20
-64.47971343994141
 11
119.4029277801514
 21
91.52028656005859
  0
LINE
  8
100
  6
CONTINUOUS
 10
117.8029277801514
 20
-64.47971343994141
 11
117.8029277801514
 21
91.52028656005859
  0
LINE
  8
100
  6
CONTINUOUS
 10
-136.9970722198486
 20
91.52028656005859
 11
-94.99707221984863
 21
91.52028656005859
  0
LINE
  8
100
  6
CONTINUOUS
 10
-42.19707221984864
 20
91.52028656005859
 11
119.4029277801513
 21
91.52028656005859
  0
LINE
  8
100
  6
CONTINUOUS
 10
-136.9970722198486
 20
-64.47971343994141
 11
-94.99707221984863
 21
-64.47971343994141
  0
LINE
  8
100
  6
CONTINUOUS
 10
-42.19707221984864
 20
-64.47971343994141
 11
119.4029277801513
 21
-64.47971343994141
  0
LINE
  8
15
  6
CONTINUOUS
 10
-136.9970722198486
 20
101.5202865600586
 11
-94.99707221984863
 21
101.5202865600586
  0
LINE
  8
15
  6
CONTINUOUS
 10
-44.19707221984864
 20
101.5202865600586
 11
-42.19707221984864
 21
101.5202865600586
  0
LINE
  8
15
  6
CONTINUOUS
 10
-136.9970722198486
 20
-74.47971343994141
 11
-94.99707221984863
 21
-74.47971343994141
  0
LINE
  8
15
  6
CONTINUOUS
 10
-44.19707221984864
 20
-74.47971343994141
 11
-42.19707221984864
 21
-74.47971343994141
  0
LINE
  8
100
  6
CONTINUOUS
 10
-44.19707221984864
 20
92.32028656005859
 11
-44.19707221984864
 21
101.5202865600586
  0
LINE
  8
100
  6
CONTINUOUS
 10
-44.99707221984863
 20
91.52028656005859
 11
-45.19707221984864
 21
91.52028656005859
  0
LINE
  8
100
  6
CONTINUOUS
 10
-44.19707221984864
 20
-74.47971343994141
 11
-44.19707221984864
 21
-65.2797134399414
  0
ARC
  8
100
  6
CONTINUOUS
 10
-44.99707221984863
 20
-65.2797134399414
 40
0.7999999999999972
 50
0.0
 51
90.0
  0
ARC
  8
100
  6
CONTINUOUS
 10
-44.99707221984863
 20
92.32028656005859
 40
0.7999999999999972
 50
270.0
 51
0.0
  0
LINE
  8
100
  6
CONTINUOUS
 10
129.4029277801513
 20
-44.73602004468441
 11
129.4029277801513
 21
40.03647995531559
  0
LINE
  8
100
  6
CONTINUOUS
 10
130.9029277801513
 20
-44.73602004468441
 11
130.9029277801513
 21
40.03647995531559
  0
LINE
  8
100
  6
CONTINUOUS
 10
131.9029277801513
 20
-44.73602004468441
 11
131.9029277801513
 21
40.03647995531559
  0
LINE
  8
100
  6
CONTINUOUS
 10
124.4029277801514
 20
25.27272995531559
 11
124.4029277801514
 21
30.98772995531559
  0
LINE
  8
100
  6
CONTINUOUS
 10
123.4029277801514
 20
24.79647995531559
 11
123.4029277801513
 21
31.46397995531559
  0
LINE
  8
100
  6
CONTINUOUS
 10
123.4029277801513
 20
32.41647995531559
 11
123.4029277801513
 21
39.08397995531559
  0
LINE
  8
100
  6
CONTINUOUS
 10
123.4029277801514
 20
30.98772995531559
 11
124.4029277801514
 21
30.98772995531559
  0
LINE
  8
10
  6
CONTINUOUS
 10
125.4003249912996
 20
25.52025051343767
 11
125.4003249912996
 21
30.75900051343767
  0
LINE
  8
100
  6
CONTINUOUS
 10
124.4029277801514
 20
30.78942668661475
 11
125.4029277801514
 21
30.78942668661475
  0
POLYLINE
  8
10
  6
CONTINUOUS
 66
     1
 10
0.0
 20
0.0
 70
     0
 40
0.0
 41
0.0
  0
VERTEX
  8
10
 10
127.1204336547852
 20
30.00617061293778
  0
VERTEX
  8
10
 10
127.3300002373093
 20
29.08238750572916
  0
VERTEX
  8
10
 10
127.4003249912996
 20
28.13962551343768
  0
VERTEX
  8
10
 10
127.3300002373093
 20
27.1968635211462
  0
VERTEX
  8
10
 10
127.1204336547852
 20
26.27308041393757
  0
SEQEND
  8
10
  0
POLYLINE
  8
10
  6
CONTINUOUS
 66
     1
 10
0.0
 20
0.0
 70
     0
 40
0.0
 41
0.0
  0
VERTEX
  8
10
 10
126.2475738741777
 20
25.59085426393377
  0
VERTEX
  8
10
 10
126.5379488702761
 20
25.65766441503666
  0
VERTEX
  8
10
 10
126.7947640056946
 20
25.80340019920103
  0
VERTEX
  8
10
 10
126.9949569155578
 20
26.01486135110855
  0
VERTEX
  8
10
 10
127.1204336547852
 20
26.27308041393757
  0
SEQEND
  8
10
  0
POLYLINE
  8
10
  6
CONTINUOUS
 66
     1
 10
0.0
 20
0.0
 70
     0
 40
0.0
 41
0.0
  0
VERTEX
  8
10
 10
126.2475738741777
 20
30.68839676294159
  0
VERTEX
  8
10
 10
126.5379488702761
 20
30.62158661183869
  0
VERTEX
  8
10
 10
126.7947640056946
 20
30.47585082767433
  0
VERTEX
  8
10
 10
126.9949569155578
 20
30.26438967576681
  0
VERTEX
  8
10
 10
127.1204336547852
 20
30.00617061293778
  0
SEQEND
  8
10
  0
LINE
  8
10
  6
CONTINUOUS
 10
126.2475738741777
 20
30.68839676294158
 11
125.4003249912996
 21
30.75900051343767
  0
LINE
  8
100
  6
CONTINUOUS
 10
123.4029277801514
 20
-5.683520044684411
 11
123.4029277801513
 21
0.9839799553155899
  0
LINE
  8
100
  6
CONTINUOUS
 10
123.4029277801514
 20
0.50772995531559
 11
124.4029277801514
 21
0.50772995531559
  0
LINE
  8
100
  6
CONTINUOUS
 10
123.4029277801514
 20
-5.20727004468441
 11
124.4029277801514
 21
-5.20727004468441
  0
LINE
  8
100
  6
CONTINUOUS
 10
124.4029277801514
 20
-5.20727004468441
 11
124.4029277801514
 21
0.50772995531559
  0
LINE
  8
10
  6
CONTINUOUS
 10
125.4003249912996
 20
-4.959749486562325
 11
125.4003249912996
 21
0.2790005134376747
  0
LINE
  8
10
  6
CONTINUOUS
 10
126.2475738741777
 20
0.2083967629415814
 11
125.4003249912996
 21
0.2790005134376747
  0
LINE
  8
10
  6
CONTINUOUS
 10
126.2475738741777
 20
-4.889145736066234
 11
125.4003249912996
 21
-4.959749486562325
  0
POLYLINE
  8
10
  6
CONTINUOUS
 66
     1
 10
0.0
 20
0.0
 70
     0
 40
0.0
 41
0.0
  0
VERTEX
  8
10
 10
127.1204336547852
 20
-0.4738293870622192
  0
VERTEX
  8
10
 10
127.3300002373093
 20
-1.397612494270846
  0
VERTEX
  8
10
 10
127.4003249912996
 20
-2.340374486562325
  0
VERTEX
  8
10
 10
127.3300002373093
 20
-3.283136478853804
  0
VERTEX
  8
10
 10
127.1204336547852
 20
-4.206919586062432
  0
SEQEND
  8
10
  0
POLYLINE
  8
10
  6
CONTINUOUS
 66
     1
 10
0.0
 20
0.0
 70
     0
 40
0.0
 41
0.0
  0
VERTEX
  8
10
 10
126.2475738741777
 20
0.2083967629415831
  0
VERTEX
  8
10
 10
126.5379488702761
 20
0.1415866118386917
  0
VERTEX
  8
10
 10
126.7947640056946
 20
-0.004149172325674105
  0
VERTEX
  8
10
 10
126.9949569155578
 20
-0.2156103242331938
  0
VERTEX
  8
10
 10
127.1204336547852
 20
-0.4738293870622192
  0
SEQEND
  8
10
  0
POLYLINE
  8
10
  6
CONTINUOUS
 66
     1
 10
0.0
 20
0.0
 70
     0
 40
0.0
 41
0.0
  0
VERTEX
  8
10
 10
126.2475738741777
 20
-4.889145736066234
  0
VERTEX
  8
10
 10
126.5379488702761
 20
-4.822335584963343
  0
VERTEX
  8
10
 10
126.7947640056946
 20
-4.676599800798977
  0
VERTEX
  8
10
 10
126.9949569155578
 20
-4.465138648891457
  0
VERTEX
  8
10
 10
127.1204336547852
 20
-4.206919586062432
  0
SEQEND
  8
10
  0
LINE
  8
100
  6
CONTINUOUS
 10
124.4029277801514
 20
0.3094266866147518
 11
125.4029277801514
 21
0.3094266866147518
  0
LINE
  8
100
  6
CONTINUOUS
 10
124.4029277801514
 20
-4.860660341978074
 11
125.4029277801514
 21
-4.860660341978074
  0
LINE
  8
100
  6
CONTINUOUS
 10
119.4029277801514
 20
-5.683520044684411
 11
129.4029277801513
 21
-5.683520044684411
  0
LINE
  8
100
  6
CONTINUOUS
 10
119.4029277801514
 20
-6.63602004468441
 11
129.4029277801513
 21
-6.63602004468441
  0
LINE
  8
100
  6
CONTINUOUS
 10
129.4029277801513
 20
-5.683520044684411
 11
129.4029277801513
 21
-6.63602004468441
  0
LINE
  8
100
  6
CONTINUOUS
 10
123.4029277801514
 20
1.93647995531559
 11
123.4029277801513
 21
8.603979955315591
  0
LINE
  8
100
  6
CONTINUOUS
 10
123.4029277801514
 20
8.127729955315591
 11
124.4029277801514
 21
8.127729955315591
  0
LINE
  8
100
  6
CONTINUOUS
 10
123.4029277801514
 20
2.41272995531559
 11
124.4029277801514
 21
2.41272995531559
  0
LINE
  8
100
  6
CONTINUOUS
 10
124.4029277801514
 20
2.41272995531559
 11
124.4029277801514
 21
8.127729955315591
  0
LINE
  8
10
  6
CONTINUOUS
 10
125.4003249912996
 20
2.660250513437675
 11
125.4003249912996
 21
7.899000513437675
  0
LINE
  8
10
  6
CONTINUOUS
 10
126.2475738741777
 20
7.828396762941582
 11
125.4003249912996
 21
7.899000513437675
  0
LINE
  8
10
  6
CONTINUOUS
 10
126.2475738741777
 20
2.730854263933766
 11
125.4003249912996
 21
2.660250513437675
  0
POLYLINE
  8
10
  6
CONTINUOUS
 66
     1
 10
0.0
 20
0.0
 70
     0
 40
0.0
 41
0.0
  0
VERTEX
  8
10
 10
127.1204336547852
 20
7.146170612937781
  0
VERTEX
  8
10
 10
127.3300002373093
 20
6.222387505729155
  0
VERTEX
  8
10
 10
127.4003249912996
 20
5.279625513437675
  0
VERTEX
  8
10
 10
127.3300002373093
 20
4.336863521146196
  0
VERTEX
  8
10
 10
127.1204336547852
 20
3.413080413937569
  0
SEQEND
  8
10
  0
POLYLINE
  8
10
  6
CONTINUOUS
 66
     1
 10
0.0
 20
0.0
 70
     0
 40
0.0
 41
0.0
  0
VERTEX
  8
10
 10
126.2475738741777
 20
7.828396762941583
  0
VERTEX
  8
10
 10
126.5379488702761
 20
7.761586611838692
  0
VERTEX
  8
10
 10
126.7947640056946
 20
7.615850827674326
  0
VERTEX
  8
10
 10
126.9949569155578
 20
7.404389675766806
  0
VERTEX
  8
10
 10
127.1204336547852
 20
7.146170612937781
  0
SEQEND
  8
10
  0
POLYLINE
  8
10
  6
CONTINUOUS
 66
     1
 10
0.0
 20
0.0
 70
     0
 40
0.0
 41
0.0
  0
VERTEX
  8
10
 10
126.2475738741777
 20
2.730854263933766
  0
VERTEX
  8
10
 10
126.5379488702761
 20
2.797664415036658
  0
VERTEX
  8
10
 10
126.7947640056946
 20
2.943400199201024
  0
VERTEX
  8
10
 10
126.9949569155578
 20
3.154861351108544
  0
VERTEX
  8
10
 10
127.1204336547852
 20
3.413080413937569
  0
SEQEND
  8
10
  0
LINE
  8
100
  6
CONTINUOUS
 10
124.4029277801514
 20
7.929426686614752
 11
125.4029277801514
 21
7.929426686614752
  0
LINE
  8
100
  6
CONTINUOUS
 10
124.4029277801514
 20
2.759339658021927
 11
125.4029277801514
 21
2.759339658021927
  0
LINE
  8
100
  6
CONTINUOUS
 10
119.4029277801514
 20
1.93647995531559
 11
129.4029277801513
 21
1.93647995531559
  0
LINE
  8
100
  6
CONTINUOUS
 10
119.4029277801514
 20
0.9839799553155899
 11
129.4029277801513
 21
0.9839799553155899
  0
LINE
  8
100
  6
CONTINUOUS
 10
129.4029277801513
 20
1.93647995531559
 11
129.4029277801513
 21
0.9839799553155899
  0
LINE
  8
100
  6
CONTINUOUS
 10
123.4029277801514
 20
9.55647995531559
 11
123.4029277801513
 21
16.22397995531559
  0
LINE
  8
100
  6
CONTINUOUS
 10
123.4029277801514
 20
15.74772995531559
 11
124.4029277801514
 21
15.74772995531559
  0
LINE
  8
100
  6
CONTINUOUS
 10
123.4029277801514
 20
10.03272995531559
 11
124.4029277801514
 21
10.03272995531559
  0
LINE
  8
100
  6
CONTINUOUS
 10
124.4029277801514
 20
10.03272995531559
 11
124.4029277801514
 21
15.74772995531559
  0
LINE
  8
10
  6
CONTINUOUS
 10
125.4003249912996
 20
10.28025051343768
 11
125.4003249912996
 21
15.51900051343767
  0
LINE
  8
10
  6
CONTINUOUS
 10
126.2475738741777
 20
15.44839676294158
 11
125.4003249912996
 21
15.51900051343767
  0
LINE
  8
10
  6
CONTINUOUS
 10
126.2475738741777
 20
10.35085426393377
 11
125.4003249912996
 21
10.28025051343768
  0
POLYLINE
  8
10
  6
CONTINUOUS
 66
     1
 10
0.0
 20
0.0
 70
     0
 40
0.0
 41
0.0
  0
VERTEX
  8
10
 10
127.1204336547852
 20
14.76617061293778
  0
VERTEX
  8
10
 10
127.3300002373093
 20
13.84238750572916
  0
VERTEX
  8
10
 10
127.4003249912996
 20
12.89962551343768
  0
VERTEX
  8
10
 10
127.3300002373093
 20
11.9568635211462
  0
VERTEX
  8
10
 10
127.1204336547852
 20
11.03308041393757
  0
SEQEND
  8
10
  0
POLYLINE
  8
10
  6
CONTINUOUS
 66
     1
 10
0.0
 20
0.0
 70
     0
 40
0.0
 41
0.0
  0
VERTEX
  8
10
 10
126.2475738741777
 20
15.44839676294158
  0
VERTEX
  8
10
 10
126.5379488702761
 20
15.38158661183869
  0
VERTEX
  8
10
 10
126.7947640056946
 20
15.23585082767433
  0
VERTEX
  8
10
 10
126.9949569155578
 20
15.02438967576681
  0
VERTEX
  8
10
 10
127.1204336547852
 20
14.76617061293778
  0
SEQEND
  8
10
  0
POLYLINE
  8
10
  6
CONTINUOUS
 66
     1
 10
0.0
 20
0.0
 70
     0
 40
0.0
 41
0.0
  0
VERTEX
  8
10
 10
126.2475738741777
 20
10.35085426393377
  0
VERTEX
  8
10
 10
126.5379488702761
 20
10.41766441503666
  0
VERTEX
  8
10
 10
126.7947640056946
 20
10.56340019920102
  0
VERTEX
  8
10
 10
126.9949569155578
 20
10.77486135110854
  0
VERTEX
  8
10
 10
127.1204336547852
 20
11.03308041393757
  0
SEQEND
  8
10
  0
LINE
  8
100
  6
CONTINUOUS
 10
124.4029277801514
 20
15.54942668661475
 11
125.4029277801514
 21
15.54942668661475
  0
LINE
  8
100
  6
CONTINUOUS
 10
124.4029277801514
 20
10.37933965802193
 11
125.4029277801514
 21
10.37933965802193
  0
LINE
  8
100
  6
CONTINUOUS
 10
119.4029277801514
 20
9.55647995531559
 11
129.4029277801513
 21
9.55647995531559
  0
LINE
  8
100
  6
CONTINUOUS
 10
119.4029277801514
 20
8.603979955315591
 11
129.4029277801513
 21
8.603979955315591
  0
LINE
  8
100
  6
CONTINUOUS
 10
129.4029277801513
 20
9.55647995531559
 11
129.4029277801513
 21
8.603979955315591
  0
LINE
  8
100
  6
CONTINUOUS
 10
123.4029277801514
 20
17.17647995531559
 11
123.4029277801513
 21
23.84397995531559
  0
LINE
  8
100
  6
CONTINUOUS
 10
123.4029277801514
 20
23.36772995531559
 11
124.4029277801514
 21
23.36772995531559
  0
LINE
  8
100
  6
CONTINUOUS
 10
123.4029277801514
 20
17.65272995531559
 11
124.4029277801514
 21
17.65272995531559
  0
LINE
  8
100
  6
CONTINUOUS
 10
124.4029277801514
 20
17.65272995531559
 11
124.4029277801514
 21
23.36772995531559
  0
LINE
  8
10
  6
CONTINUOUS
 10
125.4003249912996
 20
17.90025051343767
 11
125.4003249912996
 21
23.13900051343767
  0
LINE
  8
10
  6
CONTINUOUS
 10
126.2475738741777
 20
23.06839676294158
 11
125.4003249912996
 21
23.13900051343767
  0
LINE
  8
10
  6
CONTINUOUS
 10
126.2475738741777
 20
17.97085426393377
 11
125.4003249912996
 21
17.90025051343767
  0
POLYLINE
  8
10
  6
CONTINUOUS
 66
     1
 10
0.0
 20
0.0
 70
     0
 40
0.0
 41
0.0
  0
VERTEX
  8
10
 10
127.1204336547852
 20
22.38617061293778
  0
VERTEX
  8
10
 10
127.3300002373093
 20
21.46238750572915
  0
VERTEX
  8
10
 10
127.4003249912996
 20
20.51962551343767
  0
VERTEX
  8
10
 10
127.3300002373093
 20
19.57686352114619
  0
VERTEX
  8
10
 10
127.1204336547852
 20
18.65308041393757
  0
SEQEND
  8
10
  0
POLYLINE
  8
10
  6
CONTINUOUS
 66
     1
 10
0.0
 20
0.0
 70
     0
 40
0.0
 41
0.0
  0
VERTEX
  8
10
 10
126.2475738741777
 20
23.06839676294159
  0
VERTEX
  8
10
 10
126.5379488702761
 20
23.00158661183869
  0
VERTEX
  8
10
 10
126.7947640056946
 20
22.85585082767433
  0
VERTEX
  8
10
 10
126.9949569155578
 20
22.64438967576681
  0
VERTEX
  8
10
 10
127.1204336547852
 20
22.38617061293778
  0
SEQEND
  8
10
  0
POLYLINE
  8
10
  6
CONTINUOUS
 66
     1
 10
0.0
 20
0.0
 70
     0
 40
0.0
 41
0.0
  0
VERTEX
  8
10
 10
126.2475738741777
 20
17.97085426393377
  0
VERTEX
  8
10
 10
126.5379488702761
 20
18.03766441503666
  0
VERTEX
  8
10
 10
126.7947640056946
 20
18.18340019920102
  0
VERTEX
  8
10
 10
126.9949569155578
 20
18.39486135110855
  0
VERTEX
  8
10
 10
127.1204336547852
 20
18.65308041393757
  0
SEQEND
  8
10
  0
LINE
  8
100
  6
CONTINUOUS
 10
124.4029277801514
 20
23.16942668661475
 11
125.4029277801514
 21
23.16942668661475
  0
LINE
  8
100
  6
CONTINUOUS
 10
124.4029277801514
 20
17.99933965802193
 11
125.4029277801514
 21
17.99933965802193
  0
LINE
  8
100
  6
CONTINUOUS
 10
119.4029277801514
 20
17.17647995531559
 11
129.4029277801513
 21
17.17647995531559
  0
LINE
  8
100
  6
CONTINUOUS
 10
119.4029277801514
 20
16.22397995531559
 11
129.4029277801513
 21
16.22397995531559
  0
LINE
  8
100
  6
CONTINUOUS
 10
129.4029277801513
 20
17.17647995531559
 11
129.4029277801513
 21
16.22397995531559
  0
LINE
  8
100
  6
CONTINUOUS
 10
123.4029277801514
 20
-13.30352004468441
 11
123.4029277801513
 21
-6.63602004468441
  0
LINE
  8
100
  6
CONTINUOUS
 10
123.4029277801514
 20
-7.112270044684411
 11
124.4029277801514
 21
-7.112270044684411
  0
LINE
  8
100
  6
CONTINUOUS
 10
123.4029277801514
 20
-12.82727004468441
 11
124.4029277801514
 21
-12.82727004468441
  0
LINE
  8
100
  6
CONTINUOUS
 10
124.4029277801514
 20
-12.82727004468441
 11
124.4029277801514
 21
-7.112270044684411
  0
LINE
  8
10
  6
CONTINUOUS
 10
125.4003249912996
 20
-12.57974948656233
 11
125.4003249912996
 21
-7.340999486562326
  0
LINE
  8
10
  6
CONTINUOUS
 10
126.2475738741777
 20
-7.411603237058419
 11
125.4003249912996
 21
-7.340999486562326
  0
LINE
  8
10
  6
CONTINUOUS
 10
126.2475738741777
 20
-12.50914573606623
 11
125.4003249912996
 21
-12.57974948656233
  0
POLYLINE
  8
10
  6
CONTINUOUS
 66
     1
 10
0.0
 20
0.0
 70
     0
 40
0.0
 41
0.0
  0
VERTEX
  8
10
 10
127.1204336547852
 20
-8.09382938706222
  0
VERTEX
  8
10
 10
127.3300002373093
 20
-9.017612494270846
  0
VERTEX
  8
10
 10
127.4003249912996
 20
-9.960374486562326
  0
VERTEX
  8
10
 10
127.3300002373093
 20
-10.90313647885381
  0
VERTEX
  8
10
 10
127.1204336547852
 20
-11.82691958606243
  0
SEQEND
  8
10
  0
POLYLINE
  8
10
  6
CONTINUOUS
 66
     1
 10
0.0
 20
0.0
 70
     0
 40
0.0
 41
0.0
  0
VERTEX
  8
10
 10
126.2475738741777
 20
-7.411603237058417
  0
VERTEX
  8
10
 10
126.5379488702761
 20
-7.478413388161309
  0
VERTEX
  8
10
 10
126.7947640056946
 20
-7.624149172325675
  0
VERTEX
  8
10
 10
126.9949569155578
 20
-7.835610324233193
  0
VERTEX
  8
10
 10
127.1204336547852
 20
-8.09382938706222
  0
SEQEND
  8
10
  0
POLYLINE
  8
10
  6
CONTINUOUS
 66
     1
 10
0.0
 20
0.0
 70
     0
 40
0.0
 41
0.0
  0
VERTEX
  8
10
 10
126.2475738741777
 20
-12.50914573606623
  0
VERTEX
  8
10
 10
126.5379488702761
 20
-12.44233558496334
  0
VERTEX
  8
10
 10
126.7947640056946
 20
-12.29659980079898
  0
VERTEX
  8
10
 10
126.9949569155578
 20
-12.08513864889146
  0
VERTEX
  8
10
 10
127.1204336547852
 20
-11.82691958606243
  0
SEQEND
  8
10
  0
LINE
  8
100
  6
CONTINUOUS
 10
124.4029277801514
 20
-7.310573313385248
 11
125.4029277801514
 21
-7.310573313385248
  0
LINE
  8
100
  6
CONTINUOUS
 10
124.4029277801514
 20
-12.48066034197807
 11
125.4029277801514
 21
-12.48066034197807
  0
LINE
  8
100
  6
CONTINUOUS
 10
119.4029277801514
 20
-13.30352004468441
 11
129.4029277801513
 21
-13.30352004468441
  0
LINE
  8
100
  6
CONTINUOUS
 10
119.4029277801514
 20
-14.25602004468441
 11
129.4029277801513
 21
-14.25602004468441
  0
LINE
  8
100
  6
CONTINUOUS
 10
129.4029277801513
 20
-13.30352004468441
 11
129.4029277801513
 21
-14.25602004468441
  0
LINE
  8
100
  6
CONTINUOUS
 10
123.4029277801514
 20
-20.92352004468441
 11
123.4029277801513
 21
-14.25602004468441
  0
LINE
  8
100
  6
CONTINUOUS
 10
123.4029277801514
 20
-14.73227004468441
 11
124.4029277801514
 21
-14.73227004468441
  0
LINE
  8
100
  6
CONTINUOUS
 10
123.4029277801514
 20
-20.44727004468441
 11
124.4029277801514
 21
-20.44727004468441
  0
LINE
  8
100
  6
CONTINUOUS
 10
124.4029277801514
 20
-20.44727004468441
 11
124.4029277801514
 21
-14.73227004468441
  0
LINE
  8
10
  6
CONTINUOUS
 10
125.4003249912996
 20
-20.19974948656233
 11
125.4003249912996
 21
-14.96099948656233
  0
LINE
  8
10
  6
CONTINUOUS
 10
126.2475738741777
 20
-15.03160323705842
 11
125.4003249912996
 21
-14.96099948656233
  0
LINE
  8
10
  6
CONTINUOUS
 10
126.2475738741777
 20
-20.12914573606623
 11
125.4003249912996
 21
-20.19974948656233
  0
POLYLINE
  8
10
  6
CONTINUOUS
 66
     1
 10
0.0
 20
0.0
 70
     0
 40
0.0
 41
0.0
  0
VERTEX
  8
10
 10
127.1204336547852
 20
-15.71382938706222
  0
VERTEX
  8
10
 10
127.3300002373093
 20
-16.63761249427085
  0
VERTEX
  8
10
 10
127.4003249912996
 20
-17.58037448656233
  0
VERTEX
  8
10
 10
127.3300002373093
 20
-18.52313647885381
  0
VERTEX
  8
10
 10
127.1204336547852
 20
-19.44691958606243
  0
SEQEND
  8
10
  0
POLYLINE
  8
10
  6
CONTINUOUS
 66
     1
 10
0.0
 20
0.0
 70
     0
 40
0.0
 41
0.0
  0
VERTEX
  8
10
 10
126.2475738741777
 20
-15.03160323705842
  0
VERTEX
  8
10
 10
126.5379488702761
 20
-15.09841338816131
  0
VERTEX
  8
10
 10
126.7947640056946
 20
-15.24414917232567
  0
VERTEX
  8
10
 10
126.9949569155578
 20
-15.4556103242332
  0
VERTEX
  8
10
 10
127.1204336547852
 20
-15.71382938706222
  0
SEQEND
  8
10
  0
POLYLINE
  8
10
  6
CONTINUOUS
 66
     1
 10
0.0
 20
0.0
 70
     0
 40
0.0
 41
0.0
  0
VERTEX
  8
10
 10
126.2475738741777
 20
-20.12914573606623
  0
VERTEX
  8
10
 10
126.5379488702761
 20
-20.06233558496334
  0
VERTEX
  8
10
 10
126.7947640056946
 20
-19.91659980079898
  0
VERTEX
  8
10
 10
126.9949569155578
 20
-19.70513864889146
  0
VERTEX
  8
10
 10
127.1204336547852
 20
-19.44691958606243
  0
SEQEND
  8
10
  0
LINE
  8
100
  6
CONTINUOUS
 10
124.4029277801514
 20
-14.93057331338525
 11
125.4029277801514
 21
-14.93057331338525
  0
LINE
  8
100
  6
CONTINUOUS
 10
124.4029277801514
 20
-20.10066034197807
 11
125.4029277801514
 21
-20.10066034197807
  0
LINE
  8
100
  6
CONTINUOUS
 10
119.4029277801514
 20
-20.92352004468441
 11
129.4029277801513
 21
-20.92352004468441
  0
LINE
  8
100
  6
CONTINUOUS
 10
119.4029277801514
 20
-21.87602004468441
 11
129.4029277801513
 21
-21.87602004468441
  0
LINE
  8
100
  6
CONTINUOUS
 10
129.4029277801513
 20
-20.92352004468441
 11
129.4029277801513
 21
-21.87602004468441
  0
LINE
  8
100
  6
CONTINUOUS
 10
123.4029277801514
 20
-28.54352004468441
 11
123.4029277801513
 21
-21.87602004468441
  0
LINE
  8
100
  6
CONTINUOUS
 10
123.4029277801514
 20
-22.35227004468441
 11
124.4029277801514
 21
-22.35227004468441
  0
LINE
  8
100
  6
CONTINUOUS
 10
123.4029277801514
 20
-28.06727004468441
 11
124.4029277801514
 21
-28.06727004468441
  0
LINE
  8
100
  6
CONTINUOUS
 10
124.4029277801514
 20
-28.06727004468441
 11
124.4029277801514
 21
-22.35227004468441
  0
LINE
  8
10
  6
CONTINUOUS
 10
125.4003249912996
 20
-27.81974948656233
 11
125.4003249912996
 21
-22.58099948656233
  0
LINE
  8
10
  6
CONTINUOUS
 10
126.2475738741777
 20
-22.65160323705842
 11
125.4003249912996
 21
-22.58099948656233
  0
LINE
  8
10
  6
CONTINUOUS
 10
126.2475738741777
 20
-27.74914573606623
 11
125.4003249912996
 21
-27.81974948656233
  0
POLYLINE
  8
10
  6
CONTINUOUS
 66
     1
 10
0.0
 20
0.0
 70
     0
 40
0.0
 41
0.0
  0
VERTEX
  8
10
 10
127.1204336547852
 20
-23.33382938706222
  0
VERTEX
  8
10
 10
127.3300002373093
 20
-24.25761249427085
  0
VERTEX
  8
10
 10
127.4003249912996
 20
-25.20037448656233
  0
VERTEX
  8
10
 10
127.3300002373093
 20
-26.14313647885381
  0
VERTEX
  8
10
 10
127.1204336547852
 20
-27.06691958606243
  0
SEQEND
  8
10
  0
POLYLINE
  8
10
  6
CONTINUOUS
 66
     1
 10
0.0
 20
0.0
 70
     0
 40
0.0
 41
0.0
  0
VERTEX
  8
10
 10
126.2475738741777
 20
-22.65160323705842
  0
VERTEX
  8
10
 10
126.5379488702761
 20
-22.71841338816131
  0
VERTEX
  8
10
 10
126.7947640056946
 20
-22.86414917232567
  0
VERTEX
  8
10
 10
126.9949569155578
 20
-23.0756103242332
  0
VERTEX
  8
10
 10
127.1204336547852
 20
-23.33382938706222
  0
SEQEND
  8
10
  0
POLYLINE
  8
10
  6
CONTINUOUS
 66
     1
 10
0.0
 20
0.0
 70
     0
 40
0.0
 41
0.0
  0
VERTEX
  8
10
 10
126.2475738741777
 20
-27.74914573606623
  0
VERTEX
  8
10
 10
126.5379488702761
 20
-27.68233558496334
  0
VERTEX
  8
10
 10
126.7947640056946
 20
-27.53659980079898
  0
VERTEX
  8
10
 10
126.9949569155578
 20
-27.32513864889145
  0
VERTEX
  8
10
 10
127.1204336547852
 20
-27.06691958606243
  0
SEQEND
  8
10
  0
LINE
  8
100
  6
CONTINUOUS
 10
124.4029277801514
 20
-22.55057331338525
 11
125.4029277801514
 21
-22.55057331338525
  0
LINE
  8
100
  6
CONTINUOUS
 10
124.4029277801514
 20
-27.72066034197808
 11
125.4029277801514
 21
-27.72066034197808
  0
LINE
  8
100
  6
CONTINUOUS
 10
119.4029277801514
 20
-28.54352004468441
 11
129.4029277801513
 21
-28.54352004468441
  0
LINE
  8
100
  6
CONTINUOUS
 10
119.4029277801514
 20
-29.49602004468441
 11
129.4029277801513
 21
-29.49602004468441
  0
LINE
  8
100
  6
CONTINUOUS
 10
129.4029277801513
 20
-28.54352004468441
 11
129.4029277801513
 21
-29.49602004468441
  0
LINE
  8
100
  6
CONTINUOUS
 10
123.4029277801514
 20
25.27272995531559
 11
124.4029277801514
 21
25.27272995531559
  0
LINE
  8
10
  6
CONTINUOUS
 10
126.2475738741777
 20
25.59085426393377
 11
125.4003249912996
 21
25.52025051343767
  0
LINE
  8
100
  6
CONTINUOUS
 10
124.4029277801514
 20
25.61933965802193
 11
125.4029277801514
 21
25.61933965802193
  0
LINE
  8
100
  6
CONTINUOUS
 10
119.4029277801514
 20
24.79647995531559
 11
129.4029277801513
 21
24.79647995531559
  0
LINE
  8
100
  6
CONTINUOUS
 10
119.4029277801514
 20
23.84397995531559
 11
129.4029277801513
 21
23.84397995531559
  0
LINE
  8
100
  6
CONTINUOUS
 10
129.4029277801513
 20
24.79647995531559
 11
129.4029277801513
 21
23.84397995531559
  0
LINE
  8
100
  6
CONTINUOUS
 10
123.4029277801514
 20
-43.78352004468441
 11
123.4029277801514
 21
-37.11602004468441
  0
LINE
  8
100
  6
CONTINUOUS
 10
123.4029277801514
 20
-36.16352004468441
 11
123.4029277801513
 21
-29.49602004468441
  0
LINE
  8
100
  6
CONTINUOUS
 10
123.4029277801514
 20
-29.97227004468441
 11
124.4029277801514
 21
-29.97227004468441
  0
LINE
  8
100
  6
CONTINUOUS
 10
123.4029277801514
 20
-35.68727004468441
 11
124.4029277801514
 21
-35.68727004468441
  0
LINE
  8
100
  6
CONTINUOUS
 10
124.4029277801514
 20
-35.68727004468441
 11
124.4029277801514
 21
-29.97227004468441
  0
LINE
  8
10
  6
CONTINUOUS
 10
125.4003249912996
 20
-35.43974948656233
 11
125.4003249912996
 21
-30.20099948656233
  0
LINE
  8
10
  6
CONTINUOUS
 10
126.2475738741777
 20
-30.27160323705842
 11
125.4003249912996
 21
-30.20099948656233
  0
LINE
  8
10
  6
CONTINUOUS
 10
126.2475738741777
 20
-35.36914573606623
 11
125.4003249912996
 21
-35.43974948656233
  0
POLYLINE
  8
10
  6
CONTINUOUS
 66
     1
 10
0.0
 20
0.0
 70
     0
 40
0.0
 41
0.0
  0
VERTEX
  8
10
 10
127.1204336547852
 20
-30.95382938706223
  0
VERTEX
  8
10
 10
127.3300002373093
 20
-31.87761249427085
  0
VERTEX
  8
10
 10
127.4003249912996
 20
-32.82037448656233
  0
VERTEX
  8
10
 10
127.3300002373093
 20
-33.76313647885382
  0
VERTEX
  8
10
 10
127.1204336547852
 20
-34.68691958606243
  0
SEQEND
  8
10
  0
POLYLINE
  8
10
  6
CONTINUOUS
 66
     1
 10
0.0
 20
0.0
 70
     0
 40
0.0
 41
0.0
  0
VERTEX
  8
10
 10
126.2475738741777
 20
-30.27160323705841
  0
VERTEX
  8
10
 10
126.5379488702761
 20
-30.33841338816131
  0
VERTEX
  8
10
 10
126.7947640056946
 20
-30.48414917232567
  0
VERTEX
  8
10
 10
126.9949569155578
 20
-30.6956103242332
  0
VERTEX
  8
10
 10
127.1204336547852
 20
-30.95382938706223
  0
SEQEND
  8
10
  0
POLYLINE
  8
10
  6
CONTINUOUS
 66
     1
 10
0.0
 20
0.0
 70
     0
 40
0.0
 41
0.0
  0
VERTEX
  8
10
 10
126.2475738741777
 20
-35.36914573606623
  0
VERTEX
  8
10
 10
126.5379488702761
 20
-35.30233558496334
  0
VERTEX
  8
10
 10
126.7947640056946
 20
-35.15659980079897
  0
VERTEX
  8
10
 10
126.9949569155578
 20
-34.94513864889146
  0
VERTEX
  8
10
 10
127.1204336547852
 20
-34.68691958606243
  0
SEQEND
  8
10
  0
LINE
  8
100
  6
CONTINUOUS
 10
124.4029277801514
 20
-30.17057331338525
 11
125.4029277801514
 21
-30.17057331338525
  0
LINE
  8
100
  6
CONTINUOUS
 10
124.4029277801514
 20
-35.34066034197807
 11
125.4029277801514
 21
-35.34066034197807
  0
LINE
  8
100
  6
CONTINUOUS
 10
131.9029277801513
 20
36.22647995531559
 11
141.9029277801513
 21
36.22647995531559
  0
LINE
  8
100
  6
CONTINUOUS
 10
131.9029277801513
 20
35.27397995531559
 11
141.9029277801513
 21
35.27397995531559
  0
LINE
  8
100
  6
CONTINUOUS
 10
141.9029277801513
 20
36.22647995531559
 11
141.9029277801513
 21
35.27397995531559
  0
LINE
  8
100
  6
CONTINUOUS
 10
136.9029277801513
 20
29.08272995531559
 11
136.9029277801513
 21
34.79772995531559
  0
LINE
  8
100
  6
CONTINUOUS
 10
135.9029277801513
 20
28.60647995531559
 11
135.9029277801513
 21
35.27397995531559
  0
LINE
  8
100
  6
CONTINUOUS
 10
135.9029277801513
 20
34.79772995531559
 11
136.9029277801513
 21
34.79772995531559
  0
LINE
  8
10
  6
CONTINUOUS
 10
137.9003249912996
 20
29.33025051343767
 11
137.9003249912996
 21
34.56900051343767
  0
LINE
  8
100
  6
CONTINUOUS
 10
136.9029277801513
 20
34.59942668661476
 11
137.9029277801513
 21
34.59942668661476
  0
POLYLINE
  8
10
  6
CONTINUOUS
 66
     1
 10
0.0
 20
0.0
 70
     0
 40
0.0
 41
0.0
  0
VERTEX
  8
10
 10
139.6204336547852
 20
33.81617061293778
  0
VERTEX
  8
10
 10
139.8300002373093
 20
32.8923875057291
  0
VERTEX
  8
10
 10
139.9003249912996
 20
31.94962551343767
  0
VERTEX
  8
10
 10
139.8300002373093
 20
31.00686352114624
  0
VERTEX
  8
10
 10
139.6204336547852
 20
30.08308041393757
  0
SEQEND
  8
10
  0
POLYLINE
  8
10
  6
CONTINUOUS
 66
     1
 10
0.0
 20
0.0
 70
     0
 40
0.0
 41
0.0
  0
VERTEX
  8
10
 10
138.7475738741777
 20
29.40085426393377
  0
VERTEX
  8
10
 10
139.0379488702761
 20
29.46766441503666
  0
VERTEX
  8
10
 10
139.2947640056946
 20
29.61340019920102
  0
VERTEX
  8
10
 10
139.4949569155578
 20
29.82486135110853
  0
VERTEX
  8
10
 10
139.6204336547852
 20
30.08308041393757
  0
SEQEND
  8
10
  0
POLYLINE
  8
10
  6
CONTINUOUS
 66
     1
 10
0.0
 20
0.0
 70
     0
 40
0.0
 41
0.0
  0
VERTEX
  8
10
 10
138.7475738741777
 20
34.49839676294159
  0
VERTEX
  8
10
 10
139.0379488702761
 20
34.4315866118387
  0
VERTEX
  8
10
 10
139.2947640056946
 20
34.28585082767433
  0
VERTEX
  8
10
 10
139.4949569155578
 20
34.07438967576682
  0
VERTEX
  8
10
 10
139.6204336547852
 20
33.81617061293778
  0
SEQEND
  8
10
  0
LINE
  8
10
  6
CONTINUOUS
 10
138.7475738741777
 20
34.49839676294158
 11
137.9003249912996
 21
34.56900051343767
  0
LINE
  8
100
  6
CONTINUOUS
 10
135.9029277801513
 20
-1.87352004468441
 11
135.9029277801513
 21
4.79397995531559
  0
LINE
  8
100
  6
CONTINUOUS
 10
135.9029277801513
 20
4.31772995531559
 11
136.9029277801513
 21
4.31772995531559
  0
LINE
  8
100
  6
CONTINUOUS
 10
135.9029277801513
 20
-1.39727004468441
 11
136.9029277801513
 21
-1.39727004468441
  0
LINE
  8
100
  6
CONTINUOUS
 10
136.9029277801513
 20
-1.39727004468441
 11
136.9029277801513
 21
4.31772995531559
  0
LINE
  8
10
  6
CONTINUOUS
 10
137.9003249912996
 20
-1.149749486562325
 11
137.9003249912996
 21
4.089000513437675
  0
LINE
  8
10
  6
CONTINUOUS
 10
138.7475738741777
 20
4.018396762941581
 11
137.9003249912996
 21
4.089000513437675
  0
LINE
  8
10
  6
CONTINUOUS
 10
138.7475738741777
 20
-1.079145736066234
 11
137.9003249912996
 21
-1.149749486562325
  0
POLYLINE
  8
10
  6
CONTINUOUS
 66
     1
 10
0.0
 20
0.0
 70
     0
 40
0.0
 41
0.0
  0
VERTEX
  8
10
 10
139.6204336547852
 20
3.336170612937781
  0
VERTEX
  8
10
 10
139.8300002373093
 20
2.412387505729107
  0
VERTEX
  8
10
 10
139.9003249912996
 20
1.469625513437675
  0
VERTEX
  8
10
 10
139.8300002373093
 20
0.5268635211462418
  0
VERTEX
  8
10
 10
139.6204336547852
 20
-0.3969195860624313
  0
SEQEND
  8
10
  0
POLYLINE
  8
10
  6
CONTINUOUS
 66
     1
 10
0.0
 20
0.0
 70
     0
 40
0.0
 41
0.0
  0
VERTEX
  8
10
 10
138.7475738741777
 20
4.018396762941583
  0
VERTEX
  8
10
 10
139.0379488702761
 20
3.951586611838693
  0
VERTEX
  8
10
 10
139.2947640056946
 20
3.805850827674333
  0
VERTEX
  8
10
 10
139.4949569155578
 20
3.594389675766819
  0
VERTEX
  8
10
 10
139.6204336547852
 20
3.336170612937781
  0
SEQEND
  8
10
  0
POLYLINE
  8
10
  6
CONTINUOUS
 66
     1
 10
0.0
 20
0.0
 70
     0
 40
0.0
 41
0.0
  0
VERTEX
  8
10
 10
138.7475738741777
 20
-1.079145736066234
  0
VERTEX
  8
10
 10
139.0379488702761
 20
-1.012335584963344
  0
VERTEX
  8
10
 10
139.2947640056946
 20
-0.8665998007989832
  0
VERTEX
  8
10
 10
139.4949569155578
 20
-0.6551386488914699
  0
VERTEX
  8
10
 10
139.6204336547852
 20
-0.3969195860624313
  0
SEQEND
  8
10
  0
LINE
  8
100
  6
CONTINUOUS
 10
136.9029277801513
 20
4.119426686614752
 11
137.9029277801513
 21
4.119426686614752
  0
LINE
  8
100
  6
CONTINUOUS
 10
136.9029277801513
 20
-1.050660341978073
 11
137.9029277801513
 21
-1.050660341978073
  0
LINE
  8
100
  6
CONTINUOUS
 10
131.9029277801513
 20
-1.87352004468441
 11
141.9029277801513
 21
-1.87352004468441
  0
LINE
  8
100
  6
CONTINUOUS
 10
131.9029277801513
 20
-2.82602004468441
 11
141.9029277801513
 21
-2.82602004468441
  0
LINE
  8
100
  6
CONTINUOUS
 10
141.9029277801513
 20
-1.87352004468441
 11
141.9029277801513
 21
-2.82602004468441
  0
LINE
  8
100
  6
CONTINUOUS
 10
135.9029277801513
 20
5.74647995531559
 11
135.9029277801513
 21
12.41397995531559
  0
LINE
  8
100
  6
CONTINUOUS
 10
135.9029277801513
 20
11.93772995531559
 11
136.9029277801513
 21
11.93772995531559
  0
LINE
  8
100
  6
CONTINUOUS
 10
135.9029277801513
 20
6.22272995531559
 11
136.9029277801513
 21
6.22272995531559
  0
LINE
  8
100
  6
CONTINUOUS
 10
136.9029277801513
 20
6.22272995531559
 11
136.9029277801513
 21
11.93772995531559
  0
LINE
  8
10
  6
CONTINUOUS
 10
137.9003249912996
 20
6.470250513437675
 11
137.9003249912996
 21
11.70900051343767
  0
LINE
  8
10
  6
CONTINUOUS
 10
138.7475738741777
 20
11.63839676294158
 11
137.9003249912996
 21
11.70900051343767
  0
LINE
  8
10
  6
CONTINUOUS
 10
138.7475738741777
 20
6.540854263933767
 11
137.9003249912996
 21
6.470250513437675
  0
POLYLINE
  8
10
  6
CONTINUOUS
 66
     1
 10
0.0
 20
0.0
 70
     0
 40
0.0
 41
0.0
  0
VERTEX
  8
10
 10
139.6204336547852
 20
10.95617061293778
  0
VERTEX
  8
10
 10
139.8300002373093
 20
10.03238750572911
  0
VERTEX
  8
10
 10
139.9003249912996
 20
9.089625513437674
  0
VERTEX
  8
10
 10
139.8300002373093
 20
8.146863521146242
  0
VERTEX
  8
10
 10
139.6204336547852
 20
7.223080413937569
  0
SEQEND
  8
10
  0
POLYLINE
  8
10
  6
CONTINUOUS
 66
     1
 10
0.0
 20
0.0
 70
     0
 40
0.0
 41
0.0
  0
VERTEX
  8
10
 10
138.7475738741777
 20
11.63839676294158
  0
VERTEX
  8
10
 10
139.0379488702761
 20
11.57158661183869
  0
VERTEX
  8
10
 10
139.2947640056946
 20
11.42585082767433
  0
VERTEX
  8
10
 10
139.4949569155578
 20
11.21438967576682
  0
VERTEX
  8
10
 10
139.6204336547852
 20
10.95617061293778
  0
SEQEND
  8
10
  0
POLYLINE
  8
10
  6
CONTINUOUS
 66
     1
 10
0.0
 20
0.0
 70
     0
 40
0.0
 41
0.0
  0
VERTEX
  8
10
 10
138.7475738741777
 20
6.540854263933767
  0
VERTEX
  8
10
 10
139.0379488702761
 20
6.607664415036657
  0
VERTEX
  8
10
 10
139.2947640056946
 20
6.753400199201018
  0
VERTEX
  8
10
 10
139.4949569155578
 20
6.964861351108531
  0
VERTEX
  8
10
 10
139.6204336547852
 20
7.223080413937569
  0
SEQEND
  8
10
  0
LINE
  8
100
  6
CONTINUOUS
 10
136.9029277801513
 20
11.73942668661475
 11
137.9029277801513
 21
11.73942668661475
  0
LINE
  8
100
  6
CONTINUOUS
 10
136.9029277801513
 20
6.569339658021927
 11
137.9029277801513
 21
6.569339658021927
  0
LINE
  8
100
  6
CONTINUOUS
 10
131.9029277801513
 20
5.74647995531559
 11
141.9029277801513
 21
5.74647995531559
  0
LINE
  8
100
  6
CONTINUOUS
 10
131.9029277801513
 20
4.79397995531559
 11
141.9029277801513
 21
4.79397995531559
  0
LINE
  8
100
  6
CONTINUOUS
 10
141.9029277801513
 20
5.74647995531559
 11
141.9029277801513
 21
4.79397995531559
  0
LINE
  8
100
  6
CONTINUOUS
 10
135.9029277801513
 20
13.36647995531559
 11
135.9029277801513
 21
20.03397995531559
  0
LINE
  8
100
  6
CONTINUOUS
 10
135.9029277801513
 20
19.55772995531559
 11
136.9029277801513
 21
19.55772995531559
  0
LINE
  8
100
  6
CONTINUOUS
 10
135.9029277801513
 20
13.84272995531559
 11
136.9029277801513
 21
13.84272995531559
  0
LINE
  8
100
  6
CONTINUOUS
 10
136.9029277801513
 20
13.84272995531559
 11
136.9029277801513
 21
19.55772995531559
  0
LINE
  8
10
  6
CONTINUOUS
 10
137.9003249912996
 20
14.09025051343768
 11
137.9003249912996
 21
19.32900051343767
  0
LINE
  8
10
  6
CONTINUOUS
 10
138.7475738741777
 20
19.25839676294158
 11
137.9003249912996
 21
19.32900051343767
  0
LINE
  8
10
  6
CONTINUOUS
 10
138.7475738741777
 20
14.16085426393377
 11
137.9003249912996
 21
14.09025051343768
  0
POLYLINE
  8
10
  6
CONTINUOUS
 66
     1
 10
0.0
 20
0.0
 70
     0
 40
0.0
 41
0.0
  0
VERTEX
  8
10
 10
139.6204336547852
 20
18.57617061293778
  0
VERTEX
  8
10
 10
139.8300002373093
 20
17.65238750572911
  0
VERTEX
  8
10
 10
139.9003249912996
 20
16.70962551343768
  0
VERTEX
  8
10
 10
139.8300002373093
 20
15.76686352114624
  0
VERTEX
  8
10
 10
139.6204336547852
 20
14.84308041393757
  0
SEQEND
  8
10
  0
POLYLINE
  8
10
  6
CONTINUOUS
 66
     1
 10
0.0
 20
0.0
 70
     0
 40
0.0
 41
0.0
  0
VERTEX
  8
10
 10
138.7475738741777
 20
19.25839676294159
  0
VERTEX
  8
10
 10
139.0379488702761
 20
19.1915866118387
  0
VERTEX
  8
10
 10
139.2947640056946
 20
19.04585082767434
  0
VERTEX
  8
10
 10
139.4949569155578
 20
18.83438967576682
  0
VERTEX
  8
10
 10
139.6204336547852
 20
18.57617061293778
  0
SEQEND
  8
10
  0
POLYLINE
  8
10
  6
CONTINUOUS
 66
     1
 10
0.0
 20
0.0
 70
     0
 40
0.0
 41
0.0
  0
VERTEX
  8
10
 10
138.7475738741777
 20
14.16085426393377
  0
VERTEX
  8
10
 10
139.0379488702761
 20
14.22766441503666
  0
VERTEX
  8
10
 10
139.2947640056946
 20
14.37340019920102
  0
VERTEX
  8
10
 10
139.4949569155578
 20
14.58486135110853
  0
VERTEX
  8
10
 10
139.6204336547852
 20
14.84308041393757
  0
SEQEND
  8
10
  0
LINE
  8
100
  6
CONTINUOUS
 10
136.9029277801513
 20
19.35942668661475
 11
137.9029277801513
 21
19.35942668661475
  0
LINE
  8
100
  6
CONTINUOUS
 10
136.9029277801513
 20
14.18933965802193
 11
137.9029277801513
 21
14.18933965802193
  0
LINE
  8
100
  6
CONTINUOUS
 10
131.9029277801513
 20
13.36647995531559
 11
141.9029277801513
 21
13.36647995531559
  0
LINE
  8
100
  6
CONTINUOUS
 10
131.9029277801513
 20
12.41397995531559
 11
141.9029277801513
 21
12.41397995531559
  0
LINE
  8
100
  6
CONTINUOUS
 10
141.9029277801513
 20
13.36647995531559
 11
141.9029277801513
 21
12.41397995531559
  0
LINE
  8
100
  6
CONTINUOUS
 10
135.9029277801513
 20
20.98647995531559
 11
135.9029277801513
 21
27.65397995531559
  0
LINE
  8
100
  6
CONTINUOUS
 10
135.9029277801513
 20
27.17772995531559
 11
136.9029277801513
 21
27.17772995531559
  0
LINE
  8
100
  6
CONTINUOUS
 10
135.9029277801513
 20
21.46272995531559
 11
136.9029277801513
 21
21.46272995531559
  0
LINE
  8
100
  6
CONTINUOUS
 10
136.9029277801513
 20
21.46272995531559
 11
136.9029277801513
 21
27.17772995531559
  0
LINE
  8
10
  6
CONTINUOUS
 10
137.9003249912996
 20
21.71025051343768
 11
137.9003249912996
 21
26.94900051343767
  0
LINE
  8
10
  6
CONTINUOUS
 10
138.7475738741777
 20
26.87839676294158
 11
137.9003249912996
 21
26.94900051343767
  0
LINE
  8
10
  6
CONTINUOUS
 10
138.7475738741777
 20
21.78085426393377
 11
137.9003249912996
 21
21.71025051343768
  0
POLYLINE
  8
10
  6
CONTINUOUS
 66
     1
 10
0.0
 20
0.0
 70
     0
 40
0.0
 41
0.0
  0
VERTEX
  8
10
 10
139.6204336547852
 20
26.19617061293778
  0
VERTEX
  8
10
 10
139.8300002373093
 20
25.27238750572911
  0
VERTEX
  8
10
 10
139.9003249912996
 20
24.32962551343768
  0
VERTEX
  8
10
 10
139.8300002373093
 20
23.38686352114624
  0
VERTEX
  8
10
 10
139.6204336547852
 20
22.46308041393757
  0
SEQEND
  8
10
  0
POLYLINE
  8
10
  6
CONTINUOUS
 66
     1
 10
0.0
 20
0.0
 70
     0
 40
0.0
 41
0.0
  0
VERTEX
  8
10
 10
138.7475738741777
 20
26.87839676294158
  0
VERTEX
  8
10
 10
139.0379488702761
 20
26.8115866118387
  0
VERTEX
  8
10
 10
139.2947640056946
 20
26.66585082767433
  0
VERTEX
  8
10
 10
139.4949569155578
 20
26.45438967576682
  0
VERTEX
  8
10
 10
139.6204336547852
 20
26.19617061293778
  0
SEQEND
  8
10
  0
POLYLINE
  8
10
  6
CONTINUOUS
 66
     1
 10
0.0
 20
0.0
 70
     0
 40
0.0
 41
0.0
  0
VERTEX
  8
10
 10
138.7475738741777
 20
21.78085426393377
  0
VERTEX
  8
10
 10
139.0379488702761
 20
21.84766441503666
  0
VERTEX
  8
10
 10
139.2947640056946
 20
21.99340019920102
  0
VERTEX
  8
10
 10
139.4949569155578
 20
22.20486135110853
  0
VERTEX
  8
10
 10
139.6204336547852
 20
22.46308041393757
  0
SEQEND
  8
10
  0
LINE
  8
100
  6
CONTINUOUS
 10
136.9029277801513
 20
26.97942668661475
 11
137.9029277801513
 21
26.97942668661475
  0
LINE
  8
100
  6
CONTINUOUS
 10
136.9029277801513
 20
21.80933965802193
 11
137.9029277801513
 21
21.80933965802193
  0
LINE
  8
100
  6
CONTINUOUS
 10
131.9029277801513
 20
20.98647995531559
 11
141.9029277801513
 21
20.98647995531559
  0
LINE
  8
100
  6
CONTINUOUS
 10
131.9029277801513
 20
20.03397995531559
 11
141.9029277801513
 21
20.03397995531559
  0
LINE
  8
100
  6
CONTINUOUS
 10
141.9029277801513
 20
20.98647995531559
 11
141.9029277801513
 21
20.03397995531559
  0
LINE
  8
100
  6
CONTINUOUS
 10
135.9029277801513
 20
-9.493520044684411
 11
135.9029277801513
 21
-2.82602004468441
  0
LINE
  8
100
  6
CONTINUOUS
 10
135.9029277801513
 20
-3.30227004468441
 11
136.9029277801513
 21
-3.30227004468441
  0
LINE
  8
100
  6
CONTINUOUS
 10
135.9029277801513
 20
-9.017270044684411
 11
136.9029277801513
 21
-9.017270044684411
  0
LINE
  8
100
  6
CONTINUOUS
 10
136.9029277801513
 20
-9.017270044684411
 11
136.9029277801513
 21
-3.30227004468441
  0
LINE
  8
10
  6
CONTINUOUS
 10
137.9003249912996
 20
-8.769749486562326
 11
137.9003249912996
 21
-3.530999486562326
  0
LINE
  8
10
  6
CONTINUOUS
 10
138.7475738741777
 20
-3.601603237058419
 11
137.9003249912996
 21
-3.530999486562326
  0
LINE
  8
10
  6
CONTINUOUS
 10
138.7475738741777
 20
-8.699145736066233
 11
137.9003249912996
 21
-8.769749486562326
  0
POLYLINE
  8
10
  6
CONTINUOUS
 66
     1
 10
0.0
 20
0.0
 70
     0
 40
0.0
 41
0.0
  0
VERTEX
  8
10
 10
139.6204336547852
 20
-4.28382938706222
  0
VERTEX
  8
10
 10
139.8300002373093
 20
-5.207612494270893
  0
VERTEX
  8
10
 10
139.9003249912996
 20
-6.150374486562326
  0
VERTEX
  8
10
 10
139.8300002373093
 20
-7.093136478853758
  0
VERTEX
  8
10
 10
139.6204336547852
 20
-8.016919586062432
  0
SEQEND
  8
10
  0
POLYLINE
  8
10
  6
CONTINUOUS
 66
     1
 10
0.0
 20
0.0
 70
     0
 40
0.0
 41
0.0
  0
VERTEX
  8
10
 10
138.7475738741777
 20
-3.601603237058417
  0
VERTEX
  8
10
 10
139.0379488702761
 20
-3.668413388161307
  0
VERTEX
  8
10
 10
139.2947640056946
 20
-3.814149172325668
  0
VERTEX
  8
10
 10
139.4949569155578
 20
-4.025610324233181
  0
VERTEX
  8
10
 10
139.6204336547852
 20
-4.28382938706222
  0
SEQEND
  8
10
  0
POLYLINE
  8
10
  6
CONTINUOUS
 66
     1
 10
0.0
 20
0.0
 70
     0
 40
0.0
 41
0.0
  0
VERTEX
  8
10
 10
138.7475738741777
 20
-8.699145736066233
  0
VERTEX
  8
10
 10
139.0379488702761
 20
-8.632335584963345
  0
VERTEX
  8
10
 10
139.2947640056946
 20
-8.486599800798985
  0
VERTEX
  8
10
 10
139.4949569155578
 20
-8.27513864889147
  0
VERTEX
  8
10
 10
139.6204336547852
 20
-8.016919586062432
  0
SEQEND
  8
10
  0
LINE
  8
100
  6
CONTINUOUS
 10
136.9029277801513
 20
-3.500573313385248
 11
137.9029277801513
 21
-3.500573313385248
  0
LINE
  8
100
  6
CONTINUOUS
 10
136.9029277801513
 20
-8.670660341978074
 11
137.9029277801513
 21
-8.670660341978074
  0
LINE
  8
100
  6
CONTINUOUS
 10
131.9029277801513
 20
-9.493520044684411
 11
141.9029277801513
 21
-9.493520044684411
  0
LINE
  8
100
  6
CONTINUOUS
 10
131.9029277801513
 20
-10.44602004468441
 11
141.9029277801513
 21
-10.44602004468441
  0
LINE
  8
100
  6
CONTINUOUS
 10
141.9029277801513
 20
-9.493520044684411
 11
141.9029277801513
 21
-10.44602004468441
  0
LINE
  8
100
  6
CONTINUOUS
 10
135.9029277801513
 20
-17.11352004468441
 11
135.9029277801513
 21
-10.44602004468441
  0
LINE
  8
100
  6
CONTINUOUS
 10
135.9029277801513
 20
-10.92227004468441
 11
136.9029277801513
 21
-10.92227004468441
  0
LINE
  8
100
  6
CONTINUOUS
 10
135.9029277801513
 20
-16.63727004468441
 11
136.9029277801513
 21
-16.63727004468441
  0
LINE
  8
100
  6
CONTINUOUS
 10
136.9029277801513
 20
-16.63727004468441
 11
136.9029277801513
 21
-10.92227004468441
  0
LINE
  8
10
  6
CONTINUOUS
 10
137.9003249912996
 20
-16.38974948656233
 11
137.9003249912996
 21
-11.15099948656233
  0
LINE
  8
10
  6
CONTINUOUS
 10
138.7475738741777
 20
-11.22160323705842
 11
137.9003249912996
 21
-11.15099948656233
  0
LINE
  8
10
  6
CONTINUOUS
 10
138.7475738741777
 20
-16.31914573606623
 11
137.9003249912996
 21
-16.38974948656233
  0
POLYLINE
  8
10
  6
CONTINUOUS
 66
     1
 10
0.0
 20
0.0
 70
     0
 40
0.0
 41
0.0
  0
VERTEX
  8
10
 10
139.6204336547852
 20
-11.90382938706222
  0
VERTEX
  8
10
 10
139.8300002373093
 20
-12.82761249427089
  0
VERTEX
  8
10
 10
139.9003249912996
 20
-13.77037448656233
  0
VERTEX
  8
10
 10
139.8300002373093
 20
-14.71313647885376
  0
VERTEX
  8
10
 10
139.6204336547852
 20
-15.63691958606243
  0
SEQEND
  8
10
  0
POLYLINE
  8
10
  6
CONTINUOUS
 66
     1
 10
0.0
 20
0.0
 70
     0
 40
0.0
 41
0.0
  0
VERTEX
  8
10
 10
138.7475738741777
 20
-11.22160323705842
  0
VERTEX
  8
10
 10
139.0379488702761
 20
-11.28841338816131
  0
VERTEX
  8
10
 10
139.2947640056946
 20
-11.43414917232567
  0
VERTEX
  8
10
 10
139.4949569155578
 20
-11.64561032423318
  0
VERTEX
  8
10
 10
139.6204336547852
 20
-11.90382938706222
  0
SEQEND
  8
10
  0
POLYLINE
  8
10
  6
CONTINUOUS
 66
     1
 10
0.0
 20
0.0
 70
     0
 40
0.0
 41
0.0
  0
VERTEX
  8
10
 10
138.7475738741777
 20
-16.31914573606623
  0
VERTEX
  8
10
 10
139.0379488702761
 20
-16.25233558496334
  0
VERTEX
  8
10
 10
139.2947640056946
 20
-16.10659980079898
  0
VERTEX
  8
10
 10
139.4949569155578
 20
-15.89513864889147
  0
VERTEX
  8
10
 10
139.6204336547852
 20
-15.63691958606243
  0
SEQEND
  8
10
  0
LINE
  8
100
  6
CONTINUOUS
 10
136.9029277801513
 20
-11.12057331338525
 11
137.9029277801513
 21
-11.12057331338525
  0
LINE
  8
100
  6
CONTINUOUS
 10
136.9029277801513
 20
-16.29066034197808
 11
137.9029277801513
 21
-16.29066034197808
  0
LINE
  8
100
  6
CONTINUOUS
 10
131.9029277801513
 20
-17.11352004468441
 11
141.9029277801513
 21
-17.11352004468441
  0
LINE
  8
100
  6
CONTINUOUS
 10
131.9029277801513
 20
-18.06602004468441
 11
141.9029277801513
 21
-18.06602004468441
  0
LINE
  8
100
  6
CONTINUOUS
 10
141.9029277801513
 20
-17.11352004468441
 11
141.9029277801513
 21
-18.06602004468441
  0
LINE
  8
100
  6
CONTINUOUS
 10
135.9029277801513
 20
-24.73352004468441
 11
135.9029277801513
 21
-18.06602004468441
  0
LINE
  8
100
  6
CONTINUOUS
 10
135.9029277801513
 20
-18.54227004468441
 11
136.9029277801513
 21
-18.54227004468441
  0
LINE
  8
100
  6
CONTINUOUS
 10
135.9029277801513
 20
-24.25727004468441
 11
136.9029277801513
 21
-24.25727004468441
  0
LINE
  8
100
  6
CONTINUOUS
 10
136.9029277801513
 20
-24.25727004468441
 11
136.9029277801513
 21
-18.54227004468441
  0
LINE
  8
10
  6
CONTINUOUS
 10
137.9003249912996
 20
-24.00974948656233
 11
137.9003249912996
 21
-18.77099948656233
  0
LINE
  8
10
  6
CONTINUOUS
 10
138.7475738741777
 20
-18.84160323705842
 11
137.9003249912996
 21
-18.77099948656233
  0
LINE
  8
10
  6
CONTINUOUS
 10
138.7475738741777
 20
-23.93914573606623
 11
137.9003249912996
 21
-24.00974948656233
  0
POLYLINE
  8
10
  6
CONTINUOUS
 66
     1
 10
0.0
 20
0.0
 70
     0
 40
0.0
 41
0.0
  0
VERTEX
  8
10
 10
139.6204336547852
 20
-19.52382938706222
  0
VERTEX
  8
10
 10
139.8300002373093
 20
-20.44761249427089
  0
VERTEX
  8
10
 10
139.9003249912996
 20
-21.39037448656233
  0
VERTEX
  8
10
 10
139.8300002373093
 20
-22.33313647885376
  0
VERTEX
  8
10
 10
139.6204336547852
 20
-23.25691958606243
  0
SEQEND
  8
10
  0
POLYLINE
  8
10
  6
CONTINUOUS
 66
     1
 10
0.0
 20
0.0
 70
     0
 40
0.0
 41
0.0
  0
VERTEX
  8
10
 10
138.7475738741777
 20
-18.84160323705842
  0
VERTEX
  8
10
 10
139.0379488702761
 20
-18.9084133881613
  0
VERTEX
  8
10
 10
139.2947640056946
 20
-19.05414917232567
  0
VERTEX
  8
10
 10
139.4949569155578
 20
-19.26561032423318
  0
VERTEX
  8
10
 10
139.6204336547852
 20
-19.52382938706222
  0
SEQEND
  8
10
  0
POLYLINE
  8
10
  6
CONTINUOUS
 66
     1
 10
0.0
 20
0.0
 70
     0
 40
0.0
 41
0.0
  0
VERTEX
  8
10
 10
138.7475738741777
 20
-23.93914573606623
  0
VERTEX
  8
10
 10
139.0379488702761
 20
-23.87233558496335
  0
VERTEX
  8
10
 10
139.2947640056946
 20
-23.72659980079898
  0
VERTEX
  8
10
 10
139.4949569155578
 20
-23.51513864889147
  0
VERTEX
  8
10
 10
139.6204336547852
 20
-23.25691958606243
  0
SEQEND
  8
10
  0
LINE
  8
100
  6
CONTINUOUS
 10
136.9029277801513
 20
-18.74057331338525
 11
137.9029277801513
 21
-18.74057331338525
  0
LINE
  8
100
  6
CONTINUOUS
 10
136.9029277801513
 20
-23.91066034197807
 11
137.9029277801513
 21
-23.91066034197807
  0
LINE
  8
100
  6
CONTINUOUS
 10
131.9029277801513
 20
-24.73352004468441
 11
141.9029277801513
 21
-24.73352004468441
  0
LINE
  8
100
  6
CONTINUOUS
 10
131.9029277801513
 20
-25.68602004468441
 11
141.9029277801513
 21
-25.68602004468441
  0
LINE
  8
100
  6
CONTINUOUS
 10
141.9029277801513
 20
-24.73352004468441
 11
141.9029277801513
 21
-25.68602004468441
  0
LINE
  8
100
  6
CONTINUOUS
 10
135.9029277801513
 20
29.08272995531559
 11
136.9029277801513
 21
29.08272995531559
  0
LINE
  8
10
  6
CONTINUOUS
 10
138.7475738741777
 20
29.40085426393377
 11
137.9003249912996
 21
29.33025051343767
  0
LINE
  8
100
  6
CONTINUOUS
 10
136.9029277801513
 20
29.42933965802193
 11
137.9029277801513
 21
29.42933965802193
  0
LINE
  8
100
  6
CONTINUOUS
 10
131.9029277801513
 20
28.60647995531559
 11
141.9029277801513
 21
28.60647995531559
  0
LINE
  8
100
  6
CONTINUOUS
 10
131.9029277801513
 20
27.65397995531559
 11
141.9029277801513
 21
27.65397995531559
  0
LINE
  8
100
  6
CONTINUOUS
 10
141.9029277801513
 20
28.60647995531559
 11
141.9029277801513
 21
27.65397995531559
  0
LINE
  8
100
  6
CONTINUOUS
 10
135.9029277801513
 20
-32.35352004468441
 11
135.9029277801513
 21
-25.68602004468441
  0
LINE
  8
100
  6
CONTINUOUS
 10
135.9029277801513
 20
-31.87727004468441
 11
136.9029277801513
 21
-31.87727004468441
  0
LINE
  8
100
  6
CONTINUOUS
 10
136.9029277801513
 20
-31.87727004468441
 11
136.9029277801513
 21
-26.16227004468441
  0
LINE
  8
10
  6
CONTINUOUS
 10
137.9003249912996
 20
-31.62974948656233
 11
137.9003249912996
 21
-26.39099948656233
  0
LINE
  8
10
  6
CONTINUOUS
 10
138.7475738741777
 20
-31.55914573606623
 11
137.9003249912996
 21
-31.62974948656233
  0
POLYLINE
  8
10
  6
CONTINUOUS
 66
     1
 10
0.0
 20
0.0
 70
     0
 40
0.0
 41
0.0
  0
VERTEX
  8
10
 10
139.6204336547852
 20
-27.14382938706222
  0
VERTEX
  8
10
 10
139.8300002373093
 20
-28.0676124942709
  0
VERTEX
  8
10
 10
139.9003249912996
 20
-29.01037448656233
  0
VERTEX
  8
10
 10
139.8300002373093
 20
-29.95313647885376
  0
VERTEX
  8
10
 10
139.6204336547852
 20
-30.87691958606243
  0
SEQEND
  8
10
  0
POLYLINE
  8
10
  6
CONTINUOUS
 66
     1
 10
0.0
 20
0.0
 70
     0
 40
0.0
 41
0.0
  0
VERTEX
  8
10
 10
138.7475738741777
 20
-26.46160323705842
  0
VERTEX
  8
10
 10
139.0379488702761
 20
-26.5284133881613
  0
VERTEX
  8
10
 10
139.2947640056946
 20
-26.67414917232567
  0
VERTEX
  8
10
 10
139.4949569155578
 20
-26.88561032423318
  0
VERTEX
  8
10
 10
139.6204336547852
 20
-27.14382938706222
  0
SEQEND
  8
10
  0
POLYLINE
  8
10
  6
CONTINUOUS
 66
     1
 10
0.0
 20
0.0
 70
     0
 40
0.0
 41
0.0
  0
VERTEX
  8
10
 10
138.7475738741777
 20
-31.55914573606623
  0
VERTEX
  8
10
 10
139.0379488702761
 20
-31.49233558496334
  0
VERTEX
  8
10
 10
139.2947640056946
 20
-31.34659980079898
  0
VERTEX
  8
10
 10
139.4949569155578
 20
-31.13513864889147
  0
VERTEX
  8
10
 10
139.6204336547852
 20
-30.87691958606243
  0
SEQEND
  8
10
  0
LINE
  8
100
  6
CONTINUOUS
 10
136.9029277801513
 20
-31.53066034197807
 11
137.9029277801513
 21
-31.53066034197807
  0
LINE
  8
100
  6
CONTINUOUS
 10
131.9029277801513
 20
-32.35352004468441
 11
141.9029277801513
 21
-32.35352004468441
  0
LINE
  8
100
  6
CONTINUOUS
 10
131.9029277801513
 20
-33.30602004468441
 11
141.9029277801513
 21
-33.30602004468441
  0
LINE
  8
100
  6
CONTINUOUS
 10
141.9029277801513
 20
-32.35352004468441
 11
141.9029277801513
 21
-33.30602004468441
  0
LINE
  8
100
  6
CONTINUOUS
 10
135.9029277801513
 20
-39.97352004468441
 11
135.9029277801513
 21
-33.30602004468441
  0
LINE
  8
100
  6
CONTINUOUS
 10
135.9029277801513
 20
-39.49727004468441
 11
136.9029277801513
 21
-39.49727004468441
  0
LINE
  8
100
  6
CONTINUOUS
 10
136.9029277801513
 20
-39.49727004468441
 11
136.9029277801513
 21
-33.78227004468441
  0
LINE
  8
10
  6
CONTINUOUS
 10
137.9003249912996
 20
-39.24974948656233
 11
137.9003249912996
 21
-34.01099948656233
  0
LINE
  8
10
  6
CONTINUOUS
 10
138.7475738741777
 20
-39.17914573606623
 11
137.9003249912996
 21
-39.24974948656233
  0
POLYLINE
  8
10
  6
CONTINUOUS
 66
     1
 10
0.0
 20
0.0
 70
     0
 40
0.0
 41
0.0
  0
VERTEX
  8
10
 10
139.6204336547852
 20
-34.76382938706222
  0
VERTEX
  8
10
 10
139.8300002373093
 20
-35.68761249427089
  0
VERTEX
  8
10
 10
139.9003249912996
 20
-36.63037448656233
  0
VERTEX
  8
10
 10
139.8300002373093
 20
-37.57313647885376
  0
VERTEX
  8
10
 10
139.6204336547852
 20
-38.49691958606243
  0
SEQEND
  8
10
  0
POLYLINE
  8
10
  6
CONTINUOUS
 66
     1
 10
0.0
 20
0.0
 70
     0
 40
0.0
 41
0.0
  0
VERTEX
  8
10
 10
138.7475738741777
 20
-34.08160323705842
  0
VERTEX
  8
10
 10
139.0379488702761
 20
-34.14841338816131
  0
VERTEX
  8
10
 10
139.2947640056946
 20
-34.29414917232567
  0
VERTEX
  8
10
 10
139.4949569155578
 20
-34.50561032423319
  0
VERTEX
  8
10
 10
139.6204336547852
 20
-34.76382938706222
  0
SEQEND
  8
10
  0
POLYLINE
  8
10
  6
CONTINUOUS
 66
     1
 10
0.0
 20
0.0
 70
     0
 40
0.0
 41
0.0
  0
VERTEX
  8
10
 10
138.7475738741777
 20
-39.17914573606623
  0
VERTEX
  8
10
 10
139.0379488702761
 20
-39.11233558496334
  0
VERTEX
  8
10
 10
139.2947640056946
 20
-38.96659980079898
  0
VERTEX
  8
10
 10
139.4949569155578
 20
-38.75513864889147
  0
VERTEX
  8
10
 10
139.6204336547852
 20
-38.49691958606243
  0
SEQEND
  8
10
  0
LINE
  8
100
  6
CONTINUOUS
 10
136.9029277801513
 20
-39.15066034197808
 11
137.9029277801513
 21
-39.15066034197808
  0
LINE
  8
100
  6
CONTINUOUS
 10
131.9029277801513
 20
-39.97352004468441
 11
141.9029277801513
 21
-39.97352004468441
  0
LINE
  8
100
  6
CONTINUOUS
 10
131.9029277801513
 20
-40.92602004468441
 11
141.9029277801513
 21
-40.92602004468441
  0
LINE
  8
100
  6
CONTINUOUS
 10
141.9029277801513
 20
-39.97352004468441
 11
141.9029277801513
 21
-40.92602004468441
  0
LINE
  8
100
  6
CONTINUOUS
 10
136.9029277801513
 20
-26.36057331338525
 11
137.9029277801513
 21
-26.36057331338525
  0
LINE
  8
100
  6
CONTINUOUS
 10
135.9029277801513
 20
-26.16227004468441
 11
136.9029277801513
 21
-26.16227004468441
  0
LINE
  8
10
  6
CONTINUOUS
 10
138.7475738741777
 20
-26.46160323705842
 11
137.9003249912996
 21
-26.39099948656233
  0
LINE
  8
100
  6
CONTINUOUS
 10
136.9029277801513
 20
-33.98057331338525
 11
137.9029277801513
 21
-33.98057331338525
  0
LINE
  8
100
  6
CONTINUOUS
 10
135.9029277801513
 20
-33.78227004468441
 11
136.9029277801513
 21
-33.78227004468441
  0
LINE
  8
10
  6
CONTINUOUS
 10
138.7475738741777
 20
-34.08160323705842
 11
137.9003249912996
 21
-34.01099948656233
  0
INSERT
  8
100
  6
CONTINUOUS
  2
COMP1
 10
0.0
 20
0.0
 41
1.0
 42
1.0
 50
0.0
  0
INSERT
  8
100
  6
CONTINUOUS
  2
COMP2
 10
0.0
 20
0.0
 41
1.0
 42
1.0
 50
0.0
  0
INSERT
  8
100
  6
CONTINUOUS
  2
COMP3
 10
0.0
 20
0.0
 41
1.0
 42
1.0
 50
0.0
  0
INSERT
  8
100
  6
CONTINUOUS
  2
COMP4
 10
0.0
 20
0.0
 41
1.0
 42
1.0
 50
0.0
  0
LINE
  8
100
  6
CONTINUOUS
 10
141.9029277801513
 20
36.22647995531559
 11
141.9029277801513
 21
-39.97352004468441
  0
LINE
  8
10
  6
CONTINUOUS
 10
119.3965148925781
 20
-61.90686798095703
 11
119.3965148925781
 21
-56.40686798095703
  0
LINE
  8
10
  6
CONTINUOUS
 10
120.2437637754563
 20
-56.48099265339388
 11
119.3965148925781
 21
-56.40686798095703
  0
LINE
  8
10
  6
CONTINUOUS
 10
120.2437637754563
 20
-61.83274330852019
 11
119.3965148925781
 21
-61.90686798095703
  0
ARC
  8
10
  6
CONTINUOUS
 10
114.3965148925781
 20
-59.15686798095703
 40
7.0
 50
343.7429721033964
 51
16.25702789660362
  0
ARC
  8
10
  6
CONTINUOUS
 10
120.1566080327086
 20
-57.47718735148562
 40
1.0
 50
16.25702789660349
 51
85.00000000000019
  0
ARC
  8
10
  6
CONTINUOUS
 10
120.1566080327086
 20
-60.83654861042844
 40
1.0
 50
274.9999999999998
 51
343.7429721033965
  0
LINE
  8
10
  6
CONTINUOUS
 10
119.3806915283203
 20
83.98303985595703
 11
119.3806915283203
 21
89.48303985595703
  0
LINE
  8
10
  6
CONTINUOUS
 10
120.2279404111985
 20
89.40891518352019
 11
119.3806915283203
 21
89.48303985595703
  0
LINE
  8
10
  6
CONTINUOUS
 10
120.2279404111985
 20
84.05716452839387
 11
119.3806915283203
 21
83.98303985595703
  0
ARC
  8
10
  6
CONTINUOUS
 10
114.3806915283203
 20
86.73303985595703
 40
7.0
 50
343.7429721033963
 51
16.25702789660368
  0
ARC
  8
10
  6
CONTINUOUS
 10
120.1407846684508
 20
88.41272048542844
 40
1.0
 50
16.25702789660427
 51
85.00000000000026
  0
ARC
  8
10
  6
CONTINUOUS
 10
120.1407846684508
 20
85.05335922648563
 40
1.0
 50
274.9999999999998
 51
343.7429721033957
  0
ARC
  8
100
  6
CONTINUOUS
 10
-48.69707221984864
 20
-23.30612945556641
 40
1.299999999999997
 50
90.0
 51
270.0
  0
LINE
  8
100
  6
CONTINUOUS
 10
-48.69707221984864
 20
-22.00612945556641
 11
-44.99707221984863
 21
-22.30612945556641
  0
LINE
  8
100
  6
CONTINUOUS
 10
-48.69707221984864
 20
-24.6061294555664
 11
-44.99707221984863
 21
-24.30612945556641
  0
ARC
  8
100
  6
CONTINUOUS
 10
-44.33639144897461
 20
76.01370239257813
 40
2.000000000000006
 50
109.2894367973041
 51
250.7105632026959
  0
LINE
  8
100
  6
CONTINUOUS
 10
177.9900262145996
 20
-74.47971343994141
 11
219.9900262145996
 21
-74.47971343994141
  0
LINE
  8
100
  6
CONTINUOUS
 10
177.9900262145996
 20
101.5202865600586
 11
219.9900262145996
 21
101.5202865600586
  0
LINE
  8
15
  6
CONTINUOUS
 10
177.9900262145996
 20
-64.47971343994141
 11
219.9900262145996
 21
-64.47971343994141
  0
LINE
  8
15
  6
CONTINUOUS
 10
178.4900262145996
 20
91.52028656005859
 11
219.4900262145996
 21
91.52028656005859
  0
CIRCLE
  8
100
  6
CONTINUOUS
 10
183.4900360107422
 20
86.52028656005859
 40
2.25
  0
LINE
  8
100
  6
CONTINUOUS
 10
183.7900390625
 20
85.25537872314453
 11
183.7900390625
 21
85.72028350830078
  0
LINE
  8
100
  6
CONTINUOUS
 10
183.7900390625
 20
87.32028961181641
 11
183.7900390625
 21
87.78519439697266
  0
LINE
  8
100
  6
CONTINUOUS
 10
183.1900329589844
 20
85.25537872314453
 11
183.1900329589844
 21
85.72028350830078
  0
LINE
  8
100
  6
CONTINUOUS
 10
183.1900329589844
 20
87.32028961181641
 11
183.1900329589844
 21
87.78519439697266
  0
LINE
  8
100
  6
CONTINUOUS
 10
182.2251281738281
 20
86.82028961181641
 11
182.6900329589844
 21
86.82028961181641
  0
LINE
  8
100
  6
CONTINUOUS
 10
184.2900390625
 20
86.82028961181641
 11
184.7549438476563
 21
86.82028961181641
  0
LINE
  8
100
  6
CONTINUOUS
 10
182.2251281738281
 20
86.22028350830078
 11
182.6900329589844
 21
86.22028350830078
  0
LINE
  8
100
  6
CONTINUOUS
 10
184.2900390625
 20
86.22028350830078
 11
184.7549438476563
 21
86.22028350830078
  0
ARC
  8
100
  6
CONTINUOUS
 10
183.4900360107422
 20
86.52028656005859
 40
1.299999952316284
 50
0.0
 51
13.34252749205434
  0
ARC
  8
100
  6
CONTINUOUS
 10
183.4900360107422
 20
86.52028656005859
 40
1.299999952316284
 50
76.65747250794566
 51
103.3425274920543
  0
ARC
  8
100
  6
CONTINUOUS
 10
183.4900360107422
 20
86.52028656005859
 40
1.299999952316284
 50
166.6574725079457
 51
193.3425274920543
  0
ARC
  8
100
  6
CONTINUOUS
 10
183.4900360107422
 20
86.52028656005859
 40
1.299999952316284
 50
256.6574725079457
 51
283.3425274920543
  0
ARC
  8
100
  6
CONTINUOUS
 10
183.4900360107422
 20
86.52028656005859
 40
1.299999952316284
 50
346.6574725079457
 51
0.0
  0
ARC
  8
100
  6
CONTINUOUS
 10
184.2900390625
 20
87.32028961181641
 40
0.5
 50
180.0
 51
270.0
  0
ARC
  8
100
  6
CONTINUOUS
 10
182.6900329589844
 20
87.32028961181641
 40
0.5
 50
270.0
 51
0.0
  0
ARC
  8
100
  6
CONTINUOUS
 10
182.6900329589844
 20
85.72028350830078
 40
0.5
 50
0.0
 51
90.0
  0
ARC
  8
100
  6
CONTINUOUS
 10
184.2900390625
 20
85.72028350830078
 40
0.5
 50
90.0
 51
180.0
  0
CIRCLE
  8
100
  6
CONTINUOUS
 10
214.4900360107422
 20
86.52028656005859
 40
2.25
  0
LINE
  8
100
  6
CONTINUOUS
 10
214.7900238037109
 20
85.25537872314453
 11
214.7900238037109
 21
85.72028350830078
  0
LINE
  8
100
  6
CONTINUOUS
 10
214.7900238037109
 20
87.32028961181641
 11
214.7900238037109
 21
87.78519439697266
  0
LINE
  8
100
  6
CONTINUOUS
 10
214.1900482177734
 20
85.25537872314453
 11
214.1900482177734
 21
85.72028350830078
  0
LINE
  8
100
  6
CONTINUOUS
 10
214.1900482177734
 20
87.32028961181641
 11
214.1900482177734
 21
87.78519439697266
  0
LINE
  8
100
  6
CONTINUOUS
 10
213.2251129150391
 20
86.82028961181641
 11
213.6900482177734
 21
86.82028961181641
  0
LINE
  8
100
  6
CONTINUOUS
 10
215.2900238037109
 20
86.82028961181641
 11
215.7549591064453
 21
86.82028961181641
  0
LINE
  8
100
  6
CONTINUOUS
 10
213.2251129150391
 20
86.22028350830078
 11
213.6900482177734
 21
86.22028350830078
  0
LINE
  8
100
  6
CONTINUOUS
 10
215.2900238037109
 20
86.22028350830078
 11
215.7549591064453
 21
86.22028350830078
  0
ARC
  8
100
  6
CONTINUOUS
 10
214.4900360107422
 20
86.52028656005859
 40
1.299999952316284
 50
0.0
 51
13.34237229683564
  0
ARC
  8
100
  6
CONTINUOUS
 10
214.4900360107422
 20
86.52028656005859
 40
1.299999952316284
 50
76.65812686936285
 51
103.3418731306372
  0
ARC
  8
100
  6
CONTINUOUS
 10
214.4900360107422
 20
86.52028656005859
 40
1.299999952316284
 50
166.6576277031644
 51
193.3423722968356
  0
ARC
  8
100
  6
CONTINUOUS
 10
214.4900360107422
 20
86.52028656005859
 40
1.299999952316284
 50
256.6581268693628
 51
283.3418731306372
  0
ARC
  8
100
  6
CONTINUOUS
 10
214.4900360107422
 20
86.52028656005859
 40
1.299999952316284
 50
346.6576277031643
 51
0.0
  0
ARC
  8
100
  6
CONTINUOUS
 10
215.2900238037109
 20
87.32028961181641
 40
0.5
 50
180.0
 51
270.0
  0
ARC
  8
100
  6
CONTINUOUS
 10
213.6900482177734
 20
87.32028961181641
 40
0.5
 50
270.0
 51
0.0
  0
ARC
  8
100
  6
CONTINUOUS
 10
213.6900482177734
 20
85.72028350830078
 40
0.5
 50
0.0
 51
90.0
  0
ARC
  8
100
  6
CONTINUOUS
 10
215.2900238037109
 20
85.72028350830078
 40
0.5
 50
90.0
 51
180.0
  0
CIRCLE
  8
100
  6
CONTINUOUS
 10
214.4900360107422
 20
-59.47971343994141
 40
2.25
  0
LINE
  8
100
  6
CONTINUOUS
 10
214.7900238037109
 20
-60.74462509155273
 11
214.7900238037109
 21
-60.27971267700195
  0
LINE
  8
100
  6
CONTINUOUS
 10
214.7900238037109
 20
-58.67971420288086
 11
214.7900238037109
 21
-58.21480178833008
  0
LINE
  8
100
  6
CONTINUOUS
 10
214.1900482177734
 20
-60.74462509155273
 11
214.1900482177734
 21
-60.27971267700195
  0
LINE
  8
100
  6
CONTINUOUS
 10
214.1900482177734
 20
-58.67971420288086
 11
214.1900482177734
 21
-58.21480178833008
  0
LINE
  8
100
  6
CONTINUOUS
 10
213.2251129150391
 20
-59.17971420288086
 11
213.6900482177734
 21
-59.17971420288086
  0
LINE
  8
100
  6
CONTINUOUS
 10
215.2900238037109
 20
-59.17971420288086
 11
215.7549591064453
 21
-59.17971420288086
  0
LINE
  8
100
  6
CONTINUOUS
 10
213.2251129150391
 20
-59.77971267700195
 11
213.6900482177734
 21
-59.77971267700195
  0
LINE
  8
100
  6
CONTINUOUS
 10
215.2900238037109
 20
-59.77971267700195
 11
215.7549591064453
 21
-59.77971267700195
  0
ARC
  8
100
  6
CONTINUOUS
 10
214.4900360107422
 20
-59.47971343994141
 40
1.299999952316284
 50
0.0
 51
13.34220870857688
  0
ARC
  8
100
  6
CONTINUOUS
 10
214.4900360107422
 20
-59.47971343994141
 40
1.299999952316284
 50
76.65816566673662
 51
103.3418343332634
  0
ARC
  8
100
  6
CONTINUOUS
 10
214.4900360107422
 20
-59.47971343994141
 40
1.299999952316284
 50
166.6577912914231
 51
193.3422087085769
  0
ARC
  8
100
  6
CONTINUOUS
 10
214.4900360107422
 20
-59.47971343994141
 40
1.299999952316284
 50
256.6581656667366
 51
283.3418343332634
  0
ARC
  8
100
  6
CONTINUOUS
 10
214.4900360107422
 20
-59.47971343994141
 40
1.299999952316284
 50
346.6577912914231
 51
0.0
  0
ARC
  8
100
  6
CONTINUOUS
 10
215.2900238037109
 20
-58.67971420288086
 40
0.5
 50
180.0
 51
270.0
  0
ARC
  8
100
  6
CONTINUOUS
 10
213.6900482177734
 20
-58.67971420288086
 40
0.5
 50
270.0
 51
0.0
  0
ARC
  8
100
  6
CONTINUOUS
 10
213.6900482177734
 20
-60.27971267700195
 40
0.5
 50
0.0
 51
90.0
  0
ARC
  8
100
  6
CONTINUOUS
 10
215.2900238037109
 20
-60.27971267700195
 40
0.5
 50
90.0
 51
180.0
  0
CIRCLE
  8
100
  6
CONTINUOUS
 10
183.4900360107422
 20
-59.47971343994141
 40
2.25
  0
LINE
  8
100
  6
CONTINUOUS
 10
183.7900390625
 20
-60.74462509155273
 11
183.7900390625
 21
-60.27971267700195
  0
LINE
  8
100
  6
CONTINUOUS
 10
183.7900390625
 20
-58.67971420288086
 11
183.7900390625
 21
-58.21480178833008
  0
LINE
  8
100
  6
CONTINUOUS
 10
183.1900329589844
 20
-60.74462509155273
 11
183.1900329589844
 21
-60.27971267700195
  0
LINE
  8
100
  6
CONTINUOUS
 10
183.1900329589844
 20
-58.67971420288086
 11
183.1900329589844
 21
-58.21480178833008
  0
LINE
  8
100
  6
CONTINUOUS
 10
182.2251281738281
 20
-59.17971420288086
 11
182.6900329589844
 21
-59.17971420288086
  0
LINE
  8
100
  6
CONTINUOUS
 10
184.2900390625
 20
-59.17971420288086
 11
184.7549438476563
 21
-59.17971420288086
  0
LINE
  8
100
  6
CONTINUOUS
 10
182.2251281738281
 20
-59.77971267700195
 11
182.6900329589844
 21
-59.77971267700195
  0
LINE
  8
100
  6
CONTINUOUS
 10
184.2900390625
 20
-59.77971267700195
 11
184.7549438476563
 21
-59.77971267700195
  0
ARC
  8
100
  6
CONTINUOUS
 10
183.4900360107422
 20
-59.47971343994141
 40
1.299999952316284
 50
0.0
 51
13.34236390203238
  0
ARC
  8
100
  6
CONTINUOUS
 10
183.4900360107422
 20
-59.47971343994141
 40
1.299999952316284
 50
76.65751130708267
 51
103.3424886929173
  0
ARC
  8
100
  6
CONTINUOUS
 10
183.4900360107422
 20
-59.47971343994141
 40
1.299999952316284
 50
166.6576360979676
 51
193.3423639020324
  0
ARC
  8
100
  6
CONTINUOUS
 10
183.4900360107422
 20
-59.47971343994141
 40
1.299999952316284
 50
256.6575113070826
 51
283.3424886929173
  0
ARC
  8
100
  6
CONTINUOUS
 10
183.4900360107422
 20
-59.47971343994141
 40
1.299999952316284
 50
346.6576360979676
 51
0.0
  0
ARC
  8
100
  6
CONTINUOUS
 10
184.2900390625
 20
-58.67971420288086
 40
0.5
 50
180.0
 51
270.0
  0
ARC
  8
100
  6
CONTINUOUS
 10
182.6900329589844
 20
-58.67971420288086
 40
0.5
 50
270.0
 51
0.0
  0
ARC
  8
100
  6
CONTINUOUS
 10
182.6900329589844
 20
-60.27971267700195
 40
0.5
 50
0.0
 51
90.0
  0
ARC
  8
100
  6
CONTINUOUS
 10
184.2900390625
 20
-60.27971267700195
 40
0.5
 50
90.0
 51
180.0
  0
LINE
  8
100
  6
CONTINUOUS
 10
177.9900262145996
 20
91.52028656005859
 11
219.9900262145996
 21
91.52028656005859
  0
POLYLINE
  8
20
  6
CONTINUOUS
 66
     1
 70
     0
 40
0.0
 41
0.0
  0
VERTEX
  8
20
 10
191.2087860107422
 20
-57.41721343994141
  0
VERTEX
  8
20
 10
191.2087860107422
 20
-55.54221343994141
  0
VERTEX
  8
20
 10
191.8650360107422
 20
-56.57346343994141
  0
VERTEX
  8
20
 10
192.5212860107422
 20
-55.54221343994141
  0
VERTEX
  8
20
 10
192.5212860107422
 20
-57.41721343994141
  0
SEQEND
  8
20
  0
POLYLINE
  8
20
  6
CONTINUOUS
 66
     1
 70
     0
 40
0.0
 41
0.0
  0
VERTEX
  8
20
 10
194.2400360107422
 20
-55.54221343994141
  0
VERTEX
  8
20
 10
194.2400360107422
 20
-57.41721343994141
  0
SEQEND
  8
20
  0
POLYLINE
  8
20
  6
CONTINUOUS
 66
     1
 70
     0
 40
0.0
 41
0.0
  0
VERTEX
  8
20
 10
194.0525360107422
 20
-57.41721343994141
  0
VERTEX
  8
20
 10
194.4275360107422
 20
-57.41721343994141
  0
SEQEND
  8
20
  0
POLYLINE
  8
20
  6
CONTINUOUS
 66
     1
 70
     0
 40
0.0
 41
0.0
  0
VERTEX
  8
20
 10
194.0525360107422
 20
-55.54221343994141
  0
VERTEX
  8
20
 10
194.4275360107422
 20
-55.54221343994141
  0
SEQEND
  8
20
  0
POLYLINE
  8
20
  6
CONTINUOUS
 66
     1
 70
     0
 40
0.0
 41
0.0
  0
VERTEX
  8
20
 10
196.0525360107422
 20
-57.41721343994141
  0
VERTEX
  8
20
 10
196.0525360107422
 20
-55.54221343994141
  0
VERTEX
  8
20
 10
197.1775360107422
 20
-57.41721343994141
  0
VERTEX
  8
20
 10
197.1775360107422
 20
-55.54221343994141
  0
SEQEND
  8
20
  0
POLYLINE
  8
20
  6
CONTINUOUS
 66
     1
 70
     0
 40
0.0
 41
0.0
  0
VERTEX
  8
20
 10
199.6462860107422
 20
-57.41721343994141
  0
VERTEX
  8
20
 10
198.3337860107422
 20
-57.41721343994141
  0
VERTEX
  8
20
 10
198.3337860107422
 20
-55.54221343994141
  0
VERTEX
  8
20
 10
199.6462860107422
 20
-55.54221343994141
  0
SEQEND
  8
20
  0
POLYLINE
  8
20
  6
CONTINUOUS
 66
     1
 70
     0
 40
0.0
 41
0.0
  0
VERTEX
  8
20
 10
198.3337860107422
 20
-56.38596343994141
  0
VERTEX
  8
20
 10
199.2712860107422
 20
-56.38596343994141
  0
SEQEND
  8
20
  0
POLYLINE
  8
20
  6
CONTINUOUS
 66
     1
 70
     0
 40
0.0
 41
0.0
  0
VERTEX
  8
20
 10
201.3650360107422
 20
-57.41721343994141
  0
VERTEX
  8
20
 10
200.8025360107422
 20
-57.41721343994141
  0
VERTEX
  8
20
 10
200.8025360107422
 20
-55.54221343994141
  0
VERTEX
  8
20
 10
201.3650360107422
 20
-55.54221343994141
  0
SEQEND
  8
20
  0
POLYLINE
  8
20
  6
CONTINUOUS
 66
     1
 70
     0
 40
0.0
 41
0.0
  0
VERTEX
  8
20
 10
201.3650360107422
 20
-56.38596343994141
  0
VERTEX
  8
20
 10
200.8025360107422
 20
-56.38596343994141
  0
SEQEND
  8
20
  0
POLYLINE
  8
20
  6
CONTINUOUS
 66
     1
 70
     0
 40
0.0
 41
0.0
  0
VERTEX
  8
20
 10
201.9275360107422
 20
-56.88596343994141
 42
-0.4493288344692009
  0
VERTEX
  8
20
 10
201.3650360107422
 20
-57.41721343994141
  0
SEQEND
  8
20
  0
POLYLINE
  8
20
  6
CONTINUOUS
 66
     1
 70
     0
 40
0.0
 41
0.0
  0
VERTEX
  8
20
 10
201.3650360107422
 20
-56.38596343994141
 42
0.39599609375
  0
VERTEX
  8
20
 10
201.8337860107422
 20
-55.94846343994141
  0
SEQEND
  8
20
  0
POLYLINE
  8
20
  6
CONTINUOUS
 66
     1
 70
     0
 40
0.0
 41
0.0
  0
VERTEX
  8
20
 10
201.3650360107422
 20
-56.38596343994141
 42
-0.4152245581069569
  0
VERTEX
  8
20
 10
201.9275360107422
 20
-56.88596343994141
  0
SEQEND
  8
20
  0
POLYLINE
  8
20
  6
CONTINUOUS
 66
     1
 70
     0
 40
0.0
 41
0.0
  0
VERTEX
  8
20
 10
201.3650360107422
 20
-55.54221343994141
 42
-0.4219464920412241
  0
VERTEX
  8
20
 10
201.8337860107422
 20
-55.94846343994141
  0
SEQEND
  8
20
  0
POLYLINE
  8
20
  6
CONTINUOUS
 66
     1
 70
     0
 40
0.0
 41
0.0
  0
VERTEX
  8
20
 10
204.3962860107422
 20
-57.41721343994141
  0
VERTEX
  8
20
 10
203.0837860107422
 20
-57.41721343994141
  0
VERTEX
  8
20
 10
203.0837860107422
 20
-55.54221343994141
  0
VERTEX
  8
20
 10
204.3962860107422
 20
-55.54221343994141
  0
SEQEND
  8
20
  0
POLYLINE
  8
20
  6
CONTINUOUS
 66
     1
 70
     0
 40
0.0
 41
0.0
  0
VERTEX
  8
20
 10
203.0837860107422
 20
-56.38596343994141
  0
VERTEX
  8
20
 10
204.0212860107422
 20
-56.38596343994141
  0
SEQEND
  8
20
  0
POLYLINE
  8
20
  6
CONTINUOUS
 66
     1
 70
     0
 40
0.0
 41
0.0
  0
VERTEX
  8
20
 10
205.4587860107422
 20
-57.41721343994141
  0
VERTEX
  8
20
 10
206.1150360107422
 20
-55.54221343994141
  0
VERTEX
  8
20
 10
206.7712860107422
 20
-57.41721343994141
  0
SEQEND
  8
20
  0
POLYLINE
  8
20
  6
CONTINUOUS
 66
     1
 70
     0
 40
0.0
 41
0.0
  0
VERTEX
  8
20
 10
205.6775360107422
 20
-56.79221343994141
  0
VERTEX
  8
20
 10
206.5525360107422
 20
-56.79221343994141
  0
SEQEND
  8
20
  0
POLYLINE
  8
20
  6
CONTINUOUS
 66
     1
 70
     0
 40
0.0
 41
0.0
  0
VERTEX
  8
20
 10
192.6775360107422
 20
-58.88596343994141
 42
0.3090239372518139
  0
VERTEX
  8
20
 10
192.1775360107422
 20
-58.54221343994141
 42
0.2704090652702829
  0
VERTEX
  8
20
 10
191.6775360107422
 20
-58.88596343994141
 42
0.1145143325547374
  0
VERTEX
  8
20
 10
191.5212860107422
 20
-59.47971343994141
 42
0.1335844741349431
  0
VERTEX
  8
20
 10
191.6775360107422
 20
-60.07346343994141
 42
0.2704045123542536
  0
VERTEX
  8
20
 10
192.1775360107422
 20
-60.41721343994141
  0
SEQEND
  8
20
  0
POLYLINE
  8
20
  6
CONTINUOUS
 66
     1
 70
     0
 40
0.0
 41
0.0
  0
VERTEX
  8
20
 10
192.2087860107422
 20
-60.41721343994141
 42
0.3418589716795799
  0
VERTEX
  8
20
 10
192.7400360107422
 20
-59.94846343994141
  0
SEQEND
  8
20
  0
POLYLINE
  8
20
  6
CONTINUOUS
 66
     1
 70
     0
 40
0.0
 41
0.0
  0
VERTEX
  8
20
 10
193.9275360107422
 20
-59.91721343994141
 42
-0.07142857142857143
  0
VERTEX
  8
20
 10
193.9275360107422
 20
-59.04221343994141
 42
-0.1388503272737641
  0
VERTEX
  8
20
 10
194.0525360107422
 20
-58.69846343994141
 42
-0.1560058593749999
  0
VERTEX
  8
20
 10
194.2400360107422
 20
-58.57346343994141
  0
SEQEND
  8
20
  0
POLYLINE
  8
20
  6
CONTINUOUS
 66
     1
 70
     0
 40
0.0
 41
0.0
  0
VERTEX
  8
20
 10
195.0525360107422
 20
-58.69846343994141
 42
0.1560058593749999
  0
VERTEX
  8
20
 10
194.8650360107422
 20
-58.57346343994141
  0
SEQEND
  8
20
  0
POLYLINE
  8
20
  6
CONTINUOUS
 66
     1
 70
     0
 40
0.0
 41
0.0
  0
VERTEX
  8
20
 10
195.1775360107422
 20
-59.04221343994141
 42
0.1388503272737641
  0
VERTEX
  8
20
 10
195.0525360107422
 20
-58.69846343994141
  0
SEQEND
  8
20
  0
POLYLINE
  8
20
  6
CONTINUOUS
 66
     1
 70
     0
 40
0.0
 41
0.0
  0
VERTEX
  8
20
 10
195.1775360107422
 20
-59.91721343994141
 42
0.07142857142857143
  0
VERTEX
  8
20
 10
195.1775360107422
 20
-59.04221343994141
  0
SEQEND
  8
20
  0
POLYLINE
  8
20
  6
CONTINUOUS
 66
     1
 70
     0
 40
0.0
 41
0.0
  0
VERTEX
  8
20
 10
194.2400360107422
 20
-58.57346343994141
 42
-0.09999999999999999
  0
VERTEX
  8
20
 10
194.8650360107422
 20
-58.57346343994141
  0
SEQEND
  8
20
  0
POLYLINE
  8
20
  6
CONTINUOUS
 66
     1
 70
     0
 40
0.0
 41
0.0
  0
VERTEX
  8
20
 10
193.9275360107422
 20
-59.91721343994141
 42
0.1388503272737641
  0
VERTEX
  8
20
 10
194.0525360107422
 20
-60.26096343994141
 42
0.1560058593749999
  0
VERTEX
  8
20
 10
194.2400360107422
 20
-60.38596343994141
 42
0.09999999999999999
  0
VERTEX
  8
20
 10
194.8650360107422
 20
-60.38596343994141
  0
SEQEND
  8
20
  0
POLYLINE
  8
20
  6
CONTINUOUS
 66
     1
 70
     0
 40
0.0
 41
0.0
  0
VERTEX
  8
20
 10
195.0525360107422
 20
-60.26096343994141
 42
-0.1560058593749999
  0
VERTEX
  8
20
 10
194.8650360107422
 20
-60.38596343994141
  0
SEQEND
  8
20
  0
POLYLINE
  8
20
  6
CONTINUOUS
 66
     1
 70
     0
 40
0.0
 41
0.0
  0
VERTEX
  8
20
 10
195.1775360107422
 20
-59.91721343994141
 42
-0.1388503272737641
  0
VERTEX
  8
20
 10
195.0525360107422
 20
-60.26096343994141
  0
SEQEND
  8
20
  0
POLYLINE
  8
20
  6
CONTINUOUS
 66
     1
 70
     0
 40
0.0
 41
0.0
  0
VERTEX
  8
20
 10
196.3025360107422
 20
-60.41721343994141
  0
VERTEX
  8
20
 10
196.3025360107422
 20
-60.22971343994141
  0
VERTEX
  8
20
 10
196.5212860107422
 20
-60.22971343994141
  0
VERTEX
  8
20
 10
196.5212860107422
 20
-60.41721343994141
  0
VERTEX
  8
20
 10
196.3025360107422
 20
-60.41721343994141
  0
SEQEND
  8
20
  0
POLYLINE
  8
20
  6
CONTINUOUS
 66
     1
 70
     0
 40
0.0
 41
0.0
  0
VERTEX
  8
20
 10
197.9275360107422
 20
-60.47971343994141
  0
VERTEX
  8
20
 10
197.6775360107422
 20
-60.47971343994141
  0
VERTEX
  8
20
 10
197.6775360107422
 20
-60.22971343994141
  0
VERTEX
  8
20
 10
197.9275360107422
 20
-60.22971343994141
  0
VERTEX
  8
20
 10
197.9275360107422
 20
-60.72971343994141
  0
VERTEX
  8
20
 10
197.7400360107422
 20
-60.91721343994141
  0
SEQEND
  8
20
  0
POLYLINE
  8
20
  6
CONTINUOUS
 66
     1
 70
     0
 40
0.0
 41
0.0
  0
VERTEX
  8
20
 10
199.1150360107422
 20
-58.54221343994141
  0
VERTEX
  8
20
 10
199.1150360107422
 20
-60.41721343994141
  0
VERTEX
  8
20
 10
200.3337860107422
 20
-60.41721343994141
  0
SEQEND
  8
20
  0
POLYLINE
  8
20
  6
CONTINUOUS
 66
     1
 70
     0
 40
0.0
 41
0.0
  0
VERTEX
  8
20
 10
202.0525360107422
 20
-58.54221343994141
  0
VERTEX
  8
20
 10
202.0525360107422
 20
-60.41721343994141
  0
SEQEND
  8
20
  0
POLYLINE
  8
20
  6
CONTINUOUS
 66
     1
 70
     0
 40
0.0
 41
0.0
  0
VERTEX
  8
20
 10
201.3962860107422
 20
-58.54221343994141
  0
VERTEX
  8
20
 10
202.7087860107422
 20
-58.54221343994141
  0
SEQEND
  8
20
  0
POLYLINE
  8
20
  6
CONTINUOUS
 66
     1
 70
     0
 40
0.0
 41
0.0
  0
VERTEX
  8
20
 10
204.4275360107422
 20
-58.54221343994141
 42
-0.33184653620159
  0
VERTEX
  8
20
 10
204.9900360107422
 20
-58.88596343994141
 42
-0.09750197622199144
  0
VERTEX
  8
20
 10
205.0837860107422
 20
-59.47971343994141
  0
SEQEND
  8
20
  0
POLYLINE
  8
20
  6
CONTINUOUS
 66
     1
 70
     0
 40
0.0
 41
0.0
  0
VERTEX
  8
20
 10
204.4275360107422
 20
-60.41721343994141
 42
0.33184653620159
  0
VERTEX
  8
20
 10
204.9900360107422
 20
-60.07346343994141
 42
0.09750197622199144
  0
VERTEX
  8
20
 10
205.0837860107422
 20
-59.47971343994141
  0
SEQEND
  8
20
  0
POLYLINE
  8
20
  6
CONTINUOUS
 66
     1
 70
     0
 40
0.0
 41
0.0
  0
VERTEX
  8
20
 10
204.4275360107422
 20
-60.41721343994141
  0
VERTEX
  8
20
 10
203.8650360107422
 20
-60.41721343994141
  0
VERTEX
  8
20
 10
203.8650360107422
 20
-58.54221343994141
  0
VERTEX
  8
20
 10
204.4275360107422
 20
-58.54221343994141
  0
SEQEND
  8
20
  0
POLYLINE
  8
20
  6
CONTINUOUS
 66
     1
 70
     0
 40
0.0
 41
0.0
  0
VERTEX
  8
20
 10
206.1775360107422
 20
-60.41721343994141
  0
VERTEX
  8
20
 10
206.1775360107422
 20
-60.22971343994141
  0
VERTEX
  8
20
 10
206.3962860107422
 20
-60.22971343994141
  0
VERTEX
  8
20
 10
206.3962860107422
 20
-60.41721343994141
  0
VERTEX
  8
20
 10
206.1775360107422
 20
-60.41721343994141
  0
SEQEND
  8
20
  0
POLYLINE
  8
20
  6
CONTINUOUS
 66
     1
 70
     0
 40
0.0
 41
0.0
  0
VERTEX
  8
20
 10
190.2400360107422
 20
-63.47971343994141
  0
VERTEX
  8
20
 10
190.2400360107422
 20
-61.47971343994141
  0
VERTEX
  8
20
 10
190.7400360107422
 20
-62.79221343994141
  0
VERTEX
  8
20
 10
191.2400360107422
 20
-61.47971343994141
  0
VERTEX
  8
20
 10
191.2400360107422
 20
-63.47971343994141
  0
SEQEND
  8
20
  0
POLYLINE
  8
20
  6
CONTINUOUS
 66
     1
 70
     0
 40
0.0
 41
0.0
  0
VERTEX
  8
20
 10
191.6150360107422
 20
-63.47971343994141
  0
VERTEX
  8
20
 10
192.1150360107422
 20
-61.47971343994141
  0
VERTEX
  8
20
 10
192.6150360107422
 20
-63.47971343994141
  0
SEQEND
  8
20
  0
POLYLINE
  8
20
  6
CONTINUOUS
 66
     1
 70
     0
 40
0.0
 41
0.0
  0
VERTEX
  8
20
 10
192.4587860107422
 20
-62.85471343994141
  0
VERTEX
  8
20
 10
191.7712860107422
 20
-62.85471343994141
  0
SEQEND
  8
20
  0
POLYLINE
  8
20
  6
CONTINUOUS
 66
     1
 70
     0
 40
0.0
 41
0.0
  0
VERTEX
  8
20
 10
192.9900360107422
 20
-63.47971343994141
  0
VERTEX
  8
20
 10
193.5212860107422
 20
-63.47971343994141
 42
0.4666666666666667
  0
VERTEX
  8
20
 10
193.9900360107422
 20
-63.01096343994141
  0
VERTEX
  8
20
 10
193.9900360107422
 20
-61.94846343994141
 42
0.4666666666666667
  0
VERTEX
  8
20
 10
193.5212860107422
 20
-61.47971343994141
  0
VERTEX
  8
20
 10
192.9900360107422
 20
-61.47971343994141
  0
VERTEX
  8
20
 10
192.9900360107422
 20
-63.47971343994141
  0
SEQEND
  8
20
  0
POLYLINE
  8
20
  6
CONTINUOUS
 66
     1
 70
     0
 40
0.0
 41
0.0
  0
VERTEX
  8
20
 10
195.3650360107422
 20
-61.47971343994141
  0
VERTEX
  8
20
 10
194.3650360107422
 20
-61.47971343994141
  0
VERTEX
  8
20
 10
194.3650360107422
 20
-63.47971343994141
  0
VERTEX
  8
20
 10
195.3650360107422
 20
-63.47971343994141
  0
SEQEND
  8
20
  0
POLYLINE
  8
20
  6
CONTINUOUS
 66
     1
 70
     0
 40
0.0
 41
0.0
  0
VERTEX
  8
20
 10
194.3650360107422
 20
-62.47971343994141
  0
VERTEX
  8
20
 10
195.3650360107422
 20
-62.47971343994141
  0
SEQEND
  8
20
  0
POLYLINE
  8
20
  6
CONTINUOUS
 66
     1
 70
     0
 40
0.0
 41
0.0
  0
VERTEX
  8
20
 10
197.4275360107422
 20
-61.47971343994141
  0
VERTEX
  8
20
 10
197.8025360107422
 20
-61.47971343994141
  0
SEQEND
  8
20
  0
POLYLINE
  8
20
  6
CONTINUOUS
 66
     1
 70
     0
 40
0.0
 41
0.0
  0
VERTEX
  8
20
 10
197.4275360107422
 20
-63.47971343994141
  0
VERTEX
  8
20
 10
197.8025360107422
 20
-63.47971343994141
  0
SEQEND
  8
20
  0
POLYLINE
  8
20
  6
CONTINUOUS
 66
     1
 70
     0
 40
0.0
 41
0.0
  0
VERTEX
  8
20
 10
197.6150360107422
 20
-63.47971343994141
  0
VERTEX
  8
20
 10
197.6150360107422
 20
-61.47971343994141
  0
SEQEND
  8
20
  0
POLYLINE
  8
20
  6
CONTINUOUS
 66
     1
 70
     0
 40
0.0
 41
0.0
  0
VERTEX
  8
20
 10
198.4900360107422
 20
-63.47971343994141
  0
VERTEX
  8
20
 10
198.4900360107422
 20
-61.47971343994141
  0
VERTEX
  8
20
 10
199.4900360107422
 20
-63.47971343994141
  0
VERTEX
  8
20
 10
199.4900360107422
 20
-61.47971343994141
  0
SEQEND
  8
20
  0
POLYLINE
  8
20
  6
CONTINUOUS
 66
     1
 70
     0
 40
0.0
 41
0.0
  0
VERTEX
  8
20
 10
201.2400360107422
 20
-63.10471343994141
 42
0.7500000000000001
  0
VERTEX
  8
20
 10
202.2400360107422
 20
-63.10471343994141
  0
VERTEX
  8
20
 10
202.2400360107422
 20
-61.47971343994141
  0
VERTEX
  8
20
 10
201.8650360107422
 20
-61.47971343994141
  0
SEQEND
  8
20
  0
POLYLINE
  8
20
  6
CONTINUOUS
 66
     1
 70
     0
 40
0.0
 41
0.0
  0
VERTEX
  8
20
 10
202.6150360107422
 20
-63.47971343994141
  0
VERTEX
  8
20
 10
203.1150360107422
 20
-61.47971343994141
  0
VERTEX
  8
20
 10
203.6150360107422
 20
-63.47971343994141
  0
SEQEND
  8
20
  0
POLYLINE
  8
20
  6
CONTINUOUS
 66
     1
 70
     0
 40
0.0
 41
0.0
  0
VERTEX
  8
20
 10
203.4587860107422
 20
-62.85471343994141
  0
VERTEX
  8
20
 10
202.7712860107422
 20
-62.85471343994141
  0
SEQEND
  8
20
  0
POLYLINE
  8
20
  6
CONTINUOUS
 66
     1
 70
     0
 40
0.0
 41
0.0
  0
VERTEX
  8
20
 10
203.9900360107422
 20
-62.47971343994141
  0
VERTEX
  8
20
 10
204.4900360107422
 20
-62.47971343994141
 42
0.4142135623731064
  0
VERTEX
  8
20
 10
204.9900360107422
 20
-61.97971343994141
 42
0.4142135623731064
  0
VERTEX
  8
20
 10
204.4900360107422
 20
-61.47971343994141
  0
VERTEX
  8
20
 10
203.9900360107422
 20
-61.47971343994141
  0
VERTEX
  8
20
 10
203.9900360107422
 20
-63.47971343994141
  0
SEQEND
  8
20
  0
POLYLINE
  8
20
  6
CONTINUOUS
 66
     1
 70
     0
 40
0.0
 41
0.0
  0
VERTEX
  8
20
 10
205.3650360107422
 20
-63.47971343994141
  0
VERTEX
  8
20
 10
205.8650360107422
 20
-61.47971343994141
  0
VERTEX
  8
20
 10
206.3650360107422
 20
-63.47971343994141
  0
SEQEND
  8
20
  0
POLYLINE
  8
20
  6
CONTINUOUS
 66
     1
 70
     0
 40
0.0
 41
0.0
  0
VERTEX
  8
20
 10
206.2087860107422
 20
-62.85471343994141
  0
VERTEX
  8
20
 10
205.5212860107422
 20
-62.85471343994141
  0
SEQEND
  8
20
  0
POLYLINE
  8
20
  6
CONTINUOUS
 66
     1
 70
     0
 40
0.0
 41
0.0
  0
VERTEX
  8
20
 10
206.7400360107422
 20
-63.47971343994141
  0
VERTEX
  8
20
 10
206.7400360107422
 20
-61.47971343994141
  0
VERTEX
  8
20
 10
207.7400360107422
 20
-63.47971343994141
  0
VERTEX
  8
20
 10
207.7400360107422
 20
-61.47971343994141
  0
SEQEND
  8
20
  0
ARC
  8
18
  6
CONTINUOUS
 10
186.4900262145996
 20
74.02028656005859
 40
2.5
 50
90.0
 51
180.0
  0
LINE
  8
18
  6
CONTINUOUS
 10
186.4900262145996
 20
76.52028656005859
 11
191.4900262145996
 21
76.52028656005859
  0
ARC
  8
18
  6
CONTINUOUS
 10
191.4900262145996
 20
74.02028656005859
 40
2.5
 50
0.0
 51
90.0
  0
LINE
  8
18
  6
CONTINUOUS
 10
193.9900262145996
 20
59.02028656005859
 11
193.9900262145996
 21
74.02028656005859
  0
ARC
  8
18
  6
CONTINUOUS
 10
191.4900262145996
 20
59.02028656005859
 40
2.5
 50
270.0
 51
0.0
  0
LINE
  8
18
  6
CONTINUOUS
 10
186.4900262145996
 20
56.52028656005859
 11
191.4900262145996
 21
56.52028656005859
  0
LINE
  8
18
  6
CONTINUOUS
 10
183.9900262145996
 20
59.02028656005859
 11
183.9900262145996
 21
74.02028656005859
  0
ARC
  8
18
  6
CONTINUOUS
 10
186.4900262145996
 20
59.02028656005859
 40
2.5
 50
180.0
 51
270.0
  0
POLYLINE
  8
20
  6
CONTINUOUS
 66
     1
 70
     0
 40
0.0
 41
0.0
  0
VERTEX
  8
20
 10
186.3650207519531
 20
65.64528656005859
 42
0.360107421875
  0
VERTEX
  8
20
 10
185.9900207519531
 20
65.14528656005859
 42
0.4695056607034829
  0
VERTEX
  8
20
 10
186.4275207519531
 20
64.64528656005859
 42
0.4141989318642539
  0
VERTEX
  8
20
 10
186.9900207519531
 20
65.14528656005859
 42
-0.3750000000000001
  0
VERTEX
  8
20
 10
187.4900207519531
 20
65.64528656005859
 42
-0.4832066787534997
  0
VERTEX
  8
20
 10
187.9900207519531
 20
65.17653656005859
  0
SEQEND
  8
20
  0
POLYLINE
  8
20
  6
CONTINUOUS
 66
     1
 70
     0
 40
0.0
 41
0.0
  0
VERTEX
  8
20
 10
187.6150207519531
 20
64.64528656005859
 42
0.3333333333333335
  0
VERTEX
  8
20
 10
187.9900207519531
 20
65.20778656005859
  0
SEQEND
  8
20
  0
POLYLINE
  8
20
  6
CONTINUOUS
 66
     1
 70
     0
 40
0.0
 41
0.0
  0
VERTEX
  8
20
 10
187.9900207519531
 20
66.02028656005859
  0
VERTEX
  8
20
 10
185.9900207519531
 20
67.02028656005859
  0
SEQEND
  8
20
  0
POLYLINE
  8
20
  6
CONTINUOUS
 66
     1
 70
     0
 40
0.0
 41
0.0
  0
VERTEX
  8
20
 10
187.9900207519531
 20
67.39528656005859
  0
VERTEX
  8
20
 10
185.9900207519531
 20
67.39528656005859
  0
VERTEX
  8
20
 10
187.9900207519531
 20
68.39528656005859
  0
VERTEX
  8
20
 10
185.9900207519531
 20
68.39528656005859
  0
SEQEND
  8
20
  0
POLYLINE
  8
20
  6
CONTINUOUS
 66
     1
 70
     0
 40
0.0
 41
0.0
  0
VERTEX
  8
20
 10
190.7908782958984
 20
62.42566680908203
 42
0.875
  0
VERTEX
  8
20
 10
190.7908782958984
 20
61.42566680908203
  0
VERTEX
  8
20
 10
191.9783782958984
 20
61.42566680908203
 42
0.7500000000000001
  0
VERTEX
  8
20
 10
191.9783782958984
 20
62.42566680908203
  0
SEQEND
  8
20
  0
POLYLINE
  8
20
  6
CONTINUOUS
 66
     1
 70
     0
 40
0.0
 41
0.0
  0
VERTEX
  8
20
 10
190.7283782958984
 20
63.80066680908203
 42
0.360107421875
  0
VERTEX
  8
20
 10
190.3533782958984
 20
63.30066680908203
 42
0.4695056607034829
  0
VERTEX
  8
20
 10
190.7908782958984
 20
62.80066680908203
 42
0.4141989318642539
  0
VERTEX
  8
20
 10
191.3533782958984
 20
63.30066680908203
 42
-0.3750000000000001
  0
VERTEX
  8
20
 10
191.8533782958984
 20
63.80066680908203
 42
-0.4832066787534997
  0
VERTEX
  8
20
 10
192.3533782958984
 20
63.33191680908203
  0
SEQEND
  8
20
  0
POLYLINE
  8
20
  6
CONTINUOUS
 66
     1
 70
     0
 40
0.0
 41
0.0
  0
VERTEX
  8
20
 10
191.9783782958984
 20
62.80066680908203
 42
0.3333333333333335
  0
VERTEX
  8
20
 10
192.3533782958984
 20
63.36316680908203
  0
SEQEND
  8
20
  0
POLYLINE
  8
20
  6
CONTINUOUS
 66
     1
 70
     0
 40
0.0
 41
0.0
  0
VERTEX
  8
20
 10
192.3533782958984
 20
64.17566680908203
  0
VERTEX
  8
20
 10
190.3533782958984
 20
64.67566680908203
  0
VERTEX
  8
20
 10
192.3533782958984
 20
65.17566680908203
  0
SEQEND
  8
20
  0
POLYLINE
  8
20
  6
CONTINUOUS
 66
     1
 70
     0
 40
0.0
 41
0.0
  0
VERTEX
  8
20
 10
191.7283782958984
 20
65.01941680908203
  0
VERTEX
  8
20
 10
191.7283782958984
 20
64.33191680908203
  0
SEQEND
  8
20
  0
POLYLINE
  8
20
  6
CONTINUOUS
 66
     1
 70
     0
 40
0.0
 41
0.0
  0
VERTEX
  8
20
 10
191.3533782958984
 20
66.48816680908203
  0
VERTEX
  8
20
 10
191.3533782958984
 20
65.61316680908203
  0
SEQEND
  8
20
  0
POLYLINE
  8
20
  6
CONTINUOUS
 66
     1
 70
     0
 40
0.0
 41
0.0
  0
VERTEX
  8
20
 10
190.4158782958984
 20
67.86316680908203
  0
VERTEX
  8
20
 10
190.4158782958984
 20
67.05066680908203
  0
VERTEX
  8
20
 10
191.2908782958984
 20
66.92566680908203
  0
VERTEX
  8
20
 10
191.1658782958984
 20
67.23816680908203
  0
VERTEX
  8
20
 10
191.1658782958984
 20
67.61316680908203
  0
VERTEX
  8
20
 10
191.4158782958984
 20
67.92566680908203
  0
VERTEX
  8
20
 10
192.0408782958984
 20
67.92566680908203
  0
VERTEX
  8
20
 10
192.3533782958984
 20
67.61316680908203
  0
VERTEX
  8
20
 10
192.3533782958984
 20
67.23816680908203
  0
VERTEX
  8
20
 10
192.0408782958984
 20
66.92566680908203
  0
SEQEND
  8
20
  0
POLYLINE
  8
20
  6
CONTINUOUS
 66
     1
 70
     0
 40
0.0
 41
0.0
  0
VERTEX
  8
20
 10
190.7283782958984
 20
68.36316680908203
  0
VERTEX
  8
20
 10
191.9783782958984
 20
68.36316680908203
 42
0.9230769230769231
  0
VERTEX
  8
20
 10
191.9783782958984
 20
69.17566680908203
  0
VERTEX
  8
20
 10
190.7283782958984
 20
69.17566680908203
 42
0.9230769230769231
  0
VERTEX
  8
20
 10
190.7283782958984
 20
68.36316680908203
  0
SEQEND
  8
20
  0
POLYLINE
  8
20
  6
CONTINUOUS
 66
     1
 70
     0
 40
0.0
 41
0.0
  0
VERTEX
  8
20
 10
190.7283782958984
 20
69.67566680908203
  0
VERTEX
  8
20
 10
190.3533782958984
 20
69.98816680908203
  0
VERTEX
  8
20
 10
190.3533782958984
 20
70.36316680908203
  0
VERTEX
  8
20
 10
190.7283782958984
 20
70.67566680908203
  0
VERTEX
  8
20
 10
191.0408782958984
 20
70.67566680908203
  0
VERTEX
  8
20
 10
191.3533782958984
 20
70.30066680908203
  0
VERTEX
  8
20
 10
191.3533782958984
 20
69.92566680908203
  0
SEQEND
  8
20
  0
POLYLINE
  8
20
  6
CONTINUOUS
 66
     1
 70
     0
 40
0.0
 41
0.0
  0
VERTEX
  8
20
 10
191.3533782958984
 20
70.30066680908203
  0
VERTEX
  8
20
 10
191.7283782958984
 20
70.67566680908203
  0
VERTEX
  8
20
 10
192.0408782958984
 20
70.67566680908203
  0
VERTEX
  8
20
 10
192.3533782958984
 20
70.36316680908203
  0
VERTEX
  8
20
 10
192.3533782958984
 20
69.98816680908203
  0
VERTEX
  8
20
 10
192.0408782958984
 20
69.67566680908203
  0
SEQEND
  8
20
  0
POLYLINE
  8
20
  6
CONTINUOUS
 66
     1
 70
     0
 40
0.0
 41
0.0
  0
VERTEX
  8
20
 10
190.7908782958984
 20
72.05066680908203
 42
0.875
  0
VERTEX
  8
20
 10
190.7908782958984
 20
71.05066680908203
  0
VERTEX
  8
20
 10
191.9783782958984
 20
71.05066680908203
 42
0.7500000000000001
  0
VERTEX
  8
20
 10
191.9783782958984
 20
72.05066680908203
  0
SEQEND
  8
20
  0
LINE
  8
10
  6
CONTINUOUS
 10
198.4900262145996
 20
49.52028656005859
 11
198.4900262145996
 21
81.52028656005859
  0
LINE
  8
10
  6
CONTINUOUS
 10
210.4900262145996
 20
49.52028656005859
 11
210.4900262145996
 21
81.52028656005859
  0
LINE
  8
10
  6
CONTINUOUS
 10
198.4900262145996
 20
81.52028656005859
 11
210.4900262145996
 21
81.52028656005859
  0
LINE
  8
10
  6
CONTINUOUS
 10
198.4900262145996
 20
49.52028656005859
 11
210.4900262145996
 21
49.52028656005859
  0
LINE
  8
100
  6
CONTINUOUS
 10
200.4900262145996
 20
55.02028656005859
 11
210.4900262145996
 21
55.02028656005859
  0
LINE
  8
100
  6
CONTINUOUS
 10
200.4900262145996
 20
61.02028656005859
 11
210.4900262145996
 21
61.02028656005859
  0
LINE
  8
100
  6
CONTINUOUS
 10
200.4900262145996
 20
50.02028656005859
 11
210.4900262145996
 21
50.02028656005859
  0
LINE
  8
100
  6
CONTINUOUS
 10
200.4900262145996
 20
56.02028656005859
 11
210.4900262145996
 21
56.02028656005859
  0
LINE
  8
100
  6
CONTINUOUS
 10
200.4900262145996
 20
50.02028656005859
 11
200.4900262145996
 21
55.02028656005859
  0
LINE
  8
100
  6
CONTINUOUS
 10
200.4900262145996
 20
56.02028656005859
 11
200.4900262145996
 21
61.02028656005859
  0
LINE
  8
100
  6
CONTINUOUS
 10
201.4900262145996
 20
53.02851907353711
 11
201.4900262145996
 21
55.01205404658008
  0
LINE
  8
100
  6
CONTINUOUS
 10
201.4900262145996
 20
59.02851907353711
 11
201.4900262145996
 21
61.02028656005859
  0
CIRCLE
  8
100
  6
CONTINUOUS
 10
201.6180779724121
 20
60.02028656005859
 40
1.0
  0
CIRCLE
  8
100
  6
CONTINUOUS
 10
201.6180779724121
 20
54.02028656005859
 40
1.0
  0
LINE
  8
100
  6
CONTINUOUS
 10
210.4900262145996
 20
74.86028656005863
 11
210.4900262145996
 21
77.69028656005861
  0
LINE
  8
100
  6
CONTINUOUS
 10
210.4900262145996
 20
78.69028656005861
 11
210.4900262145996
 21
81.52028656005859
  0
LINE
  8
100
  6
CONTINUOUS
 10
205.2900262145996
 20
73.86028656005863
 11
209.5900262145996
 21
73.86028656005863
  0
LINE
  8
100
  6
CONTINUOUS
 10
205.2900262145996
 20
73.86028656005863
 11
205.2900262145996
 21
80.52028656005859
  0
LINE
  8
100
  6
CONTINUOUS
 10
205.2900262145996
 20
76.69028656005861
 11
206.8900262145996
 21
76.69028656005861
  0
LINE
  8
100
  6
CONTINUOUS
 10
208.6900262145996
 20
76.69028656005861
 11
210.4900262145996
 21
76.69028656005861
  0
LINE
  8
100
  6
CONTINUOUS
 10
205.2900262145996
 20
77.69028656005861
 11
206.8900262145996
 21
77.69028656005861
  0
LINE
  8
100
  6
CONTINUOUS
 10
208.6900262145996
 20
77.69028656005861
 11
210.4900262145996
 21
77.69028656005861
  0
LINE
  8
100
  6
CONTINUOUS
 10
205.2900262145996
 20
79.09028656005862
 11
206.8900262145996
 21
79.09028656005862
  0
LINE
  8
100
  6
CONTINUOUS
 10
208.6900262145996
 20
79.09028656005862
 11
210.4900262145996
 21
79.09028656005862
  0
LINE
  8
100
  6
CONTINUOUS
 10
205.2900262145996
 20
75.2902865600586
 11
206.8900262145996
 21
75.2902865600586
  0
LINE
  8
100
  6
CONTINUOUS
 10
208.6900262145996
 20
75.2902865600586
 11
210.4900262145996
 21
75.2902865600586
  0
LINE
  8
100
  6
CONTINUOUS
 10
208.6900262145996
 20
75.2902865600586
 11
208.6900262145996
 21
76.69028656005861
  0
LINE
  8
100
  6
CONTINUOUS
 10
208.6900262145996
 20
77.69028656005861
 11
208.6900262145996
 21
79.09028656005862
  0
LINE
  8
100
  6
CONTINUOUS
 10
206.8900262145996
 20
75.2902865600586
 11
206.8900262145996
 21
76.69028656005861
  0
LINE
  8
100
  6
CONTINUOUS
 10
206.8900262145996
 20
77.69028656005861
 11
206.8900262145996
 21
79.09028656005862
  0
LINE
  8
100
  6
CONTINUOUS
 10
208.6900262145996
 20
73.86028656005863
 11
208.6900262145996
 21
80.52028656005859
  0
LINE
  8
100
  6
CONTINUOUS
 10
206.0900262145996
 20
75.2902865600586
 11
206.0900262145996
 21
76.69028656005861
  0
LINE
  8
100
  6
CONTINUOUS
 10
206.0900262145996
 20
77.69028656005861
 11
206.0900262145996
 21
79.09028656005862
  0
LINE
  8
100
  6
CONTINUOUS
 10
205.2900262145996
 20
80.52028656005859
 11
209.5900262145996
 21
80.52028656005859
  0
LINE
  8
10
  6
CONTINUOUS
 10
209.5900262145996
 20
73.86028656005863
 11
209.5900262145996
 21
80.52028656005859
  0
LINE
  8
10
  6
CONTINUOUS
 10
199.4900262145996
 20
62.02028656005859
 11
210.4900262145996
 21
62.02028656005859
  0
LINE
  8
10
  6
CONTINUOUS
 10
199.4900262145996
 20
72.86028656005863
 11
210.4900262145996
 21
72.86028656005863
  0
LINE
  8
10
  6
CONTINUOUS
 10
199.4900262145996
 20
62.02028656005859
 11
199.4900262145996
 21
72.86028656005863
  0
CIRCLE
  8
10
  6
CONTINUOUS
 10
204.9900262145996
 20
67.44028656005861
 40
2.0
  0
POLYLINE
  8
20
  6
CONTINUOUS
 66
     1
 70
     0
 40
0.0
 41
0.0
  0
VERTEX
  8
20
 10
214.0830230712891
 20
77.65163421630859
 42
0.875
  0
VERTEX
  8
20
 10
212.8330230712891
 20
77.65163421630859
  0
VERTEX
  8
20
 10
212.8330230712891
 20
76.16725921630859
 42
0.75
  0
VERTEX
  8
20
 10
214.0830230712891
 20
76.16725921630859
  0
SEQEND
  8
20
  0
POLYLINE
  8
20
  6
CONTINUOUS
 66
     1
 70
     0
 40
0.0
 41
0.0
  0
VERTEX
  8
20
 10
214.0830230712891
 20
75.69850921630859
  0
VERTEX
  8
20
 10
214.0830230712891
 20
76.90944671630859
  0
VERTEX
  8
20
 10
213.4580230712891
 20
76.90944671630859
  0
SEQEND
  8
20
  0
POLYLINE
  8
20
  6
CONTINUOUS
 66
     1
 70
     0
 40
0.0
 41
0.0
  0
VERTEX
  8
20
 10
215.5673980712891
 20
78.19850921630859
  0
VERTEX
  8
20
 10
214.9423980712891
 20
75.69850921630859
  0
VERTEX
  8
20
 10
214.3173980712891
 20
78.19850921630859
  0
SEQEND
  8
20
  0
POLYLINE
  8
20
  6
CONTINUOUS
 66
     1
 70
     0
 40
0.0
 41
0.0
  0
VERTEX
  8
20
 10
213.5931549072266
 20
68.44944000244141
 42
0.875
  0
VERTEX
  8
20
 10
212.3431549072266
 20
68.44944000244141
  0
VERTEX
  8
20
 10
212.3431549072266
 20
66.96506500244141
 42
0.75
  0
VERTEX
  8
20
 10
213.5931549072266
 20
66.96506500244141
  0
SEQEND
  8
20
  0
POLYLINE
  8
20
  6
CONTINUOUS
 66
     1
 70
     0
 40
0.0
 41
0.0
  0
VERTEX
  8
20
 10
214.0619049072266
 20
66.49631500244141
  0
VERTEX
  8
20
 10
215.3119049072266
 20
68.99631500244141
  0
SEQEND
  8
20
  0
POLYLINE
  8
20
  6
CONTINUOUS
 66
     1
 70
     0
 40
0.0
 41
0.0
  0
VERTEX
  8
20
 10
217.0306549072266
 20
68.52756500244141
 42
0.3601165597681305
  0
VERTEX
  8
20
 10
216.4056549072266
 20
68.99631500244141
 42
0.4695312500000001
  0
VERTEX
  8
20
 10
215.7806549072266
 20
68.44944000244141
 42
0.4142032397891146
  0
VERTEX
  8
20
 10
216.4056549072266
 20
67.74631500244141
 42
-0.3750000000000001
  0
VERTEX
  8
20
 10
217.0306549072266
 20
67.12131500244141
 42
-0.4832215855195624
  0
VERTEX
  8
20
 10
216.4447174072266
 20
66.49631500244141
  0
SEQEND
  8
20
  0
POLYLINE
  8
20
  6
CONTINUOUS
 66
     1
 70
     0
 40
0.0
 41
0.0
  0
VERTEX
  8
20
 10
215.7806549072266
 20
66.96506500244141
 42
0.3333333333333333
  0
VERTEX
  8
20
 10
216.4837799072266
 20
66.49631500244141
  0
SEQEND
  8
20
  0
POLYLINE
  8
20
  6
CONTINUOUS
 66
     1
 70
     0
 40
0.0
 41
0.0
  0
VERTEX
  8
20
 10
212.5588226318359
 20
59.61827850341797
  0
VERTEX
  8
20
 10
213.0275726318359
 20
59.61827850341797
  0
SEQEND
  8
20
  0
POLYLINE
  8
20
  6
CONTINUOUS
 66
     1
 70
     0
 40
0.0
 41
0.0
  0
VERTEX
  8
20
 10
212.5588226318359
 20
57.11827850341797
  0
VERTEX
  8
20
 10
213.0275726318359
 20
57.11827850341797
  0
SEQEND
  8
20
  0
POLYLINE
  8
20
  6
CONTINUOUS
 66
     1
 70
     0
 40
0.0
 41
0.0
  0
VERTEX
  8
20
 10
212.7931976318359
 20
57.11827850341797
  0
VERTEX
  8
20
 10
212.7931976318359
 20
59.61827850341797
  0
SEQEND
  8
20
  0
POLYLINE
  8
20
  6
CONTINUOUS
 66
     1
 70
     0
 40
0.0
 41
0.0
  0
VERTEX
  8
20
 10
214.8244476318359
 20
58.36827850341797
  0
VERTEX
  8
20
 10
213.7306976318359
 20
58.36827850341797
  0
SEQEND
  8
20
  0
POLYLINE
  8
20
  6
CONTINUOUS
 66
     1
 70
     0
 40
0.0
 41
0.0
  0
VERTEX
  8
20
 10
215.1369476318359
 20
59.61827850341797
  0
VERTEX
  8
20
 10
216.3869476318359
 20
59.61827850341797
  0
VERTEX
  8
20
 10
215.1369476318359
 20
57.11827850341797
  0
VERTEX
  8
20
 10
216.3869476318359
 20
57.11827850341797
  0
SEQEND
  8
20
  0
POLYLINE
  8
20
  6
CONTINUOUS
 66
     1
 70
     0
 40
0.0
 41
0.0
  0
VERTEX
  8
20
 10
212.7337799072266
 20
53.56482696533203
  0
VERTEX
  8
20
 10
213.2025299072266
 20
53.56482696533203
  0
SEQEND
  8
20
  0
POLYLINE
  8
20
  6
CONTINUOUS
 66
     1
 70
     0
 40
0.0
 41
0.0
  0
VERTEX
  8
20
 10
212.7337799072266
 20
51.06482696533203
  0
VERTEX
  8
20
 10
213.2025299072266
 20
51.06482696533203
  0
SEQEND
  8
20
  0
POLYLINE
  8
20
  6
CONTINUOUS
 66
     1
 70
     0
 40
0.0
 41
0.0
  0
VERTEX
  8
20
 10
212.9681549072266
 20
51.06482696533203
  0
VERTEX
  8
20
 10
212.9681549072266
 20
53.56482696533203
  0
SEQEND
  8
20
  0
POLYLINE
  8
20
  6
CONTINUOUS
 66
     1
 70
     0
 40
0.0
 41
0.0
  0
VERTEX
  8
20
 10
214.9994049072266
 20
52.31482696533203
  0
VERTEX
  8
20
 10
213.9056549072266
 20
52.31482696533203
  0
SEQEND
  8
20
  0
POLYLINE
  8
20
  6
CONTINUOUS
 66
     1
 70
     0
 40
0.0
 41
0.0
  0
VERTEX
  8
20
 10
216.5619049072266
 20
53.09607696533203
 42
0.360136404651508
  0
VERTEX
  8
20
 10
215.9369049072266
 20
53.56482696533203
 42
0.4695231033284765
  0
VERTEX
  8
20
 10
215.3119049072266
 20
53.01795196533203
 42
0.4142032397891146
  0
VERTEX
  8
20
 10
215.9369049072266
 20
52.31482696533203
 42
-0.3750000000000001
  0
VERTEX
  8
20
 10
216.5619049072266
 20
51.68982696533203
 42
-0.4832215855195624
  0
VERTEX
  8
20
 10
215.9759674072266
 20
51.06482696533203
  0
SEQEND
  8
20
  0
POLYLINE
  8
20
  6
CONTINUOUS
 66
     1
 70
     0
 40
0.0
 41
0.0
  0
VERTEX
  8
20
 10
215.3119049072266
 20
51.53357696533203
 42
0.3333333333333333
  0
VERTEX
  8
20
 10
216.0150299072266
 20
51.06482696533203
  0
SEQEND
  8
20
  0
CIRCLE
  8
100
  6
CONTINUOUS
 10
199.4900262145996
 20
-69.47971343994141
 40
2.25
  0
CIRCLE
  8
100
  6
CONTINUOUS
 10
199.4900262145996
 20
96.52028656005859
 40
2.25
  0
CIRCLE
  8
100
  6
CONTINUOUS
 10
-115.9970722198486
 20
-69.47971343994141
 40
2.25
  0
CIRCLE
  8
100
  6
CONTINUOUS
 10
-115.9970722198486
 20
96.52028656005859
 40
2.25
  0
POLYLINE
  8
20
  6
CONTINUOUS
 66
     1
 70
     0
 40
0.0
 41
0.0
  0
VERTEX
  8
20
 10
214.4275207519531
 20
0.02028656005859375
  0
VERTEX
  8
20
 10
215.4275207519531
 20
2.020286560058594
  0
SEQEND
  8
20
  0
POLYLINE
  8
20
  6
CONTINUOUS
 66
     1
 70
     0
 40
0.0
 41
0.0
  0
VERTEX
  8
20
 10
215.6150207519531
 20
2.020286560058594
  0
VERTEX
  8
20
 10
216.6150207519531
 20
2.020286560058594
  0
VERTEX
  8
20
 10
215.6150207519531
 20
0.02028656005859375
  0
VERTEX
  8
20
 10
216.6150207519531
 20
0.02028656005859375
  0
SEQEND
  8
20
  0
POLYLINE
  8
20
  6
CONTINUOUS
 66
     1
 70
     0
 40
0.0
 41
0.0
  0
VERTEX
  8
20
 10
213.2400207519531
 20
-5.417213439941406
  0
VERTEX
  8
20
 10
213.2400207519531
 20
-6.604713439941406
 42
0.7500000000000001
  0
VERTEX
  8
20
 10
214.2400207519531
 20
-6.604713439941406
  0
VERTEX
  8
20
 10
214.2400207519531
 20
-5.417213439941406
 42
0.875
  0
VERTEX
  8
20
 10
213.2400207519531
 20
-5.417213439941406
  0
SEQEND
  8
20
  0
POLYLINE
  8
20
  6
CONTINUOUS
 66
     1
 70
     0
 40
0.0
 41
0.0
  0
VERTEX
  8
20
 10
215.4275207519531
 20
-4.979713439941406
  0
VERTEX
  8
20
 10
214.4275207519531
 20
-4.979713439941406
  0
VERTEX
  8
20
 10
214.4275207519531
 20
-6.979713439941406
  0
SEQEND
  8
20
  0
POLYLINE
  8
20
  6
CONTINUOUS
 66
     1
 70
     0
 40
0.0
 41
0.0
  0
VERTEX
  8
20
 10
214.4275207519531
 20
-5.979713439941406
  0
VERTEX
  8
20
 10
215.3025207519531
 20
-5.979713439941406
  0
SEQEND
  8
20
  0
POLYLINE
  8
20
  6
CONTINUOUS
 66
     1
 70
     0
 40
0.0
 41
0.0
  0
VERTEX
  8
20
 10
216.6150207519531
 20
-4.979713439941406
  0
VERTEX
  8
20
 10
215.6150207519531
 20
-4.979713439941406
  0
VERTEX
  8
20
 10
215.6150207519531
 20
-6.979713439941406
  0
SEQEND
  8
20
  0
POLYLINE
  8
20
  6
CONTINUOUS
 66
     1
 70
     0
 40
0.0
 41
0.0
  0
VERTEX
  8
20
 10
215.6150207519531
 20
-5.979713439941406
  0
VERTEX
  8
20
 10
216.4900207519531
 20
-5.979713439941406
  0
SEQEND
  8
20
  0
POLYLINE
  8
20
  6
CONTINUOUS
 66
     1
 70
     0
 40
0.0
 41
0.0
  0
VERTEX
  8
20
 10
214.2400207519531
 20
-13.41721343994141
 42
0.875
  0
VERTEX
  8
20
 10
213.2400207519531
 20
-13.41721343994141
  0
VERTEX
  8
20
 10
213.2400207519531
 20
-14.60471343994141
 42
0.7500000000000001
  0
VERTEX
  8
20
 10
214.2400207519531
 20
-14.60471343994141
  0
SEQEND
  8
20
  0
POLYLINE
  8
20
  6
CONTINUOUS
 66
     1
 70
     0
 40
0.0
 41
0.0
  0
VERTEX
  8
20
 10
214.4275207519531
 20
-13.41721343994141
  0
VERTEX
  8
20
 10
214.4275207519531
 20
-14.60471343994141
 42
0.7500000000000001
  0
VERTEX
  8
20
 10
215.4275207519531
 20
-14.60471343994141
  0
VERTEX
  8
20
 10
215.4275207519531
 20
-13.41721343994141
 42
0.875
  0
VERTEX
  8
20
 10
214.4275207519531
 20
-13.41721343994141
  0
SEQEND
  8
20
  0
POLYLINE
  8
20
  6
CONTINUOUS
 66
     1
 70
     0
 40
0.0
 41
0.0
  0
VERTEX
  8
20
 10
215.6150207519531
 20
-14.97971343994141
  0
VERTEX
  8
20
 10
215.6150207519531
 20
-12.97971343994141
  0
VERTEX
  8
20
 10
216.1150207519531
 20
-14.29221343994141
  0
VERTEX
  8
20
 10
216.6150207519531
 20
-12.97971343994141
  0
VERTEX
  8
20
 10
216.6150207519531
 20
-14.97971343994141
  0
SEQEND
  8
20
  0
POLYLINE
  8
20
  6
CONTINUOUS
 66
     1
 70
     0
 40
0.0
 41
0.0
  0
VERTEX
  8
20
 10
214.3075256347656
 20
-21.52971649169922
  0
VERTEX
  8
20
 10
213.4325256347656
 20
-21.52971649169922
  0
SEQEND
  8
20
  0
POLYLINE
  8
20
  6
CONTINUOUS
 66
     1
 70
     0
 40
0.0
 41
0.0
  0
VERTEX
  8
20
 10
213.8700256347656
 20
-21.96721649169922
  0
VERTEX
  8
20
 10
213.8700256347656
 20
-21.09221649169922
  0
SEQEND
  8
20
  0
POLYLINE
  8
20
  6
CONTINUOUS
 66
     1
 70
     0
 40
0.0
 41
0.0
  0
VERTEX
  8
20
 10
213.2400207519531
 20
-26.0797119140625
  0
VERTEX
  8
20
 10
213.8025207519531
 20
-26.0797119140625
 42
0.875
  0
VERTEX
  8
20
 10
213.8025207519531
 20
-25.0797119140625
 42
0.875
  0
VERTEX
  8
20
 10
213.8025207519531
 20
-24.0797119140625
  0
VERTEX
  8
20
 10
213.2400207519531
 20
-24.0797119140625
  0
VERTEX
  8
20
 10
213.2400207519531
 20
-26.0797119140625
  0
SEQEND
  8
20
  0
POLYLINE
  8
20
  6
CONTINUOUS
 66
     1
 70
     0
 40
0.0
 41
0.0
  0
VERTEX
  8
20
 10
213.2400207519531
 20
-25.0797119140625
  0
VERTEX
  8
20
 10
213.8025207519531
 20
-25.0797119140625
  0
SEQEND
  8
20
  0
POLYLINE
  8
20
  6
CONTINUOUS
 66
     1
 70
     0
 40
0.0
 41
0.0
  0
VERTEX
  8
20
 10
214.4275207519531
 20
-24.0797119140625
  0
VERTEX
  8
20
 10
214.4275207519531
 20
-25.7047119140625
 42
0.7500000000000001
  0
VERTEX
  8
20
 10
215.4275207519531
 20
-25.7047119140625
  0
VERTEX
  8
20
 10
215.4275207519531
 20
-24.0797119140625
  0
SEQEND
  8
20
  0
POLYLINE
  8
20
  6
CONTINUOUS
 66
     1
 70
     0
 40
0.0
 41
0.0
  0
VERTEX
  8
20
 10
216.6150207519531
 20
-24.4547119140625
 42
0.3601198250963753
  0
VERTEX
  8
20
 10
216.1150207519531
 20
-24.0797119140625
 42
0.4695158443286875
  0
VERTEX
  8
20
 10
215.6150207519531
 20
-24.5172119140625
 42
0.4142186781788212
  0
VERTEX
  8
20
 10
216.1150207519531
 20
-25.0797119140625
 42
-0.3750000000000001
  0
VERTEX
  8
20
 10
216.6150207519531
 20
-25.5797119140625
 42
-0.4832182164805917
  0
VERTEX
  8
20
 10
216.1462707519531
 20
-26.0797119140625
  0
SEQEND
  8
20
  0
POLYLINE
  8
20
  6
CONTINUOUS
 66
     1
 70
     0
 40
0.0
 41
0.0
  0
VERTEX
  8
20
 10
215.6150207519531
 20
-25.7047119140625
 42
0.3333333333333335
  0
VERTEX
  8
20
 10
216.1775207519531
 20
-26.0797119140625
  0
SEQEND
  8
20
  0
POLYLINE
  8
20
  6
CONTINUOUS
 66
     1
 70
     0
 40
0.0
 41
0.0
  0
VERTEX
  8
20
 10
216.8025207519531
 20
-24.0797119140625
  0
VERTEX
  8
20
 10
217.3025207519531
 20
-25.0797119140625
  0
VERTEX
  8
20
 10
217.3025207519531
 20
-26.0797119140625
  0
SEQEND
  8
20
  0
POLYLINE
  8
20
  6
CONTINUOUS
 66
     1
 70
     0
 40
0.0
 41
0.0
  0
VERTEX
  8
20
 10
217.3025207519531
 20
-25.0797119140625
  0
VERTEX
  8
20
 10
217.8025207519531
 20
-24.0797119140625
  0
SEQEND
  8
20
  0
POLYLINE
  8
20
  6
CONTINUOUS
 66
     1
 70
     0
 40
0.0
 41
0.0
  0
VERTEX
  8
20
 10
214.3075256347656
 20
-29.14971160888672
  0
VERTEX
  8
20
 10
213.4325256347656
 20
-29.14971160888672
  0
SEQEND
  8
20
  0
POLYLINE
  8
20
  6
CONTINUOUS
 66
     1
 70
     0
 40
0.0
 41
0.0
  0
VERTEX
  8
20
 10
214.2400207519531
 20
-36.65721130371094
 42
0.875
  0
VERTEX
  8
20
 10
213.2400207519531
 20
-36.65721130371094
  0
VERTEX
  8
20
 10
213.2400207519531
 20
-37.84471130371094
 42
0.7500000000000001
  0
VERTEX
  8
20
 10
214.2400207519531
 20
-37.84471130371094
  0
SEQEND
  8
20
  0
POLYLINE
  8
20
  6
CONTINUOUS
 66
     1
 70
     0
 40
0.0
 41
0.0
  0
VERTEX
  8
20
 10
214.4275207519531
 20
-36.65721130371094
  0
VERTEX
  8
20
 10
214.4275207519531
 20
-37.84471130371094
 42
0.7500000000000001
  0
VERTEX
  8
20
 10
215.4275207519531
 20
-37.84471130371094
  0
VERTEX
  8
20
 10
215.4275207519531
 20
-36.65721130371094
 42
0.875
  0
VERTEX
  8
20
 10
214.4275207519531
 20
-36.65721130371094
  0
SEQEND
  8
20
  0
POLYLINE
  8
20
  6
CONTINUOUS
 66
     1
 70
     0
 40
0.0
 41
0.0
  0
VERTEX
  8
20
 10
215.6150207519531
 20
-38.21971130371094
  0
VERTEX
  8
20
 10
215.6150207519531
 20
-36.21971130371094
  0
VERTEX
  8
20
 10
216.1150207519531
 20
-37.53221130371094
  0
VERTEX
  8
20
 10
216.6150207519531
 20
-36.21971130371094
  0
VERTEX
  8
20
 10
216.6150207519531
 20
-38.21971130371094
  0
SEQEND
  8
20
  0
POLYLINE
  8
20
  6
CONTINUOUS
 66
     1
 70
     0
 40
0.0
 41
0.0
  0
VERTEX
  8
20
 10
180.8680725097656
 20
-33.97971343994141
  0
VERTEX
  8
20
 10
181.3680725097656
 20
-31.97971343994141
  0
VERTEX
  8
20
 10
181.8680725097656
 20
-33.97971343994141
  0
SEQEND
  8
20
  0
POLYLINE
  8
20
  6
CONTINUOUS
 66
     1
 70
     0
 40
0.0
 41
0.0
  0
VERTEX
  8
20
 10
181.7118225097656
 20
-33.35471343994141
  0
VERTEX
  8
20
 10
181.0243225097656
 20
-33.35471343994141
  0
SEQEND
  8
20
  0
POLYLINE
  8
20
  6
CONTINUOUS
 66
     1
 70
     0
 40
0.0
 41
0.0
  0
VERTEX
  8
20
 10
183.0555725097656
 20
-32.41721343994141
 42
0.875
  0
VERTEX
  8
20
 10
182.0555725097656
 20
-32.41721343994141
  0
VERTEX
  8
20
 10
182.0555725097656
 20
-33.60471343994141
 42
0.7500000000000001
  0
VERTEX
  8
20
 10
183.0555725097656
 20
-33.60471343994141
  0
SEQEND
  8
20
  0
POLYLINE
  8
20
  6
CONTINUOUS
 66
     1
 70
     0
 40
0.0
 41
0.0
  0
VERTEX
  8
20
 10
179.3680725097656
 20
-30.47971343994141
  0
VERTEX
  8
20
 10
179.3680725097656
 20
-28.47971343994141
  0
VERTEX
  8
20
 10
179.0243225097656
 20
-29.07346343994141
  0
SEQEND
  8
20
  0
POLYLINE
  8
20
  6
CONTINUOUS
 66
     1
 70
     0
 40
0.0
 41
0.0
  0
VERTEX
  8
20
 10
180.1180725097656
 20
-28.85471343994141
  0
VERTEX
  8
20
 10
180.1180725097656
 20
-30.10471343994141
 42
0.9230769230769231
  0
VERTEX
  8
20
 10
180.9305725097656
 20
-30.10471343994141
  0
VERTEX
  8
20
 10
180.9305725097656
 20
-28.85471343994141
 42
0.9230769230769231
  0
VERTEX
  8
20
 10
180.1180725097656
 20
-28.85471343994141
  0
SEQEND
  8
20
  0
POLYLINE
  8
20
  6
CONTINUOUS
 66
     1
 70
     0
 40
0.0
 41
0.0
  0
VERTEX
  8
20
 10
181.3055725097656
 20
-28.85471343994141
  0
VERTEX
  8
20
 10
181.3055725097656
 20
-30.10471343994141
 42
0.9230769230769231
  0
VERTEX
  8
20
 10
182.1180725097656
 20
-30.10471343994141
  0
VERTEX
  8
20
 10
182.1180725097656
 20
-28.85471343994141
 42
0.9230769230769231
  0
VERTEX
  8
20
 10
181.3055725097656
 20
-28.85471343994141
  0
SEQEND
  8
20
  0
POLYLINE
  8
20
  6
CONTINUOUS
 66
     1
 70
     0
 40
0.0
 41
0.0
  0
VERTEX
  8
20
 10
183.4305725097656
 20
-28.47971343994141
  0
VERTEX
  8
20
 10
182.9305725097656
 20
-30.47971343994141
  0
VERTEX
  8
20
 10
182.4305725097656
 20
-28.47971343994141
  0
SEQEND
  8
20
  0
POLYLINE
  8
20
  6
CONTINUOUS
 66
     1
 70
     0
 40
0.0
 41
0.0
  0
VERTEX
  8
20
 10
180.8680725097656
 20
-26.97971343994141
  0
VERTEX
  8
20
 10
181.3680725097656
 20
-24.97971343994141
  0
VERTEX
  8
20
 10
181.8680725097656
 20
-26.97971343994141
  0
SEQEND
  8
20
  0
POLYLINE
  8
20
  6
CONTINUOUS
 66
     1
 70
     0
 40
0.0
 41
0.0
  0
VERTEX
  8
20
 10
181.7118225097656
 20
-26.35471343994141
  0
VERTEX
  8
20
 10
181.0243225097656
 20
-26.35471343994141
  0
SEQEND
  8
20
  0
POLYLINE
  8
20
  6
CONTINUOUS
 66
     1
 70
     0
 40
0.0
 41
0.0
  0
VERTEX
  8
20
 10
183.0555725097656
 20
-25.41721343994141
 42
0.875
  0
VERTEX
  8
20
 10
182.0555725097656
 20
-25.41721343994141
  0
VERTEX
  8
20
 10
182.0555725097656
 20
-26.60471343994141
 42
0.7500000000000001
  0
VERTEX
  8
20
 10
183.0555725097656
 20
-26.60471343994141
  0
SEQEND
  8
20
  0
POLYLINE
  8
20
  6
CONTINUOUS
 66
     1
 70
     0
 40
0.0
 41
0.0
  0
VERTEX
  8
20
 10
183.0435943603516
 20
-16.97971343994141
  0
VERTEX
  8
20
 10
182.0435943603516
 20
-16.97971343994141
  0
VERTEX
  8
20
 10
182.0435943603516
 20
-18.97971343994141
  0
VERTEX
  8
20
 10
183.0435943603516
 20
-18.97971343994141
  0
SEQEND
  8
20
  0
POLYLINE
  8
20
  6
CONTINUOUS
 66
     1
 70
     0
 40
0.0
 41
0.0
  0
VERTEX
  8
20
 10
182.0435943603516
 20
-17.97971343994141
  0
VERTEX
  8
20
 10
183.0435943603516
 20
-17.97971343994141
  0
SEQEND
  8
20
  0
POLYLINE
  8
20
  6
CONTINUOUS
 66
     1
 70
     0
 40
0.0
 41
0.0
  0
VERTEX
  8
20
 10
182.0435943603516
 20
-10.97971343994141
  0
VERTEX
  8
20
 10
182.6060943603516
 20
-10.97971343994141
 42
0.875
  0
VERTEX
  8
20
 10
182.6060943603516
 20
-9.979713439941406
 42
0.875
  0
VERTEX
  8
20
 10
182.6060943603516
 20
-8.979713439941406
  0
VERTEX
  8
20
 10
182.0435943603516
 20
-8.979713439941406
  0
VERTEX
  8
20
 10
182.0435943603516
 20
-10.97971343994141
  0
SEQEND
  8
20
  0
POLYLINE
  8
20
  6
CONTINUOUS
 66
     1
 70
     0
 40
0.0
 41
0.0
  0
VERTEX
  8
20
 10
182.0435943603516
 20
-9.979713439941406
  0
VERTEX
  8
20
 10
182.6060943603516
 20
-9.979713439941406
  0
SEQEND
  8
20
  0
POLYLINE
  8
20
  6
CONTINUOUS
 66
     1
 70
     0
 40
0.0
 41
0.0
  0
VERTEX
  8
20
 10
182.0435943603516
 20
-2.979713439941406
  0
VERTEX
  8
20
 10
182.5748443603516
 20
-2.979713439941406
 42
0.4666666666666667
  0
VERTEX
  8
20
 10
183.0435943603516
 20
-2.510963439941406
  0
VERTEX
  8
20
 10
183.0435943603516
 20
-1.448463439941406
 42
0.4666666666666667
  0
VERTEX
  8
20
 10
182.5748443603516
 20
-0.9797134399414063
  0
VERTEX
  8
20
 10
182.0435943603516
 20
-0.9797134399414063
  0
VERTEX
  8
20
 10
182.0435943603516
 20
-2.979713439941406
  0
SEQEND
  8
20
  0
POLYLINE
  8
20
  6
CONTINUOUS
 66
     1
 70
     0
 40
0.0
 41
0.0
  0
VERTEX
  8
20
 10
183.0435943603516
 20
5.582786560058594
 42
0.875
  0
VERTEX
  8
20
 10
182.0435943603516
 20
5.582786560058594
  0
VERTEX
  8
20
 10
182.0435943603516
 20
4.395286560058594
 42
0.7500000000000001
  0
VERTEX
  8
20
 10
183.0435943603516
 20
4.395286560058594
  0
SEQEND
  8
20
  0
POLYLINE
  8
20
  6
CONTINUOUS
 66
     1
 70
     0
 40
0.0
 41
0.0
  0
VERTEX
  8
20
 10
182.6716461181641
 20
13.58278656005859
 42
0.875
  0
VERTEX
  8
20
 10
181.6716461181641
 20
13.58278656005859
  0
VERTEX
  8
20
 10
181.6716461181641
 20
12.39528656005859
 42
0.7500000000000001
  0
VERTEX
  8
20
 10
182.6716461181641
 20
12.39528656005859
  0
SEQEND
  8
20
  0
POLYLINE
  8
20
  6
CONTINUOUS
 66
     1
 70
     0
 40
0.0
 41
0.0
  0
VERTEX
  8
20
 10
182.6716461181641
 20
12.02028656005859
  0
VERTEX
  8
20
 10
182.6716461181641
 20
12.98903656005859
  0
VERTEX
  8
20
 10
182.1716461181641
 20
12.98903656005859
  0
SEQEND
  8
20
  0
POLYLINE
  8
20
  6
CONTINUOUS
 66
     1
 70
     0
 40
0.0
 41
0.0
  0
VERTEX
  8
20
 10
182.6716461181641
 20
21.64028930664063
  0
VERTEX
  8
20
 10
181.6716461181641
 20
21.64028930664063
  0
VERTEX
  8
20
 10
181.6716461181641
 20
19.64028930664063
  0
SEQEND
  8
20
  0
POLYLINE
  8
20
  6
CONTINUOUS
 66
     1
 70
     0
 40
0.0
 41
0.0
  0
VERTEX
  8
20
 10
181.6716461181641
 20
20.64028930664063
  0
VERTEX
  8
20
 10
182.5466461181641
 20
20.64028930664063
  0
SEQEND
  8
20
  0
POLYLINE
  8
20
  6
CONTINUOUS
 66
     1
 70
     0
 40
0.0
 41
0.0
  0
VERTEX
  8
20
 10
181.6716461181641
 20
27.26029205322266
  0
VERTEX
  8
20
 10
182.1716461181641
 20
29.26029205322266
  0
VERTEX
  8
20
 10
182.6716461181641
 20
27.26029205322266
  0
SEQEND
  8
20
  0
POLYLINE
  8
20
  6
CONTINUOUS
 66
     1
 70
     0
 40
0.0
 41
0.0
  0
VERTEX
  8
20
 10
182.5153961181641
 20
27.88529205322266
  0
VERTEX
  8
20
 10
181.8278961181641
 20
27.88529205322266
  0
SEQEND
  8
20
  0
ARC
  8
20
  6
CONTINUOUS
 10
216.1150207519531
 20
12.54112243652344
 40
0.5208333134651184
 50
196.2604732819112
 51
343.7395267180888
  0
LINE
  8
20
  6
CONTINUOUS
 10
216.6150207519531
 20
12.39528656005859
 11
216.6150207519531
 21
13.58278656005859
  0
ARC
  8
20
  6
CONTINUOUS
 10
216.1150207519531
 20
13.51582336425781
 40
0.5044642686843872
 50
7.628026974405724
 51
172.3719730255943
  0
LINE
  8
20
  6
CONTINUOUS
 10
215.6150207519531
 20
13.58278656005859
 11
215.6150207519531
 21
12.39528656005859
  0
POLYLINE
  8
20
  6
CONTINUOUS
 66
     1
 70
     0
 40
0.0
 41
0.0
  0
VERTEX
  8
20
 10
213.5525207519531
 20
14.02028656005859
  0
VERTEX
  8
20
 10
213.9275207519531
 20
14.02028656005859
  0
SEQEND
  8
20
  0
POLYLINE
  8
20
  6
CONTINUOUS
 66
     1
 70
     0
 40
0.0
 41
0.0
  0
VERTEX
  8
20
 10
213.5525207519531
 20
12.02028656005859
  0
VERTEX
  8
20
 10
213.9275207519531
 20
12.02028656005859
  0
SEQEND
  8
20
  0
POLYLINE
  8
20
  6
CONTINUOUS
 66
     1
 70
     0
 40
0.0
 41
0.0
  0
VERTEX
  8
20
 10
213.7400207519531
 20
12.02028656005859
  0
VERTEX
  8
20
 10
213.7400207519531
 20
14.02028656005859
  0
SEQEND
  8
20
  0
POLYLINE
  8
20
  6
CONTINUOUS
 66
     1
 70
     0
 40
0.0
 41
0.0
  0
VERTEX
  8
20
 10
215.3650207519531
 20
13.02028656005859
  0
VERTEX
  8
20
 10
214.4900207519531
 20
13.02028656005859
  0
SEQEND
  8
20
  0
POLYLINE
  8
20
  6
CONTINUOUS
 66
     1
 70
     0
 40
0.0
 41
0.0
  0
VERTEX
  8
20
 10
215.6150207519531
 20
13.58278656005859
  0
VERTEX
  8
20
 10
215.6150207519531
 20
12.39528656005859
 42
0.7500000000000001
  0
VERTEX
  8
20
 10
216.6150207519531
 20
12.39528656005859
  0
VERTEX
  8
20
 10
216.6150207519531
 20
13.58278656005859
 42
0.875
  0
VERTEX
  8
20
 10
215.6150207519531
 20
13.58278656005859
  0
SEQEND
  8
20
  0
POLYLINE
  8
20
  6
CONTINUOUS
 66
     1
 70
     0
 40
0.0
 41
0.0
  0
VERTEX
  8
20
 10
216.8025207519531
 20
14.02028656005859
  0
VERTEX
  8
20
 10
216.8025207519531
 20
12.39528656005859
 42
0.7500000000000001
  0
VERTEX
  8
20
 10
217.8025207519531
 20
12.39528656005859
  0
VERTEX
  8
20
 10
217.8025207519531
 20
14.02028656005859
  0
SEQEND
  8
20
  0
POLYLINE
  8
20
  6
CONTINUOUS
 66
     1
 70
     0
 40
0.0
 41
0.0
  0
VERTEX
  8
20
 10
217.9900207519531
 20
14.02028656005859
  0
VERTEX
  8
20
 10
218.9900207519531
 20
14.02028656005859
  0
SEQEND
  8
20
  0
POLYLINE
  8
20
  6
CONTINUOUS
 66
     1
 70
     0
 40
0.0
 41
0.0
  0
VERTEX
  8
20
 10
218.4900207519531
 20
14.02028656005859
  0
VERTEX
  8
20
 10
218.4900207519531
 20
12.02028656005859
  0
SEQEND
  8
20
  0
ARC
  8
20
  6
CONTINUOUS
 10
217.3025207519531
 20
12.54112243652344
 40
0.5208333134651184
 50
196.2604732819112
 51
343.7395267180888
  0
LINE
  8
20
  6
CONTINUOUS
 10
216.8025207519531
 20
14.02028656005859
 11
216.8025207519531
 21
12.39528656005859
  0
LINE
  8
20
  6
CONTINUOUS
 10
217.9900207519531
 20
14.02028656005859
 11
218.9900207519531
 21
14.02028656005859
  0
LINE
  8
20
  6
CONTINUOUS
 10
218.4900207519531
 20
14.02028656005859
 11
218.4900207519531
 21
12.02028656005859
  0
LINE
  8
20
  6
CONTINUOUS
 10
217.8025207519531
 20
12.39528656005859
 11
217.8025207519531
 21
14.02028656005859
  0
LINE
  8
20
  6
CONTINUOUS
 10
213.5525207519531
 20
14.02028656005859
 11
213.9275207519531
 21
14.02028656005859
  0
LINE
  8
20
  6
CONTINUOUS
 10
213.5525207519531
 20
12.02028656005859
 11
213.9275207519531
 21
12.02028656005859
  0
LINE
  8
20
  6
CONTINUOUS
 10
213.7400207519531
 20
12.02028656005859
 11
213.7400207519531
 21
14.02028656005859
  0
LINE
  8
20
  6
CONTINUOUS
 10
215.3650207519531
 20
13.02028656005859
 11
214.4900207519531
 21
13.02028656005859
  0
LINE
  8
10
  6
CONTINUOUS
 10
183.9900262145996
 20
-45.47971343994141
 11
183.9900262145996
 21
40.52028656005859
  0
LINE
  8
10
  6
CONTINUOUS
 10
212.9900262145996
 20
-45.47971343994141
 11
212.9900262145996
 21
40.52028656005859
  0
LINE
  8
10
  6
CONTINUOUS
 10
183.9900262145996
 20
40.52028656005859
 11
212.9900262145996
 21
40.52028656005859
  0
LINE
  8
10
  6
CONTINUOUS
 10
183.9900262145996
 20
-45.47971343994141
 11
212.9900262145996
 21
-45.47971343994141
  0
LINE
  8
10
  6
CONTINUOUS
 10
211.9200262145996
 20
40.06528656005861
 11
185.0600262145996
 21
40.06528656005861
  0
LINE
  8
10
  6
CONTINUOUS
 10
211.9200262145996
 20
-45.02471343994142
 11
185.0600262145996
 21
-45.02471343994142
  0
LINE
  8
10
  6
CONTINUOUS
 10
185.0600262145996
 20
40.06528656005861
 11
185.0600262145996
 21
-45.02471343994142
  0
LINE
  8
10
  6
CONTINUOUS
 10
211.9200262145996
 20
40.06528656005861
 11
211.9200262145996
 21
-45.02471343994142
  0
CIRCLE
  8
10
  6
CONTINUOUS
 10
190.8700262145996
 20
35.62028656005859
 40
1.65
  0
CIRCLE
  8
10
  6
CONTINUOUS
 10
190.8700262145996
 20
-40.57971343994142
 40
1.65
  0
LINE
  8
10
  6
CONTINUOUS
 10
186.0600262145996
 20
40.06528656005861
 11
186.0600262145996
 21
-45.02471343994142
  0
LINE
  8
10
  6
CONTINUOUS
 10
195.6800262145996
 20
40.06528656005861
 11
195.6800262145996
 21
-45.02471343994142
  0
LINE
  8
10
  6
CONTINUOUS
 10
195.6800262145996
 20
0.6952865600586051
 11
186.0600262145996
 21
0.6952865600586051
  0
LINE
  8
10
  6
CONTINUOUS
 10
195.6800262145996
 20
-5.654713439941411
 11
186.0600262145996
 21
-5.654713439941411
  0
LINE
  8
10
  6
CONTINUOUS
 10
195.6800262145996
 20
8.31528656005861
 11
186.0600262145996
 21
8.31528656005861
  0
LINE
  8
10
  6
CONTINUOUS
 10
195.6800262145996
 20
15.93528656005861
 11
186.0600262145996
 21
15.93528656005861
  0
LINE
  8
10
  6
CONTINUOUS
 10
195.6800262145996
 20
23.55528656005862
 11
186.0600262145996
 21
23.55528656005862
  0
LINE
  8
10
  6
CONTINUOUS
 10
195.6800262145996
 20
31.17528656005862
 11
186.0600262145996
 21
31.17528656005862
  0
LINE
  8
10
  6
CONTINUOUS
 10
195.6800262145996
 20
-13.27471343994139
 11
186.0600262145996
 21
-13.27471343994139
  0
LINE
  8
10
  6
CONTINUOUS
 10
195.6800262145996
 20
-20.89471343994139
 11
186.0600262145996
 21
-20.89471343994139
  0
LINE
  8
10
  6
CONTINUOUS
 10
195.6800262145996
 20
-28.5147134399414
 11
186.0600262145996
 21
-28.5147134399414
  0
LINE
  8
10
  6
CONTINUOUS
 10
195.6800262145996
 20
-36.1347134399414
 11
186.0600262145996
 21
-36.1347134399414
  0
LINE
  8
10
  6
CONTINUOUS
 10
195.6800262145996
 20
-37.40471343994138
 11
186.0600262145996
 21
-37.40471343994138
  0
LINE
  8
10
  6
CONTINUOUS
 10
195.6800262145996
 20
-29.78471343994141
 11
186.0600262145996
 21
-29.78471343994141
  0
LINE
  8
10
  6
CONTINUOUS
 10
195.6800262145996
 20
-22.1647134399414
 11
186.0600262145996
 21
-22.1647134399414
  0
LINE
  8
10
  6
CONTINUOUS
 10
195.6800262145996
 20
-14.5447134399414
 11
186.0600262145996
 21
-14.5447134399414
  0
LINE
  8
10
  6
CONTINUOUS
 10
195.6800262145996
 20
-6.924713439941392
 11
186.0600262145996
 21
-6.924713439941392
  0
LINE
  8
10
  6
CONTINUOUS
 10
195.6800262145996
 20
1.965286560058587
 11
186.0600262145996
 21
1.965286560058587
  0
LINE
  8
10
  6
CONTINUOUS
 10
195.6800262145996
 20
9.585286560058592
 11
186.0600262145996
 21
9.585286560058592
  0
LINE
  8
10
  6
CONTINUOUS
 10
195.6800262145996
 20
17.2052865600586
 11
186.0600262145996
 21
17.2052865600586
  0
LINE
  8
10
  6
CONTINUOUS
 10
195.6800262145996
 20
24.8252865600586
 11
186.0600262145996
 21
24.8252865600586
  0
LINE
  8
10
  6
CONTINUOUS
 10
195.6800262145996
 20
32.44528656005861
 11
186.0600262145996
 21
32.44528656005861
  0
CIRCLE
  8
10
  6
CONTINUOUS
 10
190.8700262145996
 20
-32.95971343994139
 40
2.75
  0
ARC
  8
10
  6
CONTINUOUS
 10
190.8700262145996
 20
-32.95971343994139
 40
1.75
 50
45.00000000000066
 51
53.21321070173758
  0
ARC
  8
10
  6
CONTINUOUS
 10
190.8700262145996
 20
-32.95971343994139
 40
1.75
 50
126.7867892982624
 51
143.2132107017378
  0
ARC
  8
10
  6
CONTINUOUS
 10
190.8700262145996
 20
-32.95971343994139
 40
1.75
 50
216.7867892982622
 51
233.2132107017376
  0
ARC
  8
10
  6
CONTINUOUS
 10
190.8700262145996
 20
-32.95971343994139
 40
1.75
 50
306.7867892982624
 51
323.2132107017378
  0
ARC
  8
10
  6
CONTINUOUS
 10
190.8700262145996
 20
-32.95971343994139
 40
1.75
 50
36.78678929826224
 51
45.00000000000066
  0
LINE
  8
10
  6
CONTINUOUS
 10
189.4685046479114
 20
-34.00768161603633
 11
190.0922087552944
 21
-33.38397750865331
  0
LINE
  8
10
  6
CONTINUOUS
 10
191.2942902833115
 20
-32.18189598063619
 11
191.9179943906946
 21
-31.55819187325317
  0
LINE
  8
10
  6
CONTINUOUS
 10
189.8220580385046
 20
-34.36123500662961
 11
190.4457621458877
 21
-33.73753089924659
  0
LINE
  8
10
  6
CONTINUOUS
 10
191.6478436739048
 20
-32.53544937122947
 11
192.2715477812878
 21
-31.91174526384645
  0
LINE
  8
10
  6
CONTINUOUS
 10
192.2715477812878
 20
-34.00768161603633
 11
191.6478436739048
 21
-33.38397750865331
  0
LINE
  8
10
  6
CONTINUOUS
 10
190.4457621458877
 20
-32.18189598063619
 11
189.8220580385046
 21
-31.55819187325317
  0
LINE
  8
10
  6
CONTINUOUS
 10
191.9179943906946
 20
-34.36123500662961
 11
191.2942902833115
 21
-33.73753089924659
  0
LINE
  8
10
  6
CONTINUOUS
 10
190.0922087552944
 20
-32.53544937122947
 11
189.4685046479114
 21
-31.91174526384645
  0
ARC
  8
10
  6
CONTINUOUS
 10
190.8700262145996
 20
-31.75763191192424
 40
0.6
 50
225.0000000000019
 51
314.9999999999981
  0
ARC
  8
10
  6
CONTINUOUS
 10
189.6679446865825
 20
-32.95971343994139
 40
0.6
 50
315.0
 51
45.0
  0
ARC
  8
10
  6
CONTINUOUS
 10
190.8700262145996
 20
-34.16179496795854
 40
0.6
 50
45.00000000000192
 51
134.9999999999981
  0
ARC
  8
10
  6
CONTINUOUS
 10
192.0721077426167
 20
-32.95971343994139
 40
0.6
 50
135.0
 51
225.0
  0
CIRCLE
  8
10
  6
CONTINUOUS
 10
190.8700262145996
 20
-25.33971343994138
 40
2.75
  0
ARC
  8
10
  6
CONTINUOUS
 10
190.8700262145996
 20
-25.33971343994138
 40
1.75
 50
45.00000000000066
 51
53.21321070173758
  0
ARC
  8
10
  6
CONTINUOUS
 10
190.8700262145996
 20
-25.33971343994138
 40
1.75
 50
126.7867892982624
 51
143.2132107017378
  0
ARC
  8
10
  6
CONTINUOUS
 10
190.8700262145996
 20
-25.33971343994138
 40
1.75
 50
216.786789298263
 51
233.2132107017376
  0
ARC
  8
10
  6
CONTINUOUS
 10
190.8700262145996
 20
-25.33971343994138
 40
1.75
 50
306.7867892982624
 51
323.213210701737
  0
ARC
  8
10
  6
CONTINUOUS
 10
190.8700262145996
 20
-25.33971343994138
 40
1.75
 50
36.78678929826224
 51
45.00000000000066
  0
LINE
  8
10
  6
CONTINUOUS
 10
189.4685046479114
 20
-26.38768161603635
 11
190.0922087552944
 21
-25.76397750865333
  0
LINE
  8
10
  6
CONTINUOUS
 10
191.2942902833115
 20
-24.56189598063619
 11
191.9179943906946
 21
-23.93819187325317
  0
LINE
  8
10
  6
CONTINUOUS
 10
189.8220580385046
 20
-26.7412350066296
 11
190.4457621458877
 21
-26.11753089924661
  0
LINE
  8
10
  6
CONTINUOUS
 10
191.6478436739048
 20
-24.91544937122946
 11
192.2715477812878
 21
-24.29174526384644
  0
LINE
  8
10
  6
CONTINUOUS
 10
192.2715477812878
 20
-26.38768161603635
 11
191.6478436739048
 21
-25.76397750865333
  0
LINE
  8
10
  6
CONTINUOUS
 10
190.4457621458877
 20
-24.56189598063619
 11
189.8220580385046
 21
-23.93819187325317
  0
LINE
  8
10
  6
CONTINUOUS
 10
191.9179943906946
 20
-26.7412350066296
 11
191.2942902833115
 21
-26.11753089924661
  0
LINE
  8
10
  6
CONTINUOUS
 10
190.0922087552944
 20
-24.91544937122946
 11
189.4685046479114
 21
-24.29174526384644
  0
ARC
  8
10
  6
CONTINUOUS
 10
190.8700262145996
 20
-24.13763191192427
 40
0.6
 50
225.0
 51
315.0
  0
ARC
  8
10
  6
CONTINUOUS
 10
189.6679446865825
 20
-25.33971343994138
 40
0.6
 50
314.9999999999981
 51
45.0
  0
ARC
  8
10
  6
CONTINUOUS
 10
190.8700262145996
 20
-26.54179496795853
 40
0.6
 50
45.0
 51
135.0
  0
ARC
  8
10
  6
CONTINUOUS
 10
192.0721077426167
 20
-25.33971343994138
 40
0.6
 50
135.0
 51
225.0000000000019
  0
CIRCLE
  8
10
  6
CONTINUOUS
 10
190.8700262145996
 20
-17.71971343994141
 40
2.75
  0
ARC
  8
10
  6
CONTINUOUS
 10
190.8700262145996
 20
-17.71971343994141
 40
1.75
 50
45.00000000000066
 51
53.21321070173813
  0
ARC
  8
10
  6
CONTINUOUS
 10
190.8700262145996
 20
-17.71971343994141
 40
1.75
 50
126.7867892982619
 51
143.213210701737
  0
ARC
  8
10
  6
CONTINUOUS
 10
190.8700262145996
 20
-17.71971343994141
 40
1.75
 50
216.7867892982622
 51
233.2132107017376
  0
ARC
  8
10
  6
CONTINUOUS
 10
190.8700262145996
 20
-17.71971343994141
 40
1.75
 50
306.7867892982624
 51
323.2132107017378
  0
ARC
  8
10
  6
CONTINUOUS
 10
190.8700262145996
 20
-17.71971343994141
 40
1.75
 50
36.78678929826298
 51
45.00000000000066
  0
LINE
  8
10
  6
CONTINUOUS
 10
189.4685046479114
 20
-18.76768161603635
 11
190.0922087552944
 21
-18.14397750865333
  0
LINE
  8
10
  6
CONTINUOUS
 10
191.2942902833115
 20
-16.94189598063618
 11
191.9179943906946
 21
-16.31819187325316
  0
LINE
  8
10
  6
CONTINUOUS
 10
189.8220580385046
 20
-19.12123500662963
 11
190.4457621458877
 21
-18.49753089924661
  0
LINE
  8
10
  6
CONTINUOUS
 10
191.6478436739048
 20
-17.29544937122946
 11
192.2715477812878
 21
-16.67174526384644
  0
LINE
  8
10
  6
CONTINUOUS
 10
192.2715477812878
 20
-18.76768161603635
 11
191.6478436739048
 21
-18.14397750865333
  0
LINE
  8
10
  6
CONTINUOUS
 10
190.4457621458877
 20
-16.94189598063618
 11
189.8220580385046
 21
-16.31819187325316
  0
LINE
  8
10
  6
CONTINUOUS
 10
191.9179943906946
 20
-19.12123500662963
 11
191.2942902833115
 21
-18.49753089924661
  0
LINE
  8
10
  6
CONTINUOUS
 10
190.0922087552944
 20
-17.29544937122946
 11
189.4685046479114
 21
-16.67174526384644
  0
ARC
  8
10
  6
CONTINUOUS
 10
190.8700262145996
 20
-16.51763191192426
 40
0.6
 50
225.0
 51
315.0
  0
ARC
  8
10
  6
CONTINUOUS
 10
189.6679446865825
 20
-17.71971343994141
 40
0.6
 50
315.0
 51
45.00000000000192
  0
ARC
  8
10
  6
CONTINUOUS
 10
190.8700262145996
 20
-18.92179496795853
 40
0.6
 50
45.0
 51
135.0
  0
ARC
  8
10
  6
CONTINUOUS
 10
192.0721077426167
 20
-17.71971343994141
 40
0.6
 50
134.9999999999981
 51
225.0
  0
CIRCLE
  8
10
  6
CONTINUOUS
 10
190.8700262145996
 20
-10.0997134399414
 40
2.75
  0
ARC
  8
10
  6
CONTINUOUS
 10
190.8700262145996
 20
-10.0997134399414
 40
1.75
 50
45.00000000000066
 51
53.21321070173813
  0
ARC
  8
10
  6
CONTINUOUS
 10
190.8700262145996
 20
-10.0997134399414
 40
1.75
 50
126.7867892982619
 51
143.213210701737
  0
ARC
  8
10
  6
CONTINUOUS
 10
190.8700262145996
 20
-10.0997134399414
 40
1.75
 50
216.7867892982622
 51
233.2132107017376
  0
ARC
  8
10
  6
CONTINUOUS
 10
190.8700262145996
 20
-10.0997134399414
 40
1.75
 50
306.7867892982624
 51
323.2132107017378
  0
ARC
  8
10
  6
CONTINUOUS
 10
190.8700262145996
 20
-10.0997134399414
 40
1.75
 50
36.78678929826298
 51
45.00000000000066
  0
LINE
  8
10
  6
CONTINUOUS
 10
189.4685046479114
 20
-11.14768161603634
 11
190.0922087552944
 21
-10.52397750865332
  0
LINE
  8
10
  6
CONTINUOUS
 10
191.2942902833115
 20
-9.321895980636207
 11
191.9179943906946
 21
-8.698191873253158
  0
LINE
  8
10
  6
CONTINUOUS
 10
189.8220580385046
 20
-11.50123500662962
 11
190.4457621458877
 21
-10.8775308992466
  0
LINE
  8
10
  6
CONTINUOUS
 10
191.6478436739048
 20
-9.675449371229483
 11
192.2715477812878
 21
-9.051745263846435
  0
LINE
  8
10
  6
CONTINUOUS
 10
192.2715477812878
 20
-11.14768161603634
 11
191.6478436739048
 21
-10.52397750865332
  0
LINE
  8
10
  6
CONTINUOUS
 10
190.4457621458877
 20
-9.321895980636207
 11
189.8220580385046
 21
-8.698191873253158
  0
LINE
  8
10
  6
CONTINUOUS
 10
191.9179943906946
 20
-11.50123500662962
 11
191.2942902833115
 21
-10.8775308992466
  0
LINE
  8
10
  6
CONTINUOUS
 10
190.0922087552944
 20
-9.675449371229483
 11
189.4685046479114
 21
-9.051745263846435
  0
ARC
  8
10
  6
CONTINUOUS
 10
190.8700262145996
 20
-8.897631911924258
 40
0.6
 50
225.0000000000019
 51
314.9999999999981
  0
ARC
  8
10
  6
CONTINUOUS
 10
189.6679446865825
 20
-10.0997134399414
 40
0.6
 50
315.0
 51
45.0
  0
ARC
  8
10
  6
CONTINUOUS
 10
190.8700262145996
 20
-11.30179496795852
 40
0.6
 50
45.0
 51
135.0
  0
ARC
  8
10
  6
CONTINUOUS
 10
192.0721077426167
 20
-10.0997134399414
 40
0.6
 50
135.0
 51
225.0
  0
CIRCLE
  8
10
  6
CONTINUOUS
 10
190.8700262145996
 20
-2.479713439941399
 40
2.75
  0
ARC
  8
10
  6
CONTINUOUS
 10
190.8700262145996
 20
-2.479713439941399
 40
1.75
 50
45.00000000000066
 51
53.21321070173758
  0
ARC
  8
10
  6
CONTINUOUS
 10
190.8700262145996
 20
-2.479713439941399
 40
1.75
 50
126.7867892982624
 51
143.213210701737
  0
ARC
  8
10
  6
CONTINUOUS
 10
190.8700262145996
 20
-2.479713439941399
 40
1.75
 50
216.786789298263
 51
233.2132107017376
  0
ARC
  8
10
  6
CONTINUOUS
 10
190.8700262145996
 20
-2.479713439941399
 40
1.75
 50
306.7867892982624
 51
323.213210701737
  0
ARC
  8
10
  6
CONTINUOUS
 10
190.8700262145996
 20
-2.479713439941399
 40
1.75
 50
36.78678929826298
 51
45.00000000000066
  0
LINE
  8
10
  6
CONTINUOUS
 10
189.4685046479114
 20
-3.527681616036368
 11
190.0922087552944
 21
-2.90397750865332
  0
LINE
  8
10
  6
CONTINUOUS
 10
191.2942902833115
 20
-1.701895980636202
 11
191.9179943906946
 21
-1.078191873253182
  0
LINE
  8
10
  6
CONTINUOUS
 10
189.8220580385046
 20
-3.881235006629616
 11
190.4457621458877
 21
-3.257530899246596
  0
LINE
  8
10
  6
CONTINUOUS
 10
191.6478436739048
 20
-2.055449371229479
 11
192.2715477812878
 21
-1.43174526384643
  0
LINE
  8
10
  6
CONTINUOUS
 10
192.2715477812878
 20
-3.527681616036368
 11
191.6478436739048
 21
-2.90397750865332
  0
LINE
  8
10
  6
CONTINUOUS
 10
190.4457621458877
 20
-1.701895980636202
 11
189.8220580385046
 21
-1.078191873253182
  0
LINE
  8
10
  6
CONTINUOUS
 10
191.9179943906946
 20
-3.881235006629616
 11
191.2942902833115
 21
-3.257530899246596
  0
LINE
  8
10
  6
CONTINUOUS
 10
190.0922087552944
 20
-2.055449371229479
 11
189.4685046479114
 21
-1.43174526384643
  0
ARC
  8
10
  6
CONTINUOUS
 10
190.8700262145996
 20
-1.277631911924281
 40
0.6
 50
225.0
 51
315.0
  0
ARC
  8
10
  6
CONTINUOUS
 10
189.6679446865825
 20
-2.479713439941399
 40
0.6
 50
315.0
 51
45.0
  0
ARC
  8
10
  6
CONTINUOUS
 10
190.8700262145996
 20
-3.681794967958517
 40
0.6
 50
45.0
 51
135.0
  0
ARC
  8
10
  6
CONTINUOUS
 10
192.0721077426167
 20
-2.479713439941399
 40
0.6
 50
135.0
 51
225.0
  0
CIRCLE
  8
10
  6
CONTINUOUS
 10
190.8700262145996
 20
5.140286560058598
 40
2.75
  0
ARC
  8
10
  6
CONTINUOUS
 10
190.8700262145996
 20
5.140286560058598
 40
1.75
 50
45.00000000000066
 51
53.21321070173813
  0
ARC
  8
10
  6
CONTINUOUS
 10
190.8700262145996
 20
5.140286560058598
 40
1.75
 50
126.7867892982619
 51
143.213210701737
  0
ARC
  8
10
  6
CONTINUOUS
 10
190.8700262145996
 20
5.140286560058598
 40
1.75
 50
216.7867892982622
 51
233.2132107017382
  0
ARC
  8
10
  6
CONTINUOUS
 10
190.8700262145996
 20
5.140286560058598
 40
1.75
 50
306.7867892982619
 51
323.2132107017378
  0
ARC
  8
10
  6
CONTINUOUS
 10
190.8700262145996
 20
5.140286560058598
 40
1.75
 50
36.78678929826298
 51
45.00000000000066
  0
LINE
  8
10
  6
CONTINUOUS
 10
189.4685046479114
 20
4.092318383963658
 11
190.0922087552944
 21
4.716022491346678
  0
LINE
  8
10
  6
CONTINUOUS
 10
191.2942902833115
 20
5.918104019363796
 11
191.9179943906946
 21
6.541808126746844
  0
LINE
  8
10
  6
CONTINUOUS
 10
189.8220580385046
 20
3.738764993370353
 11
190.4457621458877
 21
4.362469100753401
  0
LINE
  8
10
  6
CONTINUOUS
 10
191.6478436739048
 20
5.564550628770547
 11
192.2715477812878
 21
6.188254736153567
  0
LINE
  8
10
  6
CONTINUOUS
 10
192.2715477812878
 20
4.092318383963658
 11
191.6478436739048
 21
4.716022491346678
  0
LINE
  8
10
  6
CONTINUOUS
 10
190.4457621458877
 20
5.918104019363796
 11
189.8220580385046
 21
6.541808126746844
  0
LINE
  8
10
  6
CONTINUOUS
 10
191.9179943906946
 20
3.738764993370353
 11
191.2942902833115
 21
4.362469100753401
  0
LINE
  8
10
  6
CONTINUOUS
 10
190.0922087552944
 20
5.564550628770547
 11
189.4685046479114
 21
6.188254736153567
  0
ARC
  8
10
  6
CONTINUOUS
 10
190.8700262145996
 20
6.342368088075745
 40
0.6
 50
225.0000000000019
 51
314.9999999999981
  0
ARC
  8
10
  6
CONTINUOUS
 10
189.6679446865825
 20
5.140286560058598
 40
0.6
 50
315.0
 51
45.00000000000192
  0
ARC
  8
10
  6
CONTINUOUS
 10
190.8700262145996
 20
3.938205032041481
 40
0.6
 50
45.0
 51
135.0
  0
ARC
  8
10
  6
CONTINUOUS
 10
192.0721077426167
 20
5.140286560058598
 40
0.6
 50
134.9999999999981
 51
225.0
  0
CIRCLE
  8
10
  6
CONTINUOUS
 10
190.8700262145996
 20
12.7602865600586
 40
2.75
  0
ARC
  8
10
  6
CONTINUOUS
 10
190.8700262145996
 20
12.7602865600586
 40
1.75
 50
45.00000000000066
 51
53.21321070173813
  0
ARC
  8
10
  6
CONTINUOUS
 10
190.8700262145996
 20
12.7602865600586
 40
1.75
 50
126.7867892982619
 51
143.213210701737
  0
ARC
  8
10
  6
CONTINUOUS
 10
190.8700262145996
 20
12.7602865600586
 40
1.75
 50
216.7867892982622
 51
233.2132107017376
  0
ARC
  8
10
  6
CONTINUOUS
 10
190.8700262145996
 20
12.7602865600586
 40
1.75
 50
306.7867892982624
 51
323.2132107017378
  0
ARC
  8
10
  6
CONTINUOUS
 10
190.8700262145996
 20
12.7602865600586
 40
1.75
 50
36.78678929826298
 51
45.00000000000066
  0
LINE
  8
10
  6
CONTINUOUS
 10
189.4685046479114
 20
11.71231838396366
 11
190.0922087552944
 21
12.33602249134668
  0
LINE
  8
10
  6
CONTINUOUS
 10
191.2942902833115
 20
13.5381040193638
 11
191.9179943906946
 21
14.16180812674685
  0
LINE
  8
10
  6
CONTINUOUS
 10
189.8220580385046
 20
11.35876499337039
 11
190.4457621458877
 21
11.98246910075341
  0
LINE
  8
10
  6
CONTINUOUS
 10
191.6478436739048
 20
13.18455062877055
 11
192.2715477812878
 21
13.80825473615357
  0
LINE
  8
10
  6
CONTINUOUS
 10
192.2715477812878
 20
11.71231838396366
 11
191.6478436739048
 21
12.33602249134668
  0
LINE
  8
10
  6
CONTINUOUS
 10
190.4457621458877
 20
13.5381040193638
 11
189.8220580385046
 21
14.16180812674685
  0
LINE
  8
10
  6
CONTINUOUS
 10
191.9179943906946
 20
11.35876499337039
 11
191.2942902833115
 21
11.98246910075341
  0
LINE
  8
10
  6
CONTINUOUS
 10
190.0922087552944
 20
13.18455062877055
 11
189.4685046479114
 21
13.80825473615357
  0
ARC
  8
10
  6
CONTINUOUS
 10
190.8700262145996
 20
13.96236808807575
 40
0.6
 50
225.0000000000019
 51
314.9999999999981
  0
ARC
  8
10
  6
CONTINUOUS
 10
189.6679446865825
 20
12.7602865600586
 40
0.6
 50
315.0
 51
45.00000000000192
  0
ARC
  8
10
  6
CONTINUOUS
 10
190.8700262145996
 20
11.55820503204149
 40
0.6
 50
45.0
 51
135.0
  0
ARC
  8
10
  6
CONTINUOUS
 10
192.0721077426167
 20
12.7602865600586
 40
0.6
 50
134.9999999999981
 51
225.0
  0
CIRCLE
  8
10
  6
CONTINUOUS
 10
190.8700262145996
 20
20.38028656005861
 40
2.75
  0
ARC
  8
10
  6
CONTINUOUS
 10
190.8700262145996
 20
20.38028656005861
 40
1.75
 50
45.00000000000066
 51
53.21321070173813
  0
ARC
  8
10
  6
CONTINUOUS
 10
190.8700262145996
 20
20.38028656005861
 40
1.75
 50
126.7867892982619
 51
143.213210701737
  0
ARC
  8
10
  6
CONTINUOUS
 10
190.8700262145996
 20
20.38028656005861
 40
1.75
 50
216.7867892982622
 51
233.2132107017376
  0
ARC
  8
10
  6
CONTINUOUS
 10
190.8700262145996
 20
20.38028656005861
 40
1.75
 50
306.7867892982624
 51
323.2132107017378
  0
ARC
  8
10
  6
CONTINUOUS
 10
190.8700262145996
 20
20.38028656005861
 40
1.75
 50
36.78678929826298
 51
45.00000000000066
  0
LINE
  8
10
  6
CONTINUOUS
 10
189.4685046479114
 20
19.33231838396367
 11
190.0922087552944
 21
19.95602249134669
  0
LINE
  8
10
  6
CONTINUOUS
 10
191.2942902833115
 20
21.15810401936381
 11
191.9179943906946
 21
21.78180812674685
  0
LINE
  8
10
  6
CONTINUOUS
 10
189.8220580385046
 20
18.97876499337039
 11
190.4457621458877
 21
19.60246910075341
  0
LINE
  8
10
  6
CONTINUOUS
 10
191.6478436739048
 20
20.80455062877056
 11
192.2715477812878
 21
21.42825473615358
  0
LINE
  8
10
  6
CONTINUOUS
 10
192.2715477812878
 20
19.33231838396367
 11
191.6478436739048
 21
19.95602249134669
  0
LINE
  8
10
  6
CONTINUOUS
 10
190.4457621458877
 20
21.15810401936381
 11
189.8220580385046
 21
21.78180812674685
  0
LINE
  8
10
  6
CONTINUOUS
 10
191.9179943906946
 20
18.97876499337039
 11
191.2942902833115
 21
19.60246910075341
  0
LINE
  8
10
  6
CONTINUOUS
 10
190.0922087552944
 20
20.80455062877056
 11
189.4685046479114
 21
21.42825473615358
  0
ARC
  8
10
  6
CONTINUOUS
 10
190.8700262145996
 20
21.58236808807575
 40
0.6
 50
225.0000000000019
 51
314.9999999999981
  0
ARC
  8
10
  6
CONTINUOUS
 10
189.6679446865825
 20
20.38028656005861
 40
0.6
 50
315.0
 51
45.00000000000192
  0
ARC
  8
10
  6
CONTINUOUS
 10
190.8700262145996
 20
19.17820503204149
 40
0.6
 50
45.0
 51
135.0
  0
ARC
  8
10
  6
CONTINUOUS
 10
192.0721077426167
 20
20.38028656005861
 40
0.6
 50
134.9999999999981
 51
225.0
  0
CIRCLE
  8
10
  6
CONTINUOUS
 10
190.8700262145996
 20
28.00028656005861
 40
2.75
  0
ARC
  8
10
  6
CONTINUOUS
 10
190.8700262145996
 20
28.00028656005861
 40
1.75
 50
45.00000000000066
 51
53.21321070173813
  0
ARC
  8
10
  6
CONTINUOUS
 10
190.8700262145996
 20
28.00028656005861
 40
1.75
 50
126.7867892982619
 51
143.213210701737
  0
ARC
  8
10
  6
CONTINUOUS
 10
190.8700262145996
 20
28.00028656005861
 40
1.75
 50
216.7867892982622
 51
233.2132107017376
  0
ARC
  8
10
  6
CONTINUOUS
 10
190.8700262145996
 20
28.00028656005861
 40
1.75
 50
306.7867892982624
 51
323.2132107017378
  0
ARC
  8
10
  6
CONTINUOUS
 10
190.8700262145996
 20
28.00028656005861
 40
1.75
 50
36.78678929826298
 51
45.00000000000066
  0
LINE
  8
10
  6
CONTINUOUS
 10
189.4685046479114
 20
26.95231838396367
 11
190.0922087552944
 21
27.57602249134669
  0
LINE
  8
10
  6
CONTINUOUS
 10
191.2942902833115
 20
28.77810401936381
 11
191.9179943906946
 21
29.40180812674686
  0
LINE
  8
10
  6
CONTINUOUS
 10
189.8220580385046
 20
26.5987649933704
 11
190.4457621458877
 21
27.22246910075342
  0
LINE
  8
10
  6
CONTINUOUS
 10
191.6478436739048
 20
28.42455062877056
 11
192.2715477812878
 21
29.04825473615358
  0
LINE
  8
10
  6
CONTINUOUS
 10
192.2715477812878
 20
26.95231838396367
 11
191.6478436739048
 21
27.57602249134669
  0
LINE
  8
10
  6
CONTINUOUS
 10
190.4457621458877
 20
28.77810401936381
 11
189.8220580385046
 21
29.40180812674686
  0
LINE
  8
10
  6
CONTINUOUS
 10
191.9179943906946
 20
26.5987649933704
 11
191.2942902833115
 21
27.22246910075342
  0
LINE
  8
10
  6
CONTINUOUS
 10
190.0922087552944
 20
28.42455062877056
 11
189.4685046479114
 21
29.04825473615358
  0
ARC
  8
10
  6
CONTINUOUS
 10
190.8700262145996
 20
29.20236808807576
 40
0.6
 50
225.0000000000019
 51
314.9999999999981
  0
ARC
  8
10
  6
CONTINUOUS
 10
189.6679446865825
 20
28.00028656005861
 40
0.6
 50
315.0
 51
45.00000000000192
  0
ARC
  8
10
  6
CONTINUOUS
 10
190.8700262145996
 20
26.79820503204149
 40
0.6
 50
45.0
 51
135.0
  0
ARC
  8
10
  6
CONTINUOUS
 10
192.0721077426167
 20
28.00028656005861
 40
0.6
 50
134.9999999999981
 51
225.0
  0
LINE
  8
10
  6
CONTINUOUS
 10
210.9200262145996
 20
-1.844713439941408
 11
200.3000262145996
 21
-1.844713439941408
  0
LINE
  8
10
  6
CONTINUOUS
 10
210.9200262145996
 20
-3.11471343994139
 11
200.3000262145996
 21
-3.11471343994139
  0
LINE
  8
10
  6
CONTINUOUS
 10
201.3000262145996
 20
40.06528656005861
 11
201.3000262145996
 21
36.25528656005861
  0
LINE
  8
10
  6
CONTINUOUS
 10
201.3000262145996
 20
34.9852865600586
 11
201.3000262145996
 21
28.6352865600586
  0
LINE
  8
10
  6
CONTINUOUS
 10
201.3000262145996
 20
27.36528656005859
 11
201.3000262145996
 21
21.0152865600586
  0
LINE
  8
10
  6
CONTINUOUS
 10
201.3000262145996
 20
19.74528656005862
 11
201.3000262145996
 21
13.39528656005859
  0
LINE
  8
10
  6
CONTINUOUS
 10
201.3000262145996
 20
12.12528656005861
 11
201.3000262145996
 21
5.775286560058589
  0
LINE
  8
10
  6
CONTINUOUS
 10
201.3000262145996
 20
4.505286560058607
 11
201.3000262145996
 21
-1.844713439941408
  0
LINE
  8
10
  6
CONTINUOUS
 10
201.3000262145996
 20
-3.11471343994139
 11
201.3000262145996
 21
-9.464713439941384
  0
LINE
  8
10
  6
CONTINUOUS
 10
201.3000262145996
 20
-10.7347134399414
 11
201.3000262145996
 21
-17.08471343994139
  0
LINE
  8
10
  6
CONTINUOUS
 10
201.3000262145996
 20
-18.3547134399414
 11
201.3000262145996
 21
-24.70471343994139
  0
LINE
  8
10
  6
CONTINUOUS
 10
201.3000262145996
 20
-25.9747134399414
 11
201.3000262145996
 21
-32.3247134399414
  0
LINE
  8
10
  6
CONTINUOUS
 10
201.3000262145996
 20
-33.59471343994141
 11
201.3000262145996
 21
-39.9447134399414
  0
LINE
  8
10
  6
CONTINUOUS
 10
201.3000262145996
 20
-41.21471343994141
 11
201.3000262145996
 21
-45.02471343994142
  0
LINE
  8
10
  6
CONTINUOUS
 10
210.9200262145996
 20
36.25528656005861
 11
210.9200262145996
 21
-41.21471343994141
  0
LINE
  8
10
  6
CONTINUOUS
 10
210.9200262145996
 20
-10.7347134399414
 11
200.3000262145996
 21
-10.7347134399414
  0
LINE
  8
10
  6
CONTINUOUS
 10
210.9200262145996
 20
-18.3547134399414
 11
200.3000262145996
 21
-18.3547134399414
  0
LINE
  8
10
  6
CONTINUOUS
 10
210.9200262145996
 20
-25.9747134399414
 11
200.3000262145996
 21
-25.9747134399414
  0
LINE
  8
10
  6
CONTINUOUS
 10
210.9200262145996
 20
-33.59471343994141
 11
200.3000262145996
 21
-33.59471343994141
  0
LINE
  8
10
  6
CONTINUOUS
 10
210.9200262145996
 20
-41.21471343994141
 11
200.3000262145996
 21
-41.21471343994141
  0
LINE
  8
10
  6
CONTINUOUS
 10
210.9200262145996
 20
5.775286560058589
 11
200.3000262145996
 21
5.775286560058589
  0
LINE
  8
10
  6
CONTINUOUS
 10
210.9200262145996
 20
13.39528656005859
 11
200.3000262145996
 21
13.39528656005859
  0
LINE
  8
10
  6
CONTINUOUS
 10
210.9200262145996
 20
21.0152865600586
 11
200.3000262145996
 21
21.0152865600586
  0
LINE
  8
10
  6
CONTINUOUS
 10
210.9200262145996
 20
28.6352865600586
 11
200.3000262145996
 21
28.6352865600586
  0
LINE
  8
10
  6
CONTINUOUS
 10
210.9200262145996
 20
36.25528656005861
 11
200.3000262145996
 21
36.25528656005861
  0
LINE
  8
10
  6
CONTINUOUS
 10
210.9200262145996
 20
34.9852865600586
 11
200.3000262145996
 21
34.9852865600586
  0
LINE
  8
10
  6
CONTINUOUS
 10
210.9200262145996
 20
27.36528656005859
 11
200.3000262145996
 21
27.36528656005859
  0
LINE
  8
10
  6
CONTINUOUS
 10
210.9200262145996
 20
19.74528656005862
 11
200.3000262145996
 21
19.74528656005862
  0
LINE
  8
10
  6
CONTINUOUS
 10
210.9200262145996
 20
12.12528656005861
 11
200.3000262145996
 21
12.12528656005861
  0
LINE
  8
10
  6
CONTINUOUS
 10
210.9200262145996
 20
4.505286560058607
 11
200.3000262145996
 21
4.505286560058607
  0
LINE
  8
10
  6
CONTINUOUS
 10
210.9200262145996
 20
-9.464713439941384
 11
200.3000262145996
 21
-9.464713439941384
  0
LINE
  8
10
  6
CONTINUOUS
 10
210.9200262145996
 20
-17.08471343994139
 11
200.3000262145996
 21
-17.08471343994139
  0
LINE
  8
10
  6
CONTINUOUS
 10
210.9200262145996
 20
-24.70471343994139
 11
200.3000262145996
 21
-24.70471343994139
  0
LINE
  8
10
  6
CONTINUOUS
 10
210.9200262145996
 20
-32.3247134399414
 11
200.3000262145996
 21
-32.3247134399414
  0
LINE
  8
10
  6
CONTINUOUS
 10
210.9200262145996
 20
-39.9447134399414
 11
200.3000262145996
 21
-39.9447134399414
  0
LINE
  8
10
  6
CONTINUOUS
 10
200.3000262145996
 20
40.06528656005861
 11
200.3000262145996
 21
-45.02471343994142
  0
CIRCLE
  8
10
  6
CONTINUOUS
 10
206.1100262145996
 20
31.81028656005859
 40
2.75
  0
ARC
  8
10
  6
CONTINUOUS
 10
206.1100262145996
 20
31.81028656005859
 40
1.75
 50
45.00000000000066
 51
53.21321070173813
  0
ARC
  8
10
  6
CONTINUOUS
 10
206.1100262145996
 20
31.81028656005859
 40
1.75
 50
126.7867892982619
 51
143.213210701737
  0
ARC
  8
10
  6
CONTINUOUS
 10
206.1100262145996
 20
31.81028656005859
 40
1.75
 50
216.7867892982622
 51
233.2132107017376
  0
ARC
  8
10
  6
CONTINUOUS
 10
206.1100262145996
 20
31.81028656005859
 40
1.75
 50
306.7867892982624
 51
323.2132107017378
  0
ARC
  8
10
  6
CONTINUOUS
 10
206.1100262145996
 20
31.81028656005859
 40
1.75
 50
36.78678929826298
 51
45.00000000000066
  0
LINE
  8
10
  6
CONTINUOUS
 10
204.7085046479114
 20
30.76231838396365
 11
205.3322087552944
 21
31.38602249134667
  0
LINE
  8
10
  6
CONTINUOUS
 10
206.5342902833115
 20
32.58810401936378
 11
207.1579943906946
 21
33.21180812674683
  0
LINE
  8
10
  6
CONTINUOUS
 10
205.0620580385046
 20
30.40876499337037
 11
205.6857621458877
 21
31.03246910075339
  0
LINE
  8
10
  6
CONTINUOUS
 10
206.8878436739048
 20
32.23455062877054
 11
207.5115477812878
 21
32.85825473615356
  0
LINE
  8
10
  6
CONTINUOUS
 10
207.5115477812878
 20
30.76231838396365
 11
206.8878436739048
 21
31.38602249134667
  0
LINE
  8
10
  6
CONTINUOUS
 10
205.6857621458877
 20
32.58810401936378
 11
205.0620580385046
 21
33.21180812674683
  0
LINE
  8
10
  6
CONTINUOUS
 10
207.1579943906946
 20
30.40876499337037
 11
206.5342902833115
 21
31.03246910075339
  0
LINE
  8
10
  6
CONTINUOUS
 10
205.3322087552944
 20
32.23455062877054
 11
204.7085046479114
 21
32.85825473615356
  0
ARC
  8
10
  6
CONTINUOUS
 10
206.1100262145996
 20
33.01236808807573
 40
0.6
 50
225.0000000000019
 51
314.9999999999981
  0
ARC
  8
10
  6
CONTINUOUS
 10
204.9079446865825
 20
31.81028656005859
 40
0.6
 50
315.0
 51
45.00000000000192
  0
ARC
  8
10
  6
CONTINUOUS
 10
206.1100262145996
 20
30.60820503204147
 40
0.6
 50
45.0
 51
135.0
  0
ARC
  8
10
  6
CONTINUOUS
 10
207.3121077426167
 20
31.81028656005859
 40
0.6
 50
134.9999999999981
 51
225.0
  0
CIRCLE
  8
10
  6
CONTINUOUS
 10
206.1100262145996
 20
24.19028656005861
 40
2.75
  0
ARC
  8
10
  6
CONTINUOUS
 10
206.1100262145996
 20
24.19028656005861
 40
1.75
 50
45.0
 51
53.21321070173758
  0
ARC
  8
10
  6
CONTINUOUS
 10
206.1100262145996
 20
24.19028656005861
 40
1.75
 50
126.7867892982624
 51
143.2132107017378
  0
ARC
  8
10
  6
CONTINUOUS
 10
206.1100262145996
 20
24.19028656005861
 40
1.75
 50
216.786789298263
 51
233.2132107017382
  0
ARC
  8
10
  6
CONTINUOUS
 10
206.1100262145996
 20
24.19028656005861
 40
1.75
 50
306.7867892982619
 51
323.213210701737
  0
ARC
  8
10
  6
CONTINUOUS
 10
206.1100262145996
 20
24.19028656005861
 40
1.75
 50
36.78678929826224
 51
45.0
  0
LINE
  8
10
  6
CONTINUOUS
 10
204.7085046479114
 20
23.14231838396364
 11
205.3322087552944
 21
23.76602249134666
  0
LINE
  8
10
  6
CONTINUOUS
 10
206.5342902833115
 20
24.96810401936381
 11
207.1579943906946
 21
25.59180812674683
  0
LINE
  8
10
  6
CONTINUOUS
 10
205.0620580385046
 20
22.78876499337036
 11
205.6857621458877
 21
23.41246910075341
  0
LINE
  8
10
  6
CONTINUOUS
 10
206.8878436739048
 20
24.61455062877053
 11
207.5115477812878
 21
25.23825473615355
  0
LINE
  8
10
  6
CONTINUOUS
 10
207.5115477812878
 20
23.14231838396364
 11
206.8878436739048
 21
23.76602249134666
  0
LINE
  8
10
  6
CONTINUOUS
 10
205.6857621458877
 20
24.96810401936381
 11
205.0620580385046
 21
25.59180812674683
  0
LINE
  8
10
  6
CONTINUOUS
 10
207.1579943906946
 20
22.78876499337036
 11
206.5342902833115
 21
23.41246910075341
  0
LINE
  8
10
  6
CONTINUOUS
 10
205.3322087552944
 20
24.61455062877053
 11
204.7085046479114
 21
25.23825473615355
  0
ARC
  8
10
  6
CONTINUOUS
 10
206.1100262145996
 20
25.39236808807573
 40
0.6
 50
225.0
 51
315.0
  0
ARC
  8
10
  6
CONTINUOUS
 10
204.9079446865825
 20
24.19028656005861
 40
0.6
 50
314.9999999999981
 51
45.0
  0
ARC
  8
10
  6
CONTINUOUS
 10
206.1100262145996
 20
22.98820503204146
 40
0.6
 50
45.00000000000192
 51
134.9999999999981
  0
ARC
  8
10
  6
CONTINUOUS
 10
207.3121077426167
 20
24.19028656005861
 40
0.6
 50
135.0
 51
225.0000000000019
  0
CIRCLE
  8
10
  6
CONTINUOUS
 10
206.1100262145996
 20
16.57028656005861
 40
2.75
  0
ARC
  8
10
  6
CONTINUOUS
 10
206.1100262145996
 20
16.57028656005861
 40
1.75
 50
45.00000000000066
 51
53.21321070173813
  0
ARC
  8
10
  6
CONTINUOUS
 10
206.1100262145996
 20
16.57028656005861
 40
1.75
 50
126.7867892982619
 51
143.213210701737
  0
ARC
  8
10
  6
CONTINUOUS
 10
206.1100262145996
 20
16.57028656005861
 40
1.75
 50
216.7867892982622
 51
233.2132107017376
  0
ARC
  8
10
  6
CONTINUOUS
 10
206.1100262145996
 20
16.57028656005861
 40
1.75
 50
306.7867892982624
 51
323.2132107017378
  0
ARC
  8
10
  6
CONTINUOUS
 10
206.1100262145996
 20
16.57028656005861
 40
1.75
 50
36.78678929826298
 51
45.00000000000066
  0
LINE
  8
10
  6
CONTINUOUS
 10
204.7085046479114
 20
15.52231838396367
 11
205.3322087552944
 21
16.14602249134669
  0
LINE
  8
10
  6
CONTINUOUS
 10
206.5342902833115
 20
17.3481040193638
 11
207.1579943906946
 21
17.97180812674685
  0
LINE
  8
10
  6
CONTINUOUS
 10
205.0620580385046
 20
15.16876499337039
 11
205.6857621458877
 21
15.79246910075341
  0
LINE
  8
10
  6
CONTINUOUS
 10
206.8878436739048
 20
16.99455062877055
 11
207.5115477812878
 21
17.61825473615357
  0
LINE
  8
10
  6
CONTINUOUS
 10
207.5115477812878
 20
15.52231838396367
 11
206.8878436739048
 21
16.14602249134669
  0
LINE
  8
10
  6
CONTINUOUS
 10
205.6857621458877
 20
17.3481040193638
 11
205.0620580385046
 21
17.97180812674685
  0
LINE
  8
10
  6
CONTINUOUS
 10
207.1579943906946
 20
15.16876499337039
 11
206.5342902833115
 21
15.79246910075341
  0
LINE
  8
10
  6
CONTINUOUS
 10
205.3322087552944
 20
16.99455062877055
 11
204.7085046479114
 21
17.61825473615357
  0
ARC
  8
10
  6
CONTINUOUS
 10
206.1100262145996
 20
17.77236808807575
 40
0.6
 50
225.0000000000019
 51
314.9999999999981
  0
ARC
  8
10
  6
CONTINUOUS
 10
204.9079446865825
 20
16.57028656005861
 40
0.6
 50
315.0
 51
45.00000000000192
  0
ARC
  8
10
  6
CONTINUOUS
 10
206.1100262145996
 20
15.36820503204149
 40
0.6
 50
45.0
 51
135.0
  0
ARC
  8
10
  6
CONTINUOUS
 10
207.3121077426167
 20
16.57028656005861
 40
0.6
 50
134.9999999999981
 51
225.0
  0
CIRCLE
  8
10
  6
CONTINUOUS
 10
206.1100262145996
 20
8.950286560058601
 40
2.75
  0
ARC
  8
10
  6
CONTINUOUS
 10
206.1100262145996
 20
8.950286560058601
 40
1.75
 50
45.00000000000066
 51
53.21321070173813
  0
ARC
  8
10
  6
CONTINUOUS
 10
206.1100262145996
 20
8.950286560058601
 40
1.75
 50
126.7867892982619
 51
143.213210701737
  0
ARC
  8
10
  6
CONTINUOUS
 10
206.1100262145996
 20
8.950286560058601
 40
1.75
 50
216.7867892982622
 51
233.2132107017376
  0
ARC
  8
10
  6
CONTINUOUS
 10
206.1100262145996
 20
8.950286560058601
 40
1.75
 50
306.7867892982624
 51
323.2132107017378
  0
ARC
  8
10
  6
CONTINUOUS
 10
206.1100262145996
 20
8.950286560058601
 40
1.75
 50
36.78678929826298
 51
45.00000000000066
  0
LINE
  8
10
  6
CONTINUOUS
 10
204.7085046479114
 20
7.90231838396366
 11
205.3322087552944
 21
8.52602249134668
  0
LINE
  8
10
  6
CONTINUOUS
 10
206.5342902833115
 20
9.728104019363798
 11
207.1579943906946
 21
10.35180812674685
  0
LINE
  8
10
  6
CONTINUOUS
 10
205.0620580385046
 20
7.548764993370384
 11
205.6857621458877
 21
8.172469100753403
  0
LINE
  8
10
  6
CONTINUOUS
 10
206.8878436739048
 20
9.37455062877055
 11
207.5115477812878
 21
9.998254736153569
  0
LINE
  8
10
  6
CONTINUOUS
 10
207.5115477812878
 20
7.90231838396366
 11
206.8878436739048
 21
8.52602249134668
  0
LINE
  8
10
  6
CONTINUOUS
 10
205.6857621458877
 20
9.728104019363798
 11
205.0620580385046
 21
10.35180812674685
  0
LINE
  8
10
  6
CONTINUOUS
 10
207.1579943906946
 20
7.548764993370384
 11
206.5342902833115
 21
8.172469100753403
  0
LINE
  8
10
  6
CONTINUOUS
 10
205.3322087552944
 20
9.37455062877055
 11
204.7085046479114
 21
9.998254736153569
  0
ARC
  8
10
  6
CONTINUOUS
 10
206.1100262145996
 20
10.15236808807575
 40
0.6
 50
225.0000000000019
 51
314.9999999999981
  0
ARC
  8
10
  6
CONTINUOUS
 10
204.9079446865825
 20
8.950286560058601
 40
0.6
 50
315.0
 51
45.00000000000192
  0
ARC
  8
10
  6
CONTINUOUS
 10
206.1100262145996
 20
7.748205032041483
 40
0.6
 50
45.0
 51
135.0
  0
ARC
  8
10
  6
CONTINUOUS
 10
207.3121077426167
 20
8.950286560058601
 40
0.6
 50
134.9999999999981
 51
225.0
  0
CIRCLE
  8
10
  6
CONTINUOUS
 10
206.1100262145996
 20
1.330286560058596
 40
2.75
  0
ARC
  8
10
  6
CONTINUOUS
 10
206.1100262145996
 20
1.330286560058596
 40
1.75
 50
45.0
 51
53.21321070173813
  0
ARC
  8
10
  6
CONTINUOUS
 10
206.1100262145996
 20
1.330286560058596
 40
1.75
 50
126.7867892982619
 51
143.213210701737
  0
ARC
  8
10
  6
CONTINUOUS
 10
206.1100262145996
 20
1.330286560058596
 40
1.75
 50
216.786789298263
 51
233.2132107017382
  0
ARC
  8
10
  6
CONTINUOUS
 10
206.1100262145996
 20
1.330286560058596
 40
1.75
 50
306.7867892982619
 51
323.213210701737
  0
ARC
  8
10
  6
CONTINUOUS
 10
206.1100262145996
 20
1.330286560058596
 40
1.75
 50
36.78678929826298
 51
45.0
  0
LINE
  8
10
  6
CONTINUOUS
 10
204.7085046479114
 20
0.2823183839636272
 11
205.3322087552944
 21
0.9060224913466755
  0
LINE
  8
10
  6
CONTINUOUS
 10
206.5342902833115
 20
2.108104019363793
 11
207.1579943906946
 21
2.731808126746842
  0
LINE
  8
10
  6
CONTINUOUS
 10
205.0620580385046
 20
-0.07123500662964943
 11
205.6857621458877
 21
0.5524691007533988
  0
LINE
  8
10
  6
CONTINUOUS
 10
206.8878436739048
 20
1.754550628770517
 11
207.5115477812878
 21
2.378254736153565
  0
LINE
  8
10
  6
CONTINUOUS
 10
207.5115477812878
 20
0.2823183839636272
 11
206.8878436739048
 21
0.9060224913466755
  0
LINE
  8
10
  6
CONTINUOUS
 10
205.6857621458877
 20
2.108104019363793
 11
205.0620580385046
 21
2.731808126746842
  0
LINE
  8
10
  6
CONTINUOUS
 10
207.1579943906946
 20
-0.07123500662964943
 11
206.5342902833115
 21
0.5524691007533988
  0
LINE
  8
10
  6
CONTINUOUS
 10
205.3322087552944
 20
1.754550628770517
 11
204.7085046479114
 21
2.378254736153565
  0
ARC
  8
10
  6
CONTINUOUS
 10
206.1100262145996
 20
2.532368088075714
 40
0.6
 50
225.0
 51
315.0
  0
ARC
  8
10
  6
CONTINUOUS
 10
204.9079446865825
 20
1.330286560058596
 40
0.6
 50
315.0
 51
45.0
  0
ARC
  8
10
  6
CONTINUOUS
 10
206.1100262145996
 20
0.1282050320414783
 40
0.6
 50
45.0
 51
135.0
  0
ARC
  8
10
  6
CONTINUOUS
 10
207.3121077426167
 20
1.330286560058596
 40
0.6
 50
135.0
 51
225.0
  0
CIRCLE
  8
10
  6
CONTINUOUS
 10
206.1100262145996
 20
-6.289713439941401
 40
2.75
  0
ARC
  8
10
  6
CONTINUOUS
 10
206.1100262145996
 20
-6.289713439941401
 40
1.75
 50
45.00000000000066
 51
53.21321070173813
  0
ARC
  8
10
  6
CONTINUOUS
 10
206.1100262145996
 20
-6.289713439941401
 40
1.75
 50
126.7867892982619
 51
143.213210701737
  0
ARC
  8
10
  6
CONTINUOUS
 10
206.1100262145996
 20
-6.289713439941401
 40
1.75
 50
216.7867892982622
 51
233.2132107017376
  0
ARC
  8
10
  6
CONTINUOUS
 10
206.1100262145996
 20
-6.289713439941401
 40
1.75
 50
306.7867892982624
 51
323.2132107017378
  0
ARC
  8
10
  6
CONTINUOUS
 10
206.1100262145996
 20
-6.289713439941401
 40
1.75
 50
36.78678929826298
 51
45.00000000000066
  0
LINE
  8
10
  6
CONTINUOUS
 10
204.7085046479114
 20
-7.337681616036342
 11
205.3322087552944
 21
-6.713977508653322
  0
LINE
  8
10
  6
CONTINUOUS
 10
206.5342902833115
 20
-5.511895980636204
 11
207.1579943906946
 21
-4.888191873253156
  0
LINE
  8
10
  6
CONTINUOUS
 10
205.0620580385046
 20
-7.691235006629619
 11
205.6857621458877
 21
-7.067530899246599
  0
LINE
  8
10
  6
CONTINUOUS
 10
206.8878436739048
 20
-5.865449371229481
 11
207.5115477812878
 21
-5.241745263846433
  0
LINE
  8
10
  6
CONTINUOUS
 10
207.5115477812878
 20
-7.337681616036342
 11
206.8878436739048
 21
-6.713977508653322
  0
LINE
  8
10
  6
CONTINUOUS
 10
205.6857621458877
 20
-5.511895980636204
 11
205.0620580385046
 21
-4.888191873253156
  0
LINE
  8
10
  6
CONTINUOUS
 10
207.1579943906946
 20
-7.691235006629619
 11
206.5342902833115
 21
-7.067530899246599
  0
LINE
  8
10
  6
CONTINUOUS
 10
205.3322087552944
 20
-5.865449371229481
 11
204.7085046479114
 21
-5.241745263846433
  0
ARC
  8
10
  6
CONTINUOUS
 10
206.1100262145996
 20
-5.087631911924255
 40
0.6
 50
225.0000000000019
 51
314.9999999999981
  0
ARC
  8
10
  6
CONTINUOUS
 10
204.9079446865825
 20
-6.289713439941401
 40
0.6
 50
315.0
 51
45.0
  0
ARC
  8
10
  6
CONTINUOUS
 10
206.1100262145996
 20
-7.491794967958519
 40
0.6
 50
45.0
 51
135.0
  0
ARC
  8
10
  6
CONTINUOUS
 10
207.3121077426167
 20
-6.289713439941401
 40
0.6
 50
135.0
 51
225.0
  0
CIRCLE
  8
10
  6
CONTINUOUS
 10
206.1100262145996
 20
-13.90971343994141
 40
2.75
  0
ARC
  8
10
  6
CONTINUOUS
 10
206.1100262145996
 20
-13.90971343994141
 40
1.75
 50
45.00000000000066
 51
53.21321070173813
  0
ARC
  8
10
  6
CONTINUOUS
 10
206.1100262145996
 20
-13.90971343994141
 40
1.75
 50
126.7867892982619
 51
143.213210701737
  0
ARC
  8
10
  6
CONTINUOUS
 10
206.1100262145996
 20
-13.90971343994141
 40
1.75
 50
216.7867892982622
 51
233.2132107017376
  0
ARC
  8
10
  6
CONTINUOUS
 10
206.1100262145996
 20
-13.90971343994141
 40
1.75
 50
306.7867892982624
 51
323.2132107017378
  0
ARC
  8
10
  6
CONTINUOUS
 10
206.1100262145996
 20
-13.90971343994141
 40
1.75
 50
36.78678929826298
 51
45.00000000000066
  0
LINE
  8
10
  6
CONTINUOUS
 10
204.7085046479114
 20
-14.95768161603635
 11
205.3322087552944
 21
-14.33397750865333
  0
LINE
  8
10
  6
CONTINUOUS
 10
206.5342902833115
 20
-13.13189598063618
 11
207.1579943906946
 21
-12.50819187325316
  0
LINE
  8
10
  6
CONTINUOUS
 10
205.0620580385046
 20
-15.31123500662962
 11
205.6857621458877
 21
-14.6875308992466
  0
LINE
  8
10
  6
CONTINUOUS
 10
206.8878436739048
 20
-13.48544937122946
 11
207.5115477812878
 21
-12.86174526384644
  0
LINE
  8
10
  6
CONTINUOUS
 10
207.5115477812878
 20
-14.95768161603635
 11
206.8878436739048
 21
-14.33397750865333
  0
LINE
  8
10
  6
CONTINUOUS
 10
205.6857621458877
 20
-13.13189598063618
 11
205.0620580385046
 21
-12.50819187325316
  0
LINE
  8
10
  6
CONTINUOUS
 10
207.1579943906946
 20
-15.31123500662962
 11
206.5342902833115
 21
-14.6875308992466
  0
LINE
  8
10
  6
CONTINUOUS
 10
205.3322087552944
 20
-13.48544937122946
 11
204.7085046479114
 21
-12.86174526384644
  0
ARC
  8
10
  6
CONTINUOUS
 10
206.1100262145996
 20
-12.70763191192426
 40
0.6
 50
225.0
 51
315.0
  0
ARC
  8
10
  6
CONTINUOUS
 10
204.9079446865825
 20
-13.90971343994141
 40
0.6
 50
315.0
 51
45.00000000000192
  0
ARC
  8
10
  6
CONTINUOUS
 10
206.1100262145996
 20
-15.11179496795852
 40
0.6
 50
45.0
 51
135.0
  0
ARC
  8
10
  6
CONTINUOUS
 10
207.3121077426167
 20
-13.90971343994141
 40
0.6
 50
134.9999999999981
 51
225.0
  0
CIRCLE
  8
10
  6
CONTINUOUS
 10
206.1100262145996
 20
-21.52971343994141
 40
2.75
  0
ARC
  8
10
  6
CONTINUOUS
 10
206.1100262145996
 20
-21.52971343994141
 40
1.75
 50
45.00000000000066
 51
53.21321070173813
  0
ARC
  8
10
  6
CONTINUOUS
 10
206.1100262145996
 20
-21.52971343994141
 40
1.75
 50
126.7867892982619
 51
143.213210701737
  0
ARC
  8
10
  6
CONTINUOUS
 10
206.1100262145996
 20
-21.52971343994141
 40
1.75
 50
216.7867892982622
 51
233.2132107017376
  0
ARC
  8
10
  6
CONTINUOUS
 10
206.1100262145996
 20
-21.52971343994141
 40
1.75
 50
306.7867892982624
 51
323.2132107017378
  0
ARC
  8
10
  6
CONTINUOUS
 10
206.1100262145996
 20
-21.52971343994141
 40
1.75
 50
36.78678929826298
 51
45.00000000000066
  0
LINE
  8
10
  6
CONTINUOUS
 10
204.7085046479114
 20
-22.57768161603635
 11
205.3322087552944
 21
-21.95397750865333
  0
LINE
  8
10
  6
CONTINUOUS
 10
206.5342902833115
 20
-20.75189598063619
 11
207.1579943906946
 21
-20.12819187325317
  0
LINE
  8
10
  6
CONTINUOUS
 10
205.0620580385046
 20
-22.93123500662963
 11
205.6857621458877
 21
-22.30753089924661
  0
LINE
  8
10
  6
CONTINUOUS
 10
206.8878436739048
 20
-21.10544937122946
 11
207.5115477812878
 21
-20.48174526384644
  0
LINE
  8
10
  6
CONTINUOUS
 10
207.5115477812878
 20
-22.57768161603635
 11
206.8878436739048
 21
-21.95397750865333
  0
LINE
  8
10
  6
CONTINUOUS
 10
205.6857621458877
 20
-20.75189598063619
 11
205.0620580385046
 21
-20.12819187325317
  0
LINE
  8
10
  6
CONTINUOUS
 10
207.1579943906946
 20
-22.93123500662963
 11
206.5342902833115
 21
-22.30753089924661
  0
LINE
  8
10
  6
CONTINUOUS
 10
205.3322087552944
 20
-21.10544937122946
 11
204.7085046479114
 21
-20.48174526384644
  0
ARC
  8
10
  6
CONTINUOUS
 10
206.1100262145996
 20
-20.32763191192426
 40
0.6
 50
225.0
 51
315.0
  0
ARC
  8
10
  6
CONTINUOUS
 10
204.9079446865825
 20
-21.52971343994141
 40
0.6
 50
315.0
 51
45.00000000000192
  0
ARC
  8
10
  6
CONTINUOUS
 10
206.1100262145996
 20
-22.73179496795853
 40
0.6
 50
45.0
 51
135.0
  0
ARC
  8
10
  6
CONTINUOUS
 10
207.3121077426167
 20
-21.52971343994141
 40
0.6
 50
134.9999999999981
 51
225.0
  0
CIRCLE
  8
10
  6
CONTINUOUS
 10
206.1100262145996
 20
-29.14971343994142
 40
2.75
  0
ARC
  8
10
  6
CONTINUOUS
 10
206.1100262145996
 20
-29.14971343994142
 40
1.75
 50
45.00000000000066
 51
53.21321070173813
  0
ARC
  8
10
  6
CONTINUOUS
 10
206.1100262145996
 20
-29.14971343994142
 40
1.75
 50
126.7867892982619
 51
143.213210701737
  0
ARC
  8
10
  6
CONTINUOUS
 10
206.1100262145996
 20
-29.14971343994142
 40
1.75
 50
216.7867892982622
 51
233.2132107017376
  0
ARC
  8
10
  6
CONTINUOUS
 10
206.1100262145996
 20
-29.14971343994142
 40
1.75
 50
306.7867892982624
 51
323.2132107017378
  0
ARC
  8
10
  6
CONTINUOUS
 10
206.1100262145996
 20
-29.14971343994142
 40
1.75
 50
36.78678929826298
 51
45.00000000000066
  0
LINE
  8
10
  6
CONTINUOUS
 10
204.7085046479114
 20
-30.19768161603636
 11
205.3322087552944
 21
-29.57397750865334
  0
LINE
  8
10
  6
CONTINUOUS
 10
206.5342902833115
 20
-28.37189598063619
 11
207.1579943906946
 21
-27.74819187325317
  0
LINE
  8
10
  6
CONTINUOUS
 10
205.0620580385046
 20
-30.55123500662963
 11
205.6857621458877
 21
-29.92753089924661
  0
LINE
  8
10
  6
CONTINUOUS
 10
206.8878436739048
 20
-28.72544937122947
 11
207.5115477812878
 21
-28.10174526384645
  0
LINE
  8
10
  6
CONTINUOUS
 10
207.5115477812878
 20
-30.19768161603636
 11
206.8878436739048
 21
-29.57397750865334
  0
LINE
  8
10
  6
CONTINUOUS
 10
205.6857621458877
 20
-28.37189598063619
 11
205.0620580385046
 21
-27.74819187325317
  0
LINE
  8
10
  6
CONTINUOUS
 10
207.1579943906946
 20
-30.55123500662963
 11
206.5342902833115
 21
-29.92753089924661
  0
LINE
  8
10
  6
CONTINUOUS
 10
205.3322087552944
 20
-28.72544937122947
 11
204.7085046479114
 21
-28.10174526384645
  0
ARC
  8
10
  6
CONTINUOUS
 10
206.1100262145996
 20
-27.94763191192427
 40
0.6
 50
225.0
 51
315.0
  0
ARC
  8
10
  6
CONTINUOUS
 10
204.9079446865825
 20
-29.14971343994142
 40
0.6
 50
315.0
 51
45.00000000000192
  0
ARC
  8
10
  6
CONTINUOUS
 10
206.1100262145996
 20
-30.35179496795853
 40
0.6
 50
45.0
 51
135.0
  0
ARC
  8
10
  6
CONTINUOUS
 10
207.3121077426167
 20
-29.14971343994142
 40
0.6
 50
134.9999999999981
 51
225.0
  0
CIRCLE
  8
10
  6
CONTINUOUS
 10
206.1100262145996
 20
-36.76971343994139
 40
2.75
  0
ARC
  8
10
  6
CONTINUOUS
 10
206.1100262145996
 20
-36.76971343994139
 40
1.75
 50
45.0
 51
53.21321070173758
  0
ARC
  8
10
  6
CONTINUOUS
 10
206.1100262145996
 20
-36.76971343994139
 40
1.75
 50
126.7867892982624
 51
143.2132107017378
  0
ARC
  8
10
  6
CONTINUOUS
 10
206.1100262145996
 20
-36.76971343994139
 40
1.75
 50
216.786789298263
 51
233.2132107017376
  0
ARC
  8
10
  6
CONTINUOUS
 10
206.1100262145996
 20
-36.76971343994139
 40
1.75
 50
306.7867892982619
 51
323.213210701737
  0
ARC
  8
10
  6
CONTINUOUS
 10
206.1100262145996
 20
-36.76971343994139
 40
1.75
 50
36.78678929826224
 51
45.0
  0
LINE
  8
10
  6
CONTINUOUS
 10
204.7085046479114
 20
-37.81768161603636
 11
205.3322087552944
 21
-37.19397750865334
  0
LINE
  8
10
  6
CONTINUOUS
 10
206.5342902833115
 20
-35.99189598063619
 11
207.1579943906946
 21
-35.36819187325317
  0
LINE
  8
10
  6
CONTINUOUS
 10
205.0620580385046
 20
-38.17123500662961
 11
205.6857621458877
 21
-37.54753089924659
  0
LINE
  8
10
  6
CONTINUOUS
 10
206.8878436739048
 20
-36.34544937122947
 11
207.5115477812878
 21
-35.72174526384645
  0
LINE
  8
10
  6
CONTINUOUS
 10
207.5115477812878
 20
-37.81768161603636
 11
206.8878436739048
 21
-37.19397750865334
  0
LINE
  8
10
  6
CONTINUOUS
 10
205.6857621458877
 20
-35.99189598063619
 11
205.0620580385046
 21
-35.36819187325317
  0
LINE
  8
10
  6
CONTINUOUS
 10
207.1579943906946
 20
-38.17123500662961
 11
206.5342902833115
 21
-37.54753089924659
  0
LINE
  8
10
  6
CONTINUOUS
 10
205.3322087552944
 20
-36.34544937122947
 11
204.7085046479114
 21
-35.72174526384645
  0
ARC
  8
10
  6
CONTINUOUS
 10
206.1100262145996
 20
-35.56763191192427
 40
0.6
 50
225.0
 51
315.0
  0
ARC
  8
10
  6
CONTINUOUS
 10
204.9079446865825
 20
-36.76971343994139
 40
0.6
 50
314.9999999999981
 51
45.0
  0
ARC
  8
10
  6
CONTINUOUS
 10
206.1100262145996
 20
-37.97179496795854
 40
0.6
 50
45.00000000000192
 51
134.9999999999981
  0
ARC
  8
10
  6
CONTINUOUS
 10
207.3121077426167
 20
-36.76971343994139
 40
0.6
 50
135.0
 51
225.0000000000019
  0
LINE
  8
10
  6
CONTINUOUS
 10
195.6800262145996
 20
-43.75471343994141
 11
186.0600262145996
 21
-43.75471343994141
  0
LINE
  8
10
  6
CONTINUOUS
 10
195.6800262145996
 20
38.7952865600586
 11
186.0600262145996
 21
38.7952865600586
  0
POLYLINE
  8
10
  6
CONTINUOUS
 66
     1
 70
     0
 40
0.0
 41
0.0
  0
VERTEX
  8
10
 10
214.8700262145996
 20
31.81028547286988
  0
VERTEX
  8
10
 10
216.8700262145996
 20
31.81028547286988
  0
VERTEX
  8
10
 10
216.8700262145996
 20
29.27028551101685
  0
SEQEND
  8
10
  0
POLYLINE
  8
10
  6
CONTINUOUS
 66
     1
 70
     0
 40
0.0
 41
0.0
  0
VERTEX
  8
10
 10
214.8700262145996
 20
24.1902855873108
  0
VERTEX
  8
10
 10
216.8700262145996
 20
24.1902855873108
  0
VERTEX
  8
10
 10
216.8700262145996
 20
26.73028554916382
  0
SEQEND
  8
10
  0
POLYLINE
  8
10
  6
CONTINUOUS
 66
     1
 70
     0
 40
0.0
 41
0.0
  0
VERTEX
  8
10
 10
214.8700262145996
 20
16.57028570175172
  0
VERTEX
  8
10
 10
216.8700262145996
 20
16.57028570175172
  0
VERTEX
  8
10
 10
216.8700262145996
 20
14.03028573989869
  0
SEQEND
  8
10
  0
POLYLINE
  8
10
  6
CONTINUOUS
 66
     1
 70
     0
 40
0.0
 41
0.0
  0
VERTEX
  8
10
 10
216.8700262145996
 20
11.49028577804566
  0
VERTEX
  8
10
 10
216.8700262145996
 20
8.950285816192633
  0
VERTEX
  8
10
 10
214.8700262145996
 20
8.950285816192633
  0
SEQEND
  8
10
  0
POLYLINE
  8
10
  6
CONTINUOUS
 66
     1
 70
     0
 40
0.0
 41
0.0
  0
VERTEX
  8
10
 10
214.8700262145996
 20
-21.5297142982483
  0
VERTEX
  8
10
 10
216.8700262145996
 20
-21.5297142982483
  0
VERTEX
  8
10
 10
216.8700262145996
 20
-24.06971426010133
  0
SEQEND
  8
10
  0
POLYLINE
  8
10
  6
CONTINUOUS
 66
     1
 70
     0
 40
0.0
 41
0.0
  0
VERTEX
  8
10
 10
216.8700262145996
 20
-26.60971422195436
  0
VERTEX
  8
10
 10
216.8700262145996
 20
-29.14971418380738
  0
VERTEX
  8
10
 10
214.8700262145996
 20
-29.14971418380738
  0
SEQEND
  8
10
  0
POLYLINE
  8
20
  6
CONTINUOUS
 66
     1
 70
     0
 40
0.0
 41
0.0
  0
VERTEX
  8
20
 10
214.3075256347656
 20
31.81028747558594
  0
VERTEX
  8
20
 10
213.4325256347656
 20
31.81028747558594
  0
SEQEND
  8
20
  0
POLYLINE
  8
20
  6
CONTINUOUS
 66
     1
 70
     0
 40
0.0
 41
0.0
  0
VERTEX
  8
20
 10
213.8700256347656
 20
31.37278747558594
  0
VERTEX
  8
20
 10
213.8700256347656
 20
32.24778747558594
  0
SEQEND
  8
20
  0
POLYLINE
  8
20
  6
CONTINUOUS
 66
     1
 70
     0
 40
0.0
 41
0.0
  0
VERTEX
  8
20
 10
214.2400207519531
 20
29.02028656005859
  0
VERTEX
  8
20
 10
213.7400207519531
 20
27.02028656005859
  0
VERTEX
  8
20
 10
213.2400207519531
 20
29.02028656005859
  0
SEQEND
  8
20
  0
POLYLINE
  8
20
  6
CONTINUOUS
 66
     1
 70
     0
 40
0.0
 41
0.0
  0
VERTEX
  8
20
 10
215.3650207519531
 20
28.02028656005859
  0
VERTEX
  8
20
 10
214.4900207519531
 20
28.02028656005859
  0
SEQEND
  8
20
  0
POLYLINE
  8
20
  6
CONTINUOUS
 66
     1
 70
     0
 40
0.0
 41
0.0
  0
VERTEX
  8
20
 10
215.6150207519531
 20
28.58278656005859
  0
VERTEX
  8
20
 10
215.6150207519531
 20
27.39528656005859
 42
0.7500000000000001
  0
VERTEX
  8
20
 10
216.6150207519531
 20
27.39528656005859
  0
VERTEX
  8
20
 10
216.6150207519531
 20
28.58278656005859
 42
0.875
  0
VERTEX
  8
20
 10
215.6150207519531
 20
28.58278656005859
  0
SEQEND
  8
20
  0
POLYLINE
  8
20
  6
CONTINUOUS
 66
     1
 70
     0
 40
0.0
 41
0.0
  0
VERTEX
  8
20
 10
216.8025207519531
 20
29.02028656005859
  0
VERTEX
  8
20
 10
216.8025207519531
 20
27.39528656005859
 42
0.7500000000000001
  0
VERTEX
  8
20
 10
217.8025207519531
 20
27.39528656005859
  0
VERTEX
  8
20
 10
217.8025207519531
 20
29.02028656005859
  0
SEQEND
  8
20
  0
POLYLINE
  8
20
  6
CONTINUOUS
 66
     1
 70
     0
 40
0.0
 41
0.0
  0
VERTEX
  8
20
 10
217.9900207519531
 20
29.02028656005859
  0
VERTEX
  8
20
 10
218.9900207519531
 20
29.02028656005859
  0
SEQEND
  8
20
  0
POLYLINE
  8
20
  6
CONTINUOUS
 66
     1
 70
     0
 40
0.0
 41
0.0
  0
VERTEX
  8
20
 10
218.4900207519531
 20
29.02028656005859
  0
VERTEX
  8
20
 10
218.4900207519531
 20
27.02028656005859
  0
SEQEND
  8
20
  0
POLYLINE
  8
20
  6
CONTINUOUS
 66
     1
 70
     0
 40
0.0
 41
0.0
  0
VERTEX
  8
20
 10
214.3075256347656
 20
24.19028472900391
  0
VERTEX
  8
20
 10
213.4325256347656
 20
24.19028472900391
  0
SEQEND
  8
20
  0
POLYLINE
  8
20
  6
CONTINUOUS
 66
     1
 70
     0
 40
0.0
 41
0.0
  0
VERTEX
  8
20
 10
214.3075256347656
 20
16.57028198242188
  0
VERTEX
  8
20
 10
213.4325256347656
 20
16.57028198242188
  0
SEQEND
  8
20
  0
POLYLINE
  8
20
  6
CONTINUOUS
 66
     1
 70
     0
 40
0.0
 41
0.0
  0
VERTEX
  8
20
 10
213.8700256347656
 20
16.13278198242188
  0
VERTEX
  8
20
 10
213.8700256347656
 20
17.00778198242188
  0
SEQEND
  8
20
  0
POLYLINE
  8
20
  6
CONTINUOUS
 66
     1
 70
     0
 40
0.0
 41
0.0
  0
VERTEX
  8
20
 10
214.3075256347656
 20
8.950286865234375
  0
VERTEX
  8
20
 10
213.4325256347656
 20
8.950286865234375
  0
SEQEND
  8
20
  0
POLYLINE
  8
20
  6
CONTINUOUS
 66
     1
 70
     0
 40
0.0
 41
0.0
  0
VERTEX
  8
20
 10
213.2400207519531
 20
0.02028656005859375
  0
VERTEX
  8
20
 10
213.7400207519531
 20
2.020286560058594
  0
VERTEX
  8
20
 10
214.2400207519531
 20
0.02028656005859375
  0
SEQEND
  8
20
  0
POLYLINE
  8
20
  6
CONTINUOUS
 66
     1
 70
     0
 40
0.0
 41
0.0
  0
VERTEX
  8
20
 10
214.0837707519531
 20
0.6452865600585938
  0
VERTEX
  8
20
 10
213.3962707519531
 20
0.6452865600585938
  0
SEQEND
  8
20
  0
LINE
  8
100
  6
CONTINUOUS
 10
177.9900262145996
 20
-74.47971343994141
 11
177.9900262145996
 21
101.5202865600586
  0
LINE
  8
100
  6
CONTINUOUS
 10
219.9900262145996
 20
-74.47971343994141
 11
219.9900262145996
 21
101.5202865600586
  0
LINE
  8
15
  6
CONTINUOUS
 10
219.4900262145996
 20
-64.47971343994141
 11
219.4900262145996
 21
91.52028656005859
  0
LINE
  8
15
  6
CONTINUOUS
 10
178.4900262145996
 20
-64.47971343994141
 11
178.4900262145996
 21
91.52028656005859
  0
ENDSEC
  0
EOF
