  0
SECTION
  2
HEADER
  9
$ACADVER
  1
AC1006
  9
$INSBASE
 10
0.0
 20
0.0
 30
0.0
  9
$EXTMIN
 10
-73.49594116210938
 20
-103.0036087036133
  9
$EXTMAX
 10
235.2216033935547
 20
72.99639129638672
  9
$LIMMIN
 10
-73.49594116210938
 20
-103.0036087036133
  9
$LIMMAX
 10
235.2216033935547
 20
72.99639129638672
  9
$ORTHOMODE
 70
     0
  9
$REGENMODE
 70
     1
  9
$FILLMODE
 70
     1
  9
$QTEXTMODE
 70
     0
  9
$MIRRTEXT
 70
     1
  9
$DRAGMODE
 70
     2
  9
$LTSCALE
 40
1.0
  9
$OSMODE
 70
     0
  9
$ATTMODE
 70
     1
  9
$TEXTSIZE
 40
3.0
  9
$TRACEWID
 40
0.5
  9
$TEXTSTYLE
  7
STANDARD
  9
$CLAYER
  8
0
  9
$CELTYPE
  6
BYLAYER
  9
$CECOLOR
 62
   256
  9
$DIMSCALE
 40
1.0
  9
$DIMASZ
 40
3.0
  9
$DIMEXO
 40
1.0
  9
$DIMDLI
 40
5.0
  9
$DIMRND
 40
0.0
  9
$DIMDLE
 40
5.0
  9
$DIMEXE
 40
2.0
  9
$DIMTP
 40
0.0
  9
$DIMTM
 40
0.0
  9
$DIMTXT
 40
5.0
  9
$DIMCEN
 40
2.0
  9
$DIMTSZ
 40
0.0
  9
$DIMTOL
 70
     0
  9
$DIMLIM
 70
     0
  9
$DIMTIH
 70
     0
  9
$DIMTOH
 70
     0
  9
$DIMSE1
 70
     0
  9
$DIMSE2
 70
     0
  9
$DIMTAD
 70
     1
  9
$DIMZIN
 70
     8
  9
$DIMBLK
  1

  9
$DIMASO
 70
     1
  9
$DIMSHO
 70
     0
  9
$DIMPOST
  1

  9
$DIMAPOST
  1

  9
$DIMALT
 70
     0
  9
$DIMALTD
 70
     4
  9
$DIMALTF
 40
25.4
  9
$DIMLFAC
 40
1.0
  9
$DIMTOFL
 70
     1
  9
$DIMTVP
 40
1.0
  9
$DIMTIX
 70
     0
  9
$DIMSOXD
 70
     0
  9
$DIMSAH
 70
     0
  9
$DIMBLK1
  1

  9
$DIMBLK2
  1

  9
$LUNITS
 70
     2
  9
$LUPREC
 70
     4
  9
$AXISMODE
 70
     0
  9
$AXISUNIT
 10
0.0
 20
0.0
  9
$SKETCHINC
 40
1.0
  9
$FILLETRAD
 40
0.0
  9
$AUNITS
 70
     0
  9
$AUPREC
 70
     0
  9
$MENU
  1
acad
  9
$ELEVATION
 40
0.0
  9
$THICKNESS
 40
0.0
  9
$LIMCHECK
 70
     0
  9
$BLIPMODE
 70
     1
  9
$CHAMFERA
 40
0.0
  9
$CHAMFERB
 40
0.0
  9
$SKPOLY
 70
     0
  9
$TDCREATE
 40
2454078.679328704
  9
$TDUPDATE
 40
2454078.679328704
  9
$TDINDWG
 40
0.0
  9
$TDUSRTIMER
 40
0.0
  9
$USRTIMER
 70
     1
  9
$ANGBASE
 50
0.0
  9
$ANGDIR
 70
     0
  9
$PDMODE
 70
     0
  9
$PDSIZE
 40
0.0
  9
$PLINEWID
 40
0.0
  9
$COORDS
 70
     0
  9
$SPLFRAME
 70
     0
  9
$SPLINETYPE
 70
     6
  9
$SPLINESEGS
 70
     8
  9
$ATTDIA
 70
     0
  9
$ATTREQ
 70
     1
  9
$HANDLING
 70
     0
  9
$HANDSEED
  5
0
  9
$SURFTAB1
 70
     6
  9
$SURFTAB2
 70
     6
  9
$SURFTYPE
 70
     6
  9
$SURFU
 70
     6
  9
$SURFV
 70
     6
  9
$FLATLAND
 70
     0
  9
$UCSNAME
  2

  9
$UCSORG
 10
0.0
 20
0.0
 30
0.0
  9
$UCSXDIR
 10
1.0
 20
0.0
 30
0.0
  9
$UCSYDIR
 10
0.0
 20
1.0
 30
0.0
  9
$USERI1
 70
     0
  9
$USERI2
 70
     0
  9
$USERI3
 70
     0
  9
$USERI4
 70
     0
  9
$USERI5
 70
     0
  9
$USERR1
 40
0.0
  9
$USERR2
 40
0.0
  9
$USERR3
 40
0.0
  9
$USERR4
 40
0.0
  9
$USERR5
 40
0.0
  9
$WORLDVIEW
 70
     1
  0
ENDSEC
  0
SECTION
  2
TABLES
  0
TABLE
  2
VPORT
 70
     1
  0
VPORT
  2
*ACTIVE
 70
     0
 10
0.0
 20
0.0
 11
1.0
 21
1.0
 12
80.86283111572266
 22
-15.00360870361328
 13
0.0
 23
0.0
 14
0.0
 24
0.0
 15
0.0
 25
0.0
 16
0.0
 26
0.0
 36
1.0
 17
0.0
 27
0.0
 37
0.0
 40
308.7175445556641
 41
1.5
 42
50.0
 43
0.0
 44
0.0
 50
0.0
 51
0.0
 71
     0
 72
   100
 73
     1
 74
     1
 75
     0
 76
     0
 77
     0
 78
     0
  0
ENDTAB
  0
TABLE
  2
LTYPE
 70
    20
  0
LTYPE
  2
CONTINUOUS
 70
    64
  3
solid line
 72
    65
 73
     0
 40
0.0
  0
LTYPE
  2
DASHED
 70
    64
  3
-- -- -- -- -- -- -- -- -- -- 
 72
    65
 73
     2
 40
3.0
 49
2.0
 49
-1.0
  0
LTYPE
  2
CENTER
 70
    64
  3
--- - --- - --- - --- - --- - 
 72
    65
 73
     4
 40
6.0
 49
3.0
 49
-1.0
 49
1.0
 49
-1.0
  0
ENDTAB
  0
TABLE
  2
LAYER
 70
    20
  0
LAYER
  2
0
 70
    64
 62
     7
  6
CONTINUOUS
  0
LAYER
  2
100
 70
    64
 62
     7
  6
CONTINUOUS
  0
LAYER
  2
10
 70
    64
 62
     7
  6
CONTINUOUS
  0
LAYER
  2
20
 70
    64
 62
     7
  6
CONTINUOUS
  0
ENDTAB
  0
TABLE
  2
STYLE
 70
     4
  0
ENDTAB
  0
TABLE
  2
VIEW
 70
     0
  0
ENDTAB
  0
TABLE
  2
UCS
 70
     0
  0
ENDTAB
  0
TABLE
  2
DWGMGR
 70
     0
  0
ENDTAB
  0
ENDSEC
  0
SECTION
  2
BLOCKS
  0
BLOCK
  8
100
  2
ＮＭＢロゴ（高さ１０ｍｍ）_0001
 70
    64
 10
0.0
 20
0.0
  0
LINE
  8
10
  6
CONTINUOUS
 10
-8.0
 20
0.0
 11
-8.0
 21
0.6399917602539063
  0
LINE
  8
10
  6
CONTINUOUS
 10
-5.439998626708984
 20
0.6399917602539063
 11
-5.039997100830078
 21
0.6399917602539063
  0
LINE
  8
10
  6
CONTINUOUS
 10
-9.520000457763672
 20
0.6399917602539063
 11
-9.520000457763672
 21
3.359992980957031
  0
LINE
  8
10
  6
CONTINUOUS
 10
-3.919998168945313
 20
0.6399917602539063
 11
-3.919998168945313
 21
3.359992980957031
  0
LINE
  8
10
  6
CONTINUOUS
 10
-8.399997711181641
 20
0.6399917602539063
 11
-8.399997711181641
 21
3.360649108886719
  0
LINE
  8
10
  6
CONTINUOUS
 10
-5.039997100830078
 20
1.464149475097656
 11
-5.039997100830078
 21
3.359992980957031
  0
LINE
  8
10
  6
CONTINUOUS
 10
-5.439998626708984
 20
4.0
 11
-3.520000457763672
 21
4.0
  0
LINE
  8
10
  6
CONTINUOUS
 10
-9.919998168945313
 20
3.359992980957031
 11
-9.520000457763672
 21
3.359992980957031
  0
LINE
  8
10
  6
CONTINUOUS
 10
-5.439998626708984
 20
0.0
 11
-3.520000457763672
 21
0.0
  0
LINE
  8
10
  6
CONTINUOUS
 10
-9.919998168945313
 20
0.0
 11
-8.0
 21
0.0
  0
LINE
  8
10
  6
CONTINUOUS
 10
-9.919998168945313
 20
4.0
 11
-8.172622680664063
 21
4.0
  0
LINE
  8
10
  6
CONTINUOUS
 10
-8.172622680664063
 20
4.0
 11
-5.039997100830078
 21
1.464149475097656
  0
LINE
  8
10
  6
CONTINUOUS
 10
-8.399997711181641
 20
3.360649108886719
 11
-5.039073944091797
 21
0.6399917602539063
  0
LINE
  8
10
  6
CONTINUOUS
 10
-5.439998626708984
 20
0.0
 11
-5.439998626708984
 21
0.6399917602539063
  0
LINE
  8
10
  6
CONTINUOUS
 10
-5.439998626708984
 20
3.359992980957031
 11
-5.439998626708984
 21
4.0
  0
LINE
  8
10
  6
CONTINUOUS
 10
-3.520000457763672
 20
0.0
 11
-3.520000457763672
 21
0.6399917602539063
  0
LINE
  8
10
  6
CONTINUOUS
 10
-3.520000457763672
 20
3.359992980957031
 11
-3.520000457763672
 21
4.0
  0
LINE
  8
10
  6
CONTINUOUS
 10
-9.919998168945313
 20
0.0
 11
-9.919998168945313
 21
0.6399917602539063
  0
LINE
  8
10
  6
CONTINUOUS
 10
-9.919998168945313
 20
3.359992980957031
 11
-9.919998168945313
 21
4.0
  0
LINE
  8
10
  6
CONTINUOUS
 10
-3.520000457763672
 20
0.6399917602539063
 11
-3.919998168945313
 21
0.6399917602539063
  0
LINE
  8
10
  6
CONTINUOUS
 10
-3.199996948242188
 20
0.0
 11
-3.199996948242188
 21
0.6399917602539063
  0
LINE
  8
10
  6
CONTINUOUS
 10
-3.199996948242188
 20
3.359992980957031
 11
-3.199996948242188
 21
4.0
  0
LINE
  8
10
  6
CONTINUOUS
 10
-1.279998779296875
 20
0.0
 11
-1.279998779296875
 21
0.6399917602539063
  0
LINE
  8
10
  6
CONTINUOUS
 10
3.520004272460938
 20
0.0
 11
3.520004272460938
 21
0.6399917602539063
  0
LINE
  8
10
  6
CONTINUOUS
 10
3.520004272460938
 20
3.359992980957031
 11
3.520004272460938
 21
4.0
  0
LINE
  8
10
  6
CONTINUOUS
 10
-2.799999237060547
 20
0.6399917602539063
 11
-2.799999237060547
 21
3.359992980957031
  0
LINE
  8
10
  6
CONTINUOUS
 10
-1.679996490478516
 20
0.6399917602539063
 11
-1.679996490478516
 21
3.36004638671875
  0
LINE
  8
10
  6
CONTINUOUS
 10
3.120002746582031
 20
0.6399917602539063
 11
3.120002746582031
 21
3.359992980957031
  0
LINE
  8
10
  6
CONTINUOUS
 10
1.600002288818359
 20
0.0
 11
1.600002288818359
 21
0.6399917602539063
  0
LINE
  8
10
  6
CONTINUOUS
 10
2.0
 20
0.6399917602539063
 11
2.0
 21
3.36004638671875
  0
LINE
  8
10
  6
CONTINUOUS
 10
-3.199996948242188
 20
0.6399917602539063
 11
-2.799999237060547
 21
0.6399917602539063
  0
LINE
  8
10
  6
CONTINUOUS
 10
-1.679996490478516
 20
0.6399917602539063
 11
-1.279998779296875
 21
0.6399917602539063
  0
LINE
  8
10
  6
CONTINUOUS
 10
1.600002288818359
 20
0.6399917602539063
 11
2.0
 21
0.6399917602539063
  0
LINE
  8
10
  6
CONTINUOUS
 10
3.120002746582031
 20
0.6399917602539063
 11
3.520004272460938
 21
0.6399917602539063
  0
LINE
  8
10
  6
CONTINUOUS
 10
3.520004272460938
 20
3.359992980957031
 11
3.120002746582031
 21
3.359992980957031
  0
LINE
  8
10
  6
CONTINUOUS
 10
-2.799999237060547
 20
3.359992980957031
 11
-3.199996948242188
 21
3.359992980957031
  0
LINE
  8
10
  6
CONTINUOUS
 10
-1.300796508789063
 20
4.0
 11
0.160003662109375
 21
1.332893371582031
  0
LINE
  8
10
  6
CONTINUOUS
 10
0.160003662109375
 20
1.332893371582031
 11
1.620803833007813
 21
4.0
  0
LINE
  8
10
  6
CONTINUOUS
 10
0.160003662109375
 20
0.0006103515625
 11
2.0
 21
3.36004638671875
  0
LINE
  8
10
  6
CONTINUOUS
 10
-1.679996490478516
 20
3.36004638671875
 11
0.160003662109375
 21
0.0006103515625
  0
LINE
  8
10
  6
CONTINUOUS
 10
-3.199996948242188
 20
4.0
 11
-1.300796508789063
 21
4.0
  0
LINE
  8
10
  6
CONTINUOUS
 10
1.620803833007813
 20
4.0
 11
3.520004272460938
 21
4.0
  0
LINE
  8
10
  6
CONTINUOUS
 10
-3.199996948242188
 20
0.0
 11
-1.279998779296875
 21
0.0
  0
LINE
  8
10
  6
CONTINUOUS
 10
1.600002288818359
 20
0.0
 11
3.520004272460938
 21
0.0
  0
LINE
  8
10
  6
CONTINUOUS
 10
3.840000152587891
 20
0.0
 11
3.840000152587891
 21
0.6399917602539063
  0
LINE
  8
10
  6
CONTINUOUS
 10
3.840000152587891
 20
3.359992980957031
 11
3.840000152587891
 21
4.0
  0
LINE
  8
10
  6
CONTINUOUS
 10
3.840000152587891
 20
4.0
 11
8.760002136230469
 21
4.0
  0
LINE
  8
10
  6
CONTINUOUS
 10
3.840000152587891
 20
0.0
 11
8.760002136230469
 21
0.0
  0
LINE
  8
10
  6
CONTINUOUS
 10
4.240001678466797
 20
0.6399917602539063
 11
4.240001678466797
 21
3.359992980957031
  0
LINE
  8
10
  6
CONTINUOUS
 10
3.840000152587891
 20
3.359992980957031
 11
4.240001678466797
 21
3.359992980957031
  0
LINE
  8
10
  6
CONTINUOUS
 10
3.840000152587891
 20
0.6399917602539063
 11
4.240001678466797
 21
0.6399917602539063
  0
LINE
  8
10
  6
CONTINUOUS
 10
5.360000610351563
 20
3.359992980957031
 11
8.280002593994141
 21
3.359992980957031
  0
LINE
  8
10
  6
CONTINUOUS
 10
5.360000610351563
 20
2.319992065429688
 11
8.280002593994141
 21
2.319992065429688
  0
LINE
  8
10
  6
CONTINUOUS
 10
5.360000610351563
 20
1.67999267578125
 11
8.279685974121094
 21
1.67999267578125
  0
LINE
  8
10
  6
CONTINUOUS
 10
5.360000610351563
 20
0.6399917602539063
 11
8.280002593994141
 21
0.6399917602539063
  0
LINE
  8
10
  6
CONTINUOUS
 10
5.360000610351563
 20
0.6399917602539063
 11
5.360000610351563
 21
1.67999267578125
  0
LINE
  8
10
  6
CONTINUOUS
 10
5.360000610351563
 20
2.319992065429688
 11
5.360000610351563
 21
3.359992980957031
  0
ARC
  8
10
  6
CONTINUOUS
 10
8.760002136230469
 20
2.839996337890625
 40
1.160000085830689
 50
313.6029164310801
 51
90.0
  0
ARC
  8
10
  6
CONTINUOUS
 10
8.760002136230469
 20
1.159996032714844
 40
1.160000085830689
 50
270.0
 51
46.39734345715018
  0
ARC
  8
10
  6
CONTINUOUS
 10
8.280002593994141
 20
2.839996337890625
 40
0.5199999809265137
 50
270.0
 51
90.0
  0
ARC
  8
10
  6
CONTINUOUS
 10
8.280002593994141
 20
1.159996032714844
 40
0.5200000405311585
 50
270.0
 51
90.03488672558862
  0
LINE
  8
10
  6
CONTINUOUS
 10
-5.439998626708984
 20
3.359992980957031
 11
-5.039997100830078
 21
3.359992980957031
  0
LINE
  8
10
  6
CONTINUOUS
 10
-3.919998168945313
 20
3.359992980957031
 11
-3.520000457763672
 21
3.359992980957031
  0
LINE
  8
10
  6
CONTINUOUS
 10
-9.919998168945313
 20
0.6399917602539063
 11
-9.520000457763672
 21
0.6399917602539063
  0
LINE
  8
10
  6
CONTINUOUS
 10
-8.399997711181641
 20
0.6399917602539063
 11
-8.0
 21
0.6399917602539063
  0
POLYLINE
  8
100
  6
CONTINUOUS
 66
     1
 70
     0
 40
0.0
 41
0.0
  0
VERTEX
  8
100
 10
-3.919998168945313
 20
0.6399917602539063
  0
VERTEX
  8
100
 10
-3.919998168945313
 20
3.359992980957031
  0
VERTEX
  8
100
 10
-3.520000457763672
 20
3.359992980957031
  0
VERTEX
  8
100
 10
-3.520000457763672
 20
4.0
  0
VERTEX
  8
100
 10
-5.439998626708984
 20
4.0
  0
VERTEX
  8
100
 10
-5.439998626708984
 20
3.359992980957031
  0
VERTEX
  8
100
 10
-5.039997100830078
 20
3.359992980957031
  0
VERTEX
  8
100
 10
-5.039997100830078
 20
1.464149475097656
  0
VERTEX
  8
100
 10
-8.172622680664063
 20
4.0
  0
VERTEX
  8
100
 10
-9.919998168945313
 20
4.0
  0
VERTEX
  8
100
 10
-9.919998168945313
 20
3.359992980957031
  0
VERTEX
  8
100
 10
-9.520000457763672
 20
3.359992980957031
  0
VERTEX
  8
100
 10
-9.520000457763672
 20
0.6399917602539063
  0
VERTEX
  8
100
 10
-9.919998168945313
 20
0.6399917602539063
  0
VERTEX
  8
100
 10
-9.919998168945313
 20
0.0
  0
VERTEX
  8
100
 10
-8.0
 20
0.0
  0
VERTEX
  8
100
 10
-8.0
 20
0.6399917602539063
  0
VERTEX
  8
100
 10
-8.399997711181641
 20
0.6399917602539063
  0
VERTEX
  8
100
 10
-8.399997711181641
 20
3.360649108886719
  0
VERTEX
  8
100
 10
-5.039073944091797
 20
0.6399917602539063
  0
VERTEX
  8
100
 10
-5.439998626708984
 20
0.6399917602539063
  0
VERTEX
  8
100
 10
-5.439998626708984
 20
0.0
  0
VERTEX
  8
100
 10
-3.520000457763672
 20
0.0
  0
VERTEX
  8
100
 10
-3.520000457763672
 20
0.6399917602539063
  0
VERTEX
  8
100
 10
-3.919998168945313
 20
0.6399917602539063
  0
SEQEND
  8
100
  0
POLYLINE
  8
100
  6
CONTINUOUS
 66
     1
 70
     0
 40
0.0
 41
0.0
  0
VERTEX
  8
100
 10
1.600002288818359
 20
0.0
  0
VERTEX
  8
100
 10
3.520004272460938
 20
0.0
  0
VERTEX
  8
100
 10
3.520004272460938
 20
0.6399917602539063
  0
VERTEX
  8
100
 10
3.120002746582031
 20
0.6399917602539063
  0
VERTEX
  8
100
 10
3.120002746582031
 20
3.359992980957031
  0
VERTEX
  8
100
 10
3.520004272460938
 20
3.359992980957031
  0
VERTEX
  8
100
 10
3.520004272460938
 20
4.0
  0
VERTEX
  8
100
 10
1.620803833007813
 20
4.0
  0
VERTEX
  8
100
 10
0.160003662109375
 20
1.332893371582031
  0
VERTEX
  8
100
 10
-1.300796508789063
 20
4.0
  0
VERTEX
  8
100
 10
-3.199996948242188
 20
4.0
  0
VERTEX
  8
100
 10
-3.199996948242188
 20
3.359992980957031
  0
VERTEX
  8
100
 10
-2.799999237060547
 20
3.359992980957031
  0
VERTEX
  8
100
 10
-2.799999237060547
 20
0.6399917602539063
  0
VERTEX
  8
100
 10
-3.199996948242188
 20
0.6399917602539063
  0
VERTEX
  8
100
 10
-3.199996948242188
 20
0.0
  0
VERTEX
  8
100
 10
-1.279998779296875
 20
0.0
  0
VERTEX
  8
100
 10
-1.279998779296875
 20
0.6399917602539063
  0
VERTEX
  8
100
 10
-1.679996490478516
 20
0.6399917602539063
  0
VERTEX
  8
100
 10
-1.679996490478516
 20
3.36004638671875
  0
VERTEX
  8
100
 10
0.160003662109375
 20
0.0006103515625
  0
VERTEX
  8
100
 10
2.0
 20
3.36004638671875
  0
VERTEX
  8
100
 10
2.0
 20
0.6399917602539063
  0
VERTEX
  8
100
 10
1.600002288818359
 20
0.6399917602539063
  0
VERTEX
  8
100
 10
1.600002288818359
 20
0.0
  0
SEQEND
  8
100
  0
POLYLINE
  8
100
  6
CONTINUOUS
 66
     1
 70
     0
 40
0.0
 41
0.0
  0
VERTEX
  8
100
 10
8.760002136230469
 20
0.0
  0
VERTEX
  8
100
 10
3.840000152587891
 20
0.0
  0
VERTEX
  8
100
 10
3.840000152587891
 20
0.6399917602539063
  0
VERTEX
  8
100
 10
4.240001678466797
 20
0.6399917602539063
  0
VERTEX
  8
100
 10
4.240001678466797
 20
3.359992980957031
  0
VERTEX
  8
100
 10
3.840000152587891
 20
3.359992980957031
  0
VERTEX
  8
100
 10
3.840000152587891
 20
4.0
  0
VERTEX
  8
100
 10
8.760002136230469
 20
4.0
 42
-0.6770344985789986
  0
VERTEX
  8
100
 10
9.560001373291016
 20
2.0
  0
SEQEND
  8
100
  0
POLYLINE
  8
100
  6
CONTINUOUS
 66
     1
 70
     0
 40
0.0
 41
0.0
  0
VERTEX
  8
100
 10
8.280002593994141
 20
0.6399917602539063
  0
VERTEX
  8
100
 10
5.360000610351563
 20
0.6399917602539063
  0
VERTEX
  8
100
 10
5.360000610351563
 20
1.67999267578125
  0
SEQEND
  8
100
  0
POLYLINE
  8
100
  6
CONTINUOUS
 66
     1
 70
     0
 40
0.0
 41
0.0
  0
VERTEX
  8
100
 10
5.360000610351563
 20
2.319992065429688
  0
VERTEX
  8
100
 10
8.280319213867188
 20
2.319992065429688
 42
0.4142114150338129
  0
VERTEX
  8
100
 10
8.800006868762395
 20
2.840309145362511
 42
0.4142114124804058
  0
VERTEX
  8
100
 10
8.279685971799779
 20
3.359996793344166
  0
VERTEX
  8
100
 10
5.360000610351563
 20
3.359992980957031
  0
VERTEX
  8
100
 10
5.360000610351563
 20
2.319992065429688
  0
SEQEND
  8
100
  0
POLYLINE
  8
100
  6
CONTINUOUS
 66
     1
 70
     0
 40
0.0
 41
0.0
  0
VERTEX
  8
100
 10
5.360000610351563
 20
0.6399917602539063
  0
VERTEX
  8
100
 10
8.280002593994141
 20
0.6399917602539063
 42
0.4143252965795248
  0
VERTEX
  8
100
 10
8.800006828619857
 20
1.16019439841341
 42
0.4143145982544451
  0
VERTEX
  8
100
 10
8.279617306821592
 20
1.679996385576843
  0
VERTEX
  8
100
 10
5.360000610351563
 20
1.67999267578125
  0
VERTEX
  8
100
 10
5.360000610351563
 20
0.6399917602539063
  0
SEQEND
  8
100
  0
POLYLINE
  8
100
  6
CONTINUOUS
 66
     1
 70
     0
 40
0.0
 41
0.0
  0
VERTEX
  8
100
 10
-5.039073944091797
 20
0.6399917602539063
  0
VERTEX
  8
100
 10
-5.439998626708984
 20
0.6399917602539063
  0
VERTEX
  8
100
 10
-5.439998626708984
 20
0.0
  0
VERTEX
  8
100
 10
-3.520000457763672
 20
0.0
  0
VERTEX
  8
100
 10
-3.520000457763672
 20
0.6399917602539063
  0
VERTEX
  8
100
 10
-3.919998168945313
 20
0.6399917602539063
  0
VERTEX
  8
100
 10
-3.919998168945313
 20
3.359992980957031
  0
VERTEX
  8
100
 10
-3.520000457763672
 20
3.359992980957031
  0
VERTEX
  8
100
 10
-3.520000457763672
 20
4.0
  0
VERTEX
  8
100
 10
-5.439998626708984
 20
4.0
  0
VERTEX
  8
100
 10
-5.439998626708984
 20
3.359992980957031
  0
VERTEX
  8
100
 10
-5.039997100830078
 20
3.359992980957031
  0
VERTEX
  8
100
 10
-5.039997100830078
 20
1.464149475097656
  0
VERTEX
  8
100
 10
-8.172622680664063
 20
4.0
  0
VERTEX
  8
100
 10
-9.919998168945313
 20
4.0
  0
VERTEX
  8
100
 10
-9.919998168945313
 20
3.359992980957031
  0
VERTEX
  8
100
 10
-9.520000457763672
 20
3.359992980957031
  0
VERTEX
  8
100
 10
-9.520000457763672
 20
0.6399917602539063
  0
VERTEX
  8
100
 10
-9.919998168945313
 20
0.6399917602539063
  0
VERTEX
  8
100
 10
-9.919998168945313
 20
0.0
  0
VERTEX
  8
100
 10
-8.0
 20
0.0
  0
VERTEX
  8
100
 10
-8.0
 20
0.6399917602539063
  0
VERTEX
  8
100
 10
-8.399997711181641
 20
0.6399917602539063
  0
VERTEX
  8
100
 10
-8.399997711181641
 20
3.360649108886719
  0
VERTEX
  8
100
 10
-5.039073944091797
 20
0.6399917602539063
  0
SEQEND
  8
100
  0
POLYLINE
  8
100
  6
CONTINUOUS
 66
     1
 70
     0
 40
0.0
 41
0.0
  0
VERTEX
  8
100
 10
2.0
 20
0.6399917602539063
  0
VERTEX
  8
100
 10
2.0
 20
3.36004638671875
  0
VERTEX
  8
100
 10
0.160003662109375
 20
0.0006103515625
  0
VERTEX
  8
100
 10
-1.679996490478516
 20
3.36004638671875
  0
VERTEX
  8
100
 10
-1.679996490478516
 20
0.6399917602539063
  0
VERTEX
  8
100
 10
-1.279998779296875
 20
0.6399917602539063
  0
VERTEX
  8
100
 10
-1.279998779296875
 20
0.0
  0
VERTEX
  8
100
 10
-3.199996948242188
 20
0.0
  0
VERTEX
  8
100
 10
-3.199996948242188
 20
0.6399917602539063
  0
VERTEX
  8
100
 10
-2.799999237060547
 20
0.6399917602539063
  0
VERTEX
  8
100
 10
-2.799999237060547
 20
3.359992980957031
  0
VERTEX
  8
100
 10
-3.199996948242188
 20
3.359992980957031
  0
VERTEX
  8
100
 10
-3.199996948242188
 20
4.0
  0
VERTEX
  8
100
 10
-1.300796508789063
 20
4.0
  0
VERTEX
  8
100
 10
0.160003662109375
 20
1.332893371582031
  0
VERTEX
  8
100
 10
1.620803833007813
 20
4.0
  0
VERTEX
  8
100
 10
3.520004272460938
 20
4.0
  0
VERTEX
  8
100
 10
3.520004272460938
 20
3.359992980957031
  0
VERTEX
  8
100
 10
3.120002746582031
 20
3.359992980957031
  0
VERTEX
  8
100
 10
3.120002746582031
 20
0.6399917602539063
  0
VERTEX
  8
100
 10
3.520004272460938
 20
0.6399917602539063
  0
VERTEX
  8
100
 10
3.520004272460938
 20
0.0
  0
VERTEX
  8
100
 10
1.600002288818359
 20
0.0
  0
VERTEX
  8
100
 10
1.600002288818359
 20
0.6399917602539063
  0
VERTEX
  8
100
 10
2.0
 20
0.6399917602539063
  0
SEQEND
  8
100
  0
POLYLINE
  8
100
  6
CONTINUOUS
 66
     1
 70
     0
 40
0.0
 41
0.0
  0
VERTEX
  8
100
 10
5.360000610351563
 20
3.359992980957031
  0
VERTEX
  8
100
 10
5.360000610351563
 20
2.319992065429688
  0
VERTEX
  8
100
 10
8.280319213867188
 20
2.319992065429688
  0
VERTEX
  8
100
 10
5.360000610351563
 20
2.319992065429688
  0
VERTEX
  8
100
 10
5.360000610351563
 20
3.359992980957031
  0
SEQEND
  8
100
  0
POLYLINE
  8
100
  6
CONTINUOUS
 66
     1
 70
     0
 40
0.0
 41
0.0
  0
VERTEX
  8
100
 10
8.280002593994141
 20
2.319992065429688
  0
VERTEX
  8
100
 10
5.360000610351563
 20
2.319992065429688
  0
VERTEX
  8
100
 10
5.360000610351563
 20
3.359992980957031
  0
VERTEX
  8
100
 10
8.280002593994141
 20
3.359992980957031
  0
VERTEX
  8
100
 10
5.360000610351563
 20
3.359992980957031
  0
VERTEX
  8
100
 10
5.360000610351563
 20
2.319992065429688
  0
VERTEX
  8
100
 10
8.280002593994141
 20
2.319992065429688
  0
SEQEND
  8
100
  0
POLYLINE
  8
100
  6
CONTINUOUS
 66
     1
 70
     0
 40
0.0
 41
0.0
  0
VERTEX
  8
100
 10
5.360000610351563
 20
1.67999267578125
  0
VERTEX
  8
100
 10
8.279685974121094
 20
1.67999267578125
  0
VERTEX
  8
100
 10
5.360000610351563
 20
1.67999267578125
  0
SEQEND
  8
100
  0
POLYLINE
  8
100
  6
CONTINUOUS
 66
     1
 70
     0
 40
0.0
 41
0.0
  0
VERTEX
  8
100
 10
-9.919998168945313
 20
0.6399917602539063
  0
VERTEX
  8
100
 10
-9.919998168945313
 20
0.0
  0
VERTEX
  8
100
 10
-8.0
 20
0.0
  0
VERTEX
  8
100
 10
-8.0
 20
0.6399917602539063
  0
VERTEX
  8
100
 10
-8.399997711181641
 20
0.6399917602539063
  0
VERTEX
  8
100
 10
-8.399997711181641
 20
3.360649108886719
  0
VERTEX
  8
100
 10
-5.039073944091797
 20
0.6399917602539063
  0
VERTEX
  8
100
 10
-5.439998626708984
 20
0.6399917602539063
  0
VERTEX
  8
100
 10
-5.439998626708984
 20
0.0
  0
VERTEX
  8
100
 10
-3.520000457763672
 20
0.0
  0
VERTEX
  8
100
 10
-3.520000457763672
 20
0.6399917602539063
  0
VERTEX
  8
100
 10
-3.919998168945313
 20
0.6399917602539063
  0
VERTEX
  8
100
 10
-3.919998168945313
 20
3.359992980957031
  0
VERTEX
  8
100
 10
-3.520000457763672
 20
3.359992980957031
  0
VERTEX
  8
100
 10
-3.520000457763672
 20
4.0
  0
VERTEX
  8
100
 10
-5.439998626708984
 20
4.0
  0
VERTEX
  8
100
 10
-5.439998626708984
 20
3.359992980957031
  0
VERTEX
  8
100
 10
-5.039997100830078
 20
3.359992980957031
  0
VERTEX
  8
100
 10
-5.039997100830078
 20
1.464149475097656
  0
VERTEX
  8
100
 10
-8.172622680664063
 20
4.0
  0
VERTEX
  8
100
 10
-9.919998168945313
 20
4.0
  0
VERTEX
  8
100
 10
-9.919998168945313
 20
3.359992980957031
  0
VERTEX
  8
100
 10
-9.520000457763672
 20
3.359992980957031
  0
VERTEX
  8
100
 10
-9.520000457763672
 20
0.6399917602539063
  0
VERTEX
  8
100
 10
-9.919998168945313
 20
0.6399917602539063
  0
SEQEND
  8
100
  0
ENDBLK
  8
100
  0
BLOCK
  8
100
  2
COMP1
 70
    64
 10
0.0
 20
0.0
  0
LINE
  8
100
  6
CONTINUOUS
 10
-67.49594116210938
 20
29.99639129638672
 11
-64.49594116210938
 21
29.99639129638672
  0
LINE
  8
100
  6
CONTINUOUS
 10
-67.49594116210938
 20
13.99639129638672
 11
-67.49594116210938
 21
18.99639129638672
  0
LINE
  8
100
  6
CONTINUOUS
 10
-67.49594116210938
 20
24.99639129638672
 11
-67.49594116210938
 21
29.99639129638672
  0
LINE
  8
100
  6
CONTINUOUS
 10
-67.49594116210938
 20
13.99639129638672
 11
-64.49594116210938
 21
13.99639129638672
  0
ENDBLK
  8
100
  0
BLOCK
  8
100
  2
COMP2
 70
    64
 10
0.0
 20
0.0
  0
LINE
  8
100
  6
CONTINUOUS
 10
-67.49594116210938
 20
1.96191930770874
 11
-64.49594116210938
 21
1.96191930770874
  0
LINE
  8
100
  6
CONTINUOUS
 10
-67.49594116210938
 20
-14.03808069229126
 11
-67.49594116210938
 21
-9.03808069229126
  0
LINE
  8
100
  6
CONTINUOUS
 10
-67.49594116210938
 20
-3.03808069229126
 11
-67.49594116210938
 21
1.96191930770874
  0
LINE
  8
100
  6
CONTINUOUS
 10
-67.49594116210938
 20
-14.03808069229126
 11
-64.49594116210938
 21
-14.03808069229126
  0
ENDBLK
  8
100
  0
BLOCK
  8
100
  2
COMP3
 70
    64
 10
0.0
 20
0.0
  0
LINE
  8
100
  6
CONTINUOUS
 10
-67.49594116210938
 20
-26.03808069229126
 11
-64.49594116210938
 21
-26.03808069229126
  0
LINE
  8
100
  6
CONTINUOUS
 10
-67.49594116210938
 20
-42.03808069229126
 11
-67.49594116210938
 21
-37.03808069229126
  0
LINE
  8
100
  6
CONTINUOUS
 10
-67.49594116210938
 20
-31.03808069229126
 11
-67.49594116210938
 21
-26.03808069229126
  0
LINE
  8
100
  6
CONTINUOUS
 10
-67.49594116210938
 20
-42.03808069229126
 11
-64.49594116210938
 21
-42.03808069229126
  0
ENDBLK
  8
100
  0
BLOCK
  8
100
  2
COMP4
 70
    64
 10
0.0
 20
0.0
  0
LINE
  8
100
  6
CONTINUOUS
 10
-67.49594116210938
 20
-54.03808069229126
 11
-64.49594116210938
 21
-54.03808069229126
  0
LINE
  8
100
  6
CONTINUOUS
 10
-67.49594116210938
 20
-70.03808069229126
 11
-67.49594116210938
 21
-65.03808069229126
  0
LINE
  8
100
  6
CONTINUOUS
 10
-67.49594116210938
 20
-59.03808069229126
 11
-67.49594116210938
 21
-54.03808069229126
  0
LINE
  8
100
  6
CONTINUOUS
 10
-67.49594116210938
 20
-70.03808069229126
 11
-64.49594116210938
 21
-70.03808069229126
  0
ENDBLK
  8
100
  0
BLOCK
  8
100
  2
COMP5
 70
    64
 10
0.0
 20
0.0
  0
INSERT
  8
100
  6
CONTINUOUS
  2
ＮＭＢロゴ（高さ１０ｍｍ）_0001
 10
-52.71009063720703
 20
-93.01327514648438
 41
1.0
 42
1.0
 50
0.0
  0
ENDBLK
  8
100
  0
BLOCK
  8
100
  2
COMP6
 70
    64
 10
0.0
 20
0.0
  0
LINE
  8
100
  6
CONTINUOUS
 10
123.5951309204102
 20
-13.50360870361328
 11
127.5951309204102
 21
-13.50360870361328
  0
LINE
  8
100
  6
CONTINUOUS
 10
124.5951309204102
 20
-16.50360870361328
 11
124.5951309204102
 21
-13.50360870361328
  0
LINE
  8
100
  6
CONTINUOUS
 10
126.5951309204102
 20
-16.50360870361328
 11
126.5951309204102
 21
-13.50360870361328
  0
LINE
  8
100
  6
CONTINUOUS
 10
123.5951309204102
 20
-16.50360870361328
 11
127.5951309204102
 21
-16.50360870361328
  0
ENDBLK
  8
100
  0
BLOCK
  8
100
  2
COMP7
 70
    64
 10
0.0
 20
0.0
  0
LINE
  8
100
  6
CONTINUOUS
 10
123.5951309204102
 20
-3.503608703613281
 11
127.5951309204102
 21
-3.503608703613281
  0
LINE
  8
100
  6
CONTINUOUS
 10
124.5951309204102
 20
-6.503608703613281
 11
124.5951309204102
 21
-3.503608703613281
  0
LINE
  8
100
  6
CONTINUOUS
 10
126.5951309204102
 20
-6.503608703613281
 11
126.5951309204102
 21
-3.503608703613281
  0
LINE
  8
100
  6
CONTINUOUS
 10
123.5951309204102
 20
-6.503608703613281
 11
127.5951309204102
 21
-6.503608703613281
  0
ENDBLK
  8
100
  0
BLOCK
  8
100
  2
COMP8
 70
    64
 10
0.0
 20
0.0
  0
LINE
  8
100
  6
CONTINUOUS
 10
123.5951309204102
 20
1.496391296386719
 11
127.5951309204102
 21
1.496391296386719
  0
LINE
  8
100
  6
CONTINUOUS
 10
124.5951309204102
 20
-1.503608703613281
 11
124.5951309204102
 21
1.496391296386719
  0
LINE
  8
100
  6
CONTINUOUS
 10
126.5951309204102
 20
-1.503608703613281
 11
126.5951309204102
 21
1.496391296386719
  0
LINE
  8
100
  6
CONTINUOUS
 10
123.5951309204102
 20
-1.503608703613281
 11
127.5951309204102
 21
-1.503608703613281
  0
ENDBLK
  8
100
  0
BLOCK
  8
100
  2
COMP9
 70
    64
 10
0.0
 20
0.0
  0
LINE
  8
100
  6
CONTINUOUS
 10
123.5951309204102
 20
11.49639129638672
 11
127.5951309204102
 21
11.49639129638672
  0
LINE
  8
100
  6
CONTINUOUS
 10
124.5951309204102
 20
8.496391296386719
 11
124.5951309204102
 21
11.49639129638672
  0
LINE
  8
100
  6
CONTINUOUS
 10
126.5951309204102
 20
8.496391296386719
 11
126.5951309204102
 21
11.49639129638672
  0
LINE
  8
100
  6
CONTINUOUS
 10
123.5951309204102
 20
8.496391296386719
 11
127.5951309204102
 21
8.496391296386719
  0
ENDBLK
  8
100
  0
BLOCK
  8
100
  2
COMP10
 70
    64
 10
0.0
 20
0.0
  0
LINE
  8
100
  6
CONTINUOUS
 10
123.5951309204102
 20
26.49639129638672
 11
127.5951309204102
 21
26.49639129638672
  0
LINE
  8
100
  6
CONTINUOUS
 10
124.5951309204102
 20
23.49639129638672
 11
124.5951309204102
 21
26.49639129638672
  0
LINE
  8
100
  6
CONTINUOUS
 10
126.5951309204102
 20
23.49639129638672
 11
126.5951309204102
 21
26.49639129638672
  0
LINE
  8
100
  6
CONTINUOUS
 10
123.5951309204102
 20
23.49639129638672
 11
127.5951309204102
 21
23.49639129638672
  0
ENDBLK
  8
100
  0
BLOCK
  8
100
  2
COMP11
 70
    64
 10
0.0
 20
0.0
  0
LINE
  8
100
  6
CONTINUOUS
 10
123.5951309204102
 20
51.49639129638672
 11
127.5951309204102
 21
51.49639129638672
  0
LINE
  8
100
  6
CONTINUOUS
 10
124.5951309204102
 20
48.49639129638672
 11
124.5951309204102
 21
51.49639129638672
  0
LINE
  8
100
  6
CONTINUOUS
 10
126.5951309204102
 20
48.49639129638672
 11
126.5951309204102
 21
51.49639129638672
  0
LINE
  8
100
  6
CONTINUOUS
 10
123.5951309204102
 20
48.49639129638672
 11
127.5951309204102
 21
48.49639129638672
  0
ENDBLK
  8
100
  0
BLOCK
  8
100
  2
COMP12
 70
    64
 10
0.0
 20
0.0
  0
LINE
  8
100
  6
CONTINUOUS
 10
123.5951309204102
 20
-28.50360870361328
 11
127.5951309204102
 21
-28.50360870361328
  0
LINE
  8
100
  6
CONTINUOUS
 10
124.5951309204102
 20
-31.50360870361328
 11
124.5951309204102
 21
-28.50360870361328
  0
LINE
  8
100
  6
CONTINUOUS
 10
126.5951309204102
 20
-31.50360870361328
 11
126.5951309204102
 21
-28.50360870361328
  0
LINE
  8
100
  6
CONTINUOUS
 10
123.5951309204102
 20
-31.50360870361328
 11
127.5951309204102
 21
-31.50360870361328
  0
ENDBLK
  8
100
  0
BLOCK
  8
100
  2
COMP13
 70
    64
 10
0.0
 20
0.0
  0
LINE
  8
100
  6
CONTINUOUS
 10
123.5951309204102
 20
-43.50360870361328
 11
127.5951309204102
 21
-43.50360870361328
  0
LINE
  8
100
  6
CONTINUOUS
 10
124.5951309204102
 20
-46.50360870361328
 11
124.5951309204102
 21
-43.50360870361328
  0
LINE
  8
100
  6
CONTINUOUS
 10
126.5951309204102
 20
-46.50360870361328
 11
126.5951309204102
 21
-43.50360870361328
  0
LINE
  8
100
  6
CONTINUOUS
 10
123.5951309204102
 20
-46.50360870361328
 11
127.5951309204102
 21
-46.50360870361328
  0
ENDBLK
  8
100
  0
BLOCK
  8
100
  2
COMP14
 70
    64
 10
0.0
 20
0.0
  0
LINE
  8
100
  6
CONTINUOUS
 10
123.5951309204102
 20
-48.50360870361328
 11
127.5951309204102
 21
-48.50360870361328
  0
LINE
  8
100
  6
CONTINUOUS
 10
124.5951309204102
 20
-51.50360870361328
 11
124.5951309204102
 21
-48.50360870361328
  0
LINE
  8
100
  6
CONTINUOUS
 10
126.5951309204102
 20
-51.50360870361328
 11
126.5951309204102
 21
-48.50360870361328
  0
LINE
  8
100
  6
CONTINUOUS
 10
123.5951309204102
 20
-51.50360870361328
 11
127.5951309204102
 21
-51.50360870361328
  0
ENDBLK
  8
100
  0
BLOCK
  8
100
  2
COMP15
 70
    64
 10
0.0
 20
0.0
  0
LINE
  8
100
  6
CONTINUOUS
 10
123.5951309204102
 20
-73.50360870361328
 11
127.5951309204102
 21
-73.50360870361328
  0
LINE
  8
100
  6
CONTINUOUS
 10
124.5951309204102
 20
-76.50360870361328
 11
124.5951309204102
 21
-73.50360870361328
  0
LINE
  8
100
  6
CONTINUOUS
 10
126.5951309204102
 20
-76.50360870361328
 11
126.5951309204102
 21
-73.50360870361328
  0
LINE
  8
100
  6
CONTINUOUS
 10
123.5951309204102
 20
-76.50360870361328
 11
127.5951309204102
 21
-76.50360870361328
  0
ENDBLK
  8
100
  0
BLOCK
  8
100
  2
COMP16
 70
    64
 10
0.0
 20
0.0
  0
LINE
  8
100
  6
CONTINUOUS
 10
123.5951309204102
 20
-78.50360870361328
 11
127.5951309204102
 21
-78.50360870361328
  0
LINE
  8
100
  6
CONTINUOUS
 10
124.5951309204102
 20
-81.50360870361328
 11
124.5951309204102
 21
-78.50360870361328
  0
LINE
  8
100
  6
CONTINUOUS
 10
126.5951309204102
 20
-81.50360870361328
 11
126.5951309204102
 21
-78.50360870361328
  0
LINE
  8
100
  6
CONTINUOUS
 10
123.5951309204102
 20
-81.50360870361328
 11
127.5951309204102
 21
-81.50360870361328
  0
ENDBLK
  8
100
  0
BLOCK
  8
100
  2
COMP17
 70
    64
 10
0.0
 20
0.0
  0
CIRCLE
  8
100
  6
CONTINUOUS
 10
228.0216033935547
 20
-15.00360870361328
 40
2.0
  0
LINE
  8
100
  6
CONTINUOUS
 10
226.085111720451
 20
-14.50360870361328
 11
229.9580950666584
 21
-14.50360870361328
  0
LINE
  8
100
  6
CONTINUOUS
 10
226.085111720451
 20
-15.50360870361328
 11
229.9580950666584
 21
-15.50360870361328
  0
ENDBLK
  8
100
  0
BLOCK
  8
100
  2
COMP18
 70
    64
 10
0.0
 20
0.0
  0
CIRCLE
  8
100
  6
CONTINUOUS
 10
228.0216033935547
 20
14.99639129638672
 40
2.0
  0
LINE
  8
100
  6
CONTINUOUS
 10
226.085111720451
 20
15.49639129638672
 11
229.9580950666584
 21
15.49639129638672
  0
LINE
  8
100
  6
CONTINUOUS
 10
226.085111720451
 20
14.49639129638672
 11
229.9580950666584
 21
14.49639129638672
  0
ENDBLK
  8
100
  0
BLOCK
  8
100
  2
COMP19
 70
    64
 10
0.0
 20
0.0
  0
CIRCLE
  8
100
  6
CONTINUOUS
 10
228.0216033935547
 20
9.996391296386719
 40
2.0
  0
LINE
  8
100
  6
CONTINUOUS
 10
226.085111720451
 20
10.49639129638672
 11
229.9580950666584
 21
10.49639129638672
  0
LINE
  8
100
  6
CONTINUOUS
 10
226.085111720451
 20
9.496391296386719
 11
229.9580950666584
 21
9.496391296386719
  0
ENDBLK
  8
100
  0
BLOCK
  8
100
  2
COMP20
 70
    64
 10
0.0
 20
0.0
  0
CIRCLE
  8
100
  6
CONTINUOUS
 10
228.0216033935547
 20
-0.00360870361328125
 40
2.0
  0
LINE
  8
100
  6
CONTINUOUS
 10
226.085111720451
 20
0.4963912963867188
 11
229.9580950666584
 21
0.4963912963867188
  0
LINE
  8
100
  6
CONTINUOUS
 10
226.085111720451
 20
-0.5036087036132813
 11
229.9580950666584
 21
-0.5036087036132813
  0
ENDBLK
  8
100
  0
BLOCK
  8
100
  2
COMP21
 70
    64
 10
0.0
 20
0.0
  0
CIRCLE
  8
100
  6
CONTINUOUS
 10
228.0216033935547
 20
39.99639129638672
 40
2.0
  0
LINE
  8
100
  6
CONTINUOUS
 10
226.085111720451
 20
40.49639129638672
 11
229.9580950666584
 21
40.49639129638672
  0
LINE
  8
100
  6
CONTINUOUS
 10
226.085111720451
 20
39.49639129638672
 11
229.9580950666584
 21
39.49639129638672
  0
ENDBLK
  8
100
  0
BLOCK
  8
100
  2
COMP22
 70
    64
 10
0.0
 20
0.0
  0
CIRCLE
  8
100
  6
CONTINUOUS
 10
228.0216033935547
 20
34.99639129638672
 40
2.0
  0
LINE
  8
100
  6
CONTINUOUS
 10
226.085111720451
 20
35.49639129638672
 11
229.9580950666584
 21
35.49639129638672
  0
LINE
  8
100
  6
CONTINUOUS
 10
226.085111720451
 20
34.49639129638672
 11
229.9580950666584
 21
34.49639129638672
  0
ENDBLK
  8
100
  0
BLOCK
  8
100
  2
COMP23
 70
    64
 10
0.0
 20
0.0
  0
CIRCLE
  8
100
  6
CONTINUOUS
 10
228.0216033935547
 20
29.99639129638672
 40
2.0
  0
LINE
  8
100
  6
CONTINUOUS
 10
226.085111720451
 20
30.49639129638672
 11
229.9580950666584
 21
30.49639129638672
  0
LINE
  8
100
  6
CONTINUOUS
 10
226.085111720451
 20
29.49639129638672
 11
229.9580950666584
 21
29.49639129638672
  0
ENDBLK
  8
100
  0
BLOCK
  8
100
  2
COMP24
 70
    64
 10
0.0
 20
0.0
  0
CIRCLE
  8
100
  6
CONTINUOUS
 10
228.0216033935547
 20
-50.00360870361328
 40
2.0
  0
LINE
  8
100
  6
CONTINUOUS
 10
226.085111720451
 20
-49.50360870361328
 11
229.9580950666584
 21
-49.50360870361328
  0
LINE
  8
100
  6
CONTINUOUS
 10
226.085111720451
 20
-50.50360870361328
 11
229.9580950666584
 21
-50.50360870361328
  0
ENDBLK
  8
100
  0
BLOCK
  8
100
  2
COMP25
 70
    64
 10
0.0
 20
0.0
  0
CIRCLE
  8
100
  6
CONTINUOUS
 10
228.0216033935547
 20
-80.00360870361328
 40
2.0
  0
LINE
  8
100
  6
CONTINUOUS
 10
226.085111720451
 20
-79.50360870361328
 11
229.9580950666584
 21
-79.50360870361328
  0
LINE
  8
100
  6
CONTINUOUS
 10
226.085111720451
 20
-80.50360870361328
 11
229.9580950666584
 21
-80.50360870361328
  0
ENDBLK
  8
100
  0
BLOCK
  8
20
  2
COMP26
 70
    64
 10
0.0
 20
0.0
  0
POLYLINE
  8
20
  6
CONTINUOUS
 66
     1
 70
     0
 40
0.0
 41
0.0
  0
VERTEX
  8
20
 10
-67.67087554931641
 20
64.72788238525391
 42
0.8749999999999999
  0
VERTEX
  8
20
 10
-69.17087554931641
 20
64.72788238525391
  0
VERTEX
  8
20
 10
-69.17087554931641
 20
62.94663238525391
 42
0.75
  0
VERTEX
  8
20
 10
-67.67087554931641
 20
62.94663238525391
  0
SEQEND
  8
20
  0
POLYLINE
  8
20
  6
CONTINUOUS
 66
     1
 70
     0
 40
0.0
 41
0.0
  0
VERTEX
  8
20
 10
-65.60837554931641
 20
64.82163238525391
 42
0.3601290360382941
  0
VERTEX
  8
20
 10
-66.35837554931641
 20
65.38413238525391
 42
0.3984818586428911
  0
VERTEX
  8
20
 10
-67.10837554931641
 20
64.72788238525391
 42
0.4142057132209577
  0
VERTEX
  8
20
 10
-66.35837554931641
 20
63.88413238525391
 42
-0.3750000000000001
  0
VERTEX
  8
20
 10
-65.60837554931641
 20
63.13413238525391
 42
-0.4832220624312664
  0
VERTEX
  8
20
 10
-66.31150054931641
 20
62.38413238525391
 42
-0.3193868913193182
  0
VERTEX
  8
20
 10
-67.10837554931641
 20
62.94663238525391
  0
SEQEND
  8
20
  0
POLYLINE
  8
20
  6
CONTINUOUS
 66
     1
 70
     0
 40
0.0
 41
0.0
  0
VERTEX
  8
20
 10
-65.04587554931641
 20
62.38413238525391
  0
VERTEX
  8
20
 10
-64.29587554931641
 20
65.38413238525391
  0
VERTEX
  8
20
 10
-63.54587554931641
 20
62.38413238525391
  0
SEQEND
  8
20
  0
POLYLINE
  8
20
  6
CONTINUOUS
 66
     1
 70
     0
 40
0.0
 41
0.0
  0
VERTEX
  8
20
 10
-63.78025054931641
 20
63.32163238525391
  0
VERTEX
  8
20
 10
-64.81150054931641
 20
63.32163238525391
  0
SEQEND
  8
20
  0
POLYLINE
  8
20
  6
CONTINUOUS
 66
     1
 70
     0
 40
0.0
 41
0.0
  0
VERTEX
  8
20
 10
-61.57712554931641
 20
63.88413238525391
  0
VERTEX
  8
20
 10
-62.88962554931641
 20
63.88413238525391
  0
SEQEND
  8
20
  0
POLYLINE
  8
20
  6
CONTINUOUS
 66
     1
 70
     0
 40
0.0
 41
0.0
  0
VERTEX
  8
20
 10
-59.51462554931641
 20
65.29038238525391
  0
VERTEX
  8
20
 10
-60.73337554931641
 20
65.29038238525391
  0
VERTEX
  8
20
 10
-60.92087554931641
 20
63.97788238525391
  0
VERTEX
  8
20
 10
-60.45212554931641
 20
64.16538238525391
  0
VERTEX
  8
20
 10
-59.88962554931641
 20
64.16538238525391
  0
VERTEX
  8
20
 10
-59.42087554931641
 20
63.79038238525391
  0
VERTEX
  8
20
 10
-59.42087554931641
 20
62.85288238525391
  0
VERTEX
  8
20
 10
-59.88962554931641
 20
62.38413238525391
  0
VERTEX
  8
20
 10
-60.45212554931641
 20
62.38413238525391
  0
VERTEX
  8
20
 10
-60.92087554931641
 20
62.85288238525391
  0
SEQEND
  8
20
  0
POLYLINE
  8
20
  6
CONTINUOUS
 66
     1
 70
     0
 40
0.0
 41
0.0
  0
VERTEX
  8
20
 10
-58.76462554931641
 20
64.82163238525391
  0
VERTEX
  8
20
 10
-58.76462554931641
 20
62.94663238525391
 42
0.9230769230769231
  0
VERTEX
  8
20
 10
-57.54587554931641
 20
62.94663238525391
  0
VERTEX
  8
20
 10
-57.54587554931641
 20
64.82163238525391
 42
0.9230769230769231
  0
VERTEX
  8
20
 10
-58.76462554931641
 20
64.82163238525391
  0
SEQEND
  8
20
  0
POLYLINE
  8
20
  6
CONTINUOUS
 66
     1
 70
     0
 40
0.0
 41
0.0
  0
VERTEX
  8
20
 10
-56.04587554931641
 20
65.38413238525391
  0
VERTEX
  8
20
 10
-56.79587554931641
 20
63.32163238525391
  0
VERTEX
  8
20
 10
-55.29587554931641
 20
63.32163238525391
  0
SEQEND
  8
20
  0
POLYLINE
  8
20
  6
CONTINUOUS
 66
     1
 70
     0
 40
0.0
 41
0.0
  0
VERTEX
  8
20
 10
-55.76462554931641
 20
62.38413238525391
  0
VERTEX
  8
20
 10
-55.76462554931641
 20
64.35288238525391
  0
SEQEND
  8
20
  0
POLYLINE
  8
20
  6
CONTINUOUS
 66
     1
 70
     0
 40
0.0
 41
0.0
  0
VERTEX
  8
20
 10
-53.23337554931641
 20
64.82163238525391
 42
0.3601264978076101
  0
VERTEX
  8
20
 10
-53.98337554931641
 20
65.38413238525391
 42
0.3984745215865783
  0
VERTEX
  8
20
 10
-54.73337554931641
 20
64.72788238525391
 42
0.4142089046285435
  0
VERTEX
  8
20
 10
-53.98337554931641
 20
63.88413238525391
 42
-0.3750000000000001
  0
VERTEX
  8
20
 10
-53.23337554931641
 20
63.13413238525391
 42
-0.4832250238134313
  0
VERTEX
  8
20
 10
-53.93650054931641
 20
62.38413238525391
 42
-0.3193868913193182
  0
VERTEX
  8
20
 10
-54.73337554931641
 20
62.94663238525391
  0
SEQEND
  8
20
  0
POLYLINE
  8
20
  6
CONTINUOUS
 66
     1
 70
     0
 40
0.0
 41
0.0
  0
VERTEX
  8
20
 10
-52.67087554931641
 20
62.38413238525391
  0
VERTEX
  8
20
 10
-51.82712554931641
 20
62.38413238525391
 42
0.8749999999999999
  0
VERTEX
  8
20
 10
-51.82712554931641
 20
63.88413238525391
 42
0.8749999999999999
  0
VERTEX
  8
20
 10
-51.82712554931641
 20
65.38413238525391
  0
VERTEX
  8
20
 10
-52.67087554931641
 20
65.38413238525391
  0
VERTEX
  8
20
 10
-52.67087554931641
 20
62.38413238525391
  0
SEQEND
  8
20
  0
POLYLINE
  8
20
  6
CONTINUOUS
 66
     1
 70
     0
 40
0.0
 41
0.0
  0
VERTEX
  8
20
 10
-52.67087554931641
 20
63.88413238525391
  0
VERTEX
  8
20
 10
-51.82712554931641
 20
63.88413238525391
  0
SEQEND
  8
20
  0
ENDBLK
  8
20
  0
BLOCK
  8
20
  2
COMP27
 70
    64
 10
0.0
 20
0.0
  0
POLYLINE
  8
20
  6
CONTINUOUS
 66
     1
 70
     0
 40
0.0
 41
0.0
  0
VERTEX
  8
20
 10
-69.44409942626953
 20
61.14923477172852
  0
VERTEX
  8
20
 10
-67.94409942626953
 20
61.14923477172852
  0
SEQEND
  8
20
  0
POLYLINE
  8
20
  6
CONTINUOUS
 66
     1
 70
     0
 40
0.0
 41
0.0
  0
VERTEX
  8
20
 10
-68.69409942626953
 20
61.14923477172852
  0
VERTEX
  8
20
 10
-68.69409942626953
 20
58.14923477172852
  0
SEQEND
  8
20
  0
POLYLINE
  8
20
  6
CONTINUOUS
 66
     1
 70
     0
 40
0.0
 41
0.0
  0
VERTEX
  8
20
 10
-67.38159942626953
 20
59.64923477172852
  0
VERTEX
  8
20
 10
-66.91284942626953
 20
60.11798477172852
  0
VERTEX
  8
20
 10
-66.35034942626953
 20
60.11798477172852
  0
VERTEX
  8
20
 10
-65.88159942626953
 20
59.64923477172852
  0
SEQEND
  8
20
  0
POLYLINE
  8
20
  6
CONTINUOUS
 66
     1
 70
     0
 40
0.0
 41
0.0
  0
VERTEX
  8
20
 10
-67.38159942626953
 20
58.14923477172852
  0
VERTEX
  8
20
 10
-67.38159942626953
 20
60.11798477172852
  0
SEQEND
  8
20
  0
POLYLINE
  8
20
  6
CONTINUOUS
 66
     1
 70
     0
 40
0.0
 41
0.0
  0
VERTEX
  8
20
 10
-63.81909942626953
 20
58.14923477172852
  0
VERTEX
  8
20
 10
-63.91284942626953
 20
58.61798477172852
  0
VERTEX
  8
20
 10
-64.38159942626953
 20
58.14923477172852
  0
VERTEX
  8
20
 10
-64.85034942626953
 20
58.14923477172852
  0
VERTEX
  8
20
 10
-65.31909942626953
 20
58.61798477172852
  0
VERTEX
  8
20
 10
-65.31909942626953
 20
59.64923477172852
  0
VERTEX
  8
20
 10
-64.85034942626953
 20
60.11798477172852
  0
VERTEX
  8
20
 10
-64.38159942626953
 20
60.11798477172852
  0
VERTEX
  8
20
 10
-63.91284942626953
 20
59.64923477172852
  0
SEQEND
  8
20
  0
POLYLINE
  8
20
  6
CONTINUOUS
 66
     1
 70
     0
 40
0.0
 41
0.0
  0
VERTEX
  8
20
 10
-63.91284942626953
 20
60.02423477172852
  0
VERTEX
  8
20
 10
-63.91284942626953
 20
58.61798477172852
  0
SEQEND
  8
20
  0
POLYLINE
  8
20
  6
CONTINUOUS
 66
     1
 70
     0
 40
0.0
 41
0.0
  0
VERTEX
  8
20
 10
-63.25659942626953
 20
60.11798477172852
  0
VERTEX
  8
20
 10
-63.25659942626953
 20
58.14923477172852
  0
SEQEND
  8
20
  0
POLYLINE
  8
20
  6
CONTINUOUS
 66
     1
 70
     0
 40
0.0
 41
0.0
  0
VERTEX
  8
20
 10
-63.25659942626953
 20
59.46173477172852
  0
VERTEX
  8
20
 10
-62.69409942626953
 20
60.11798477172852
  0
VERTEX
  8
20
 10
-62.31909942626953
 20
60.11798477172852
  0
VERTEX
  8
20
 10
-61.75659942626953
 20
59.46173477172852
  0
VERTEX
  8
20
 10
-61.75659942626953
 20
58.14923477172852
  0
SEQEND
  8
20
  0
POLYLINE
  8
20
  6
CONTINUOUS
 66
     1
 70
     0
 40
0.0
 41
0.0
  0
VERTEX
  8
20
 10
-59.78784942626953
 20
59.83673477172852
 42
0.1732112439701306
  0
VERTEX
  8
20
 10
-60.44409942626953
 20
60.11798477172852
 42
0.3831943408831705
  0
VERTEX
  8
20
 10
-61.10034942626953
 20
59.69610977172852
 42
0.4770693477953776
  0
VERTEX
  8
20
 10
-60.58472442626953
 20
59.13360977172852
 42
-0.2
  0
VERTEX
  8
20
 10
-59.88159942626953
 20
58.89923477172852
 42
-0.4212946310133968
  0
VERTEX
  8
20
 10
-59.97534942626953
 20
58.24298477172852
 42
-0.3380596120367794
  0
VERTEX
  8
20
 10
-61.10034942626953
 20
58.43048477172852
  0
SEQEND
  8
20
  0
POLYLINE
  8
20
  6
CONTINUOUS
 66
     1
 70
     0
 40
0.0
 41
0.0
  0
VERTEX
  8
20
 10
-59.13159942626953
 20
60.11798477172852
  0
VERTEX
  8
20
 10
-59.13159942626953
 20
58.14923477172852
  0
SEQEND
  8
20
  0
POLYLINE
  8
20
  6
CONTINUOUS
 66
     1
 70
     0
 40
0.0
 41
0.0
  0
VERTEX
  8
20
 10
-57.63159942626953
 20
58.14923477172852
  0
VERTEX
  8
20
 10
-57.63159942626953
 20
59.46173477172852
  0
VERTEX
  8
20
 10
-58.00659942626953
 20
60.11798477172852
  0
VERTEX
  8
20
 10
-58.38159942626953
 20
59.46173477172852
  0
VERTEX
  8
20
 10
-58.75659942626953
 20
60.11798477172852
  0
VERTEX
  8
20
 10
-59.13159942626953
 20
59.46173477172852
  0
SEQEND
  8
20
  0
POLYLINE
  8
20
  6
CONTINUOUS
 66
     1
 70
     0
 40
0.0
 41
0.0
  0
VERTEX
  8
20
 10
-58.38159942626953
 20
59.46173477172852
  0
VERTEX
  8
20
 10
-58.38159942626953
 20
58.14923477172852
  0
SEQEND
  8
20
  0
POLYLINE
  8
20
  6
CONTINUOUS
 66
     1
 70
     0
 40
0.0
 41
0.0
  0
VERTEX
  8
20
 10
-56.41284942626953
 20
60.11798477172852
  0
VERTEX
  8
20
 10
-56.41284942626953
 20
58.33673477172852
  0
VERTEX
  8
20
 10
-56.22534942626953
 20
58.14923477172852
  0
VERTEX
  8
20
 10
-56.03784942626953
 20
58.14923477172852
  0
SEQEND
  8
20
  0
POLYLINE
  8
20
  6
CONTINUOUS
 66
     1
 70
     0
 40
0.0
 41
0.0
  0
VERTEX
  8
20
 10
-56.60034942626953
 20
61.14923477172852
  0
VERTEX
  8
20
 10
-56.22534942626953
 20
61.14923477172852
  0
VERTEX
  8
20
 10
-56.22534942626953
 20
60.77423477172852
  0
VERTEX
  8
20
 10
-56.60034942626953
 20
60.77423477172852
  0
VERTEX
  8
20
 10
-56.60034942626953
 20
61.14923477172852
  0
SEQEND
  8
20
  0
POLYLINE
  8
20
  6
CONTINUOUS
 66
     1
 70
     0
 40
0.0
 41
0.0
  0
VERTEX
  8
20
 10
-55.00659942626953
 20
60.02423477172852
  0
VERTEX
  8
20
 10
-53.88159942626953
 20
60.02423477172852
  0
SEQEND
  8
20
  0
POLYLINE
  8
20
  6
CONTINUOUS
 66
     1
 70
     0
 40
0.0
 41
0.0
  0
VERTEX
  8
20
 10
-54.44409942626953
 20
61.14923477172852
  0
VERTEX
  8
20
 10
-54.44409942626953
 20
58.43048477172852
  0
VERTEX
  8
20
 10
-54.16284942626953
 20
58.14923477172852
  0
VERTEX
  8
20
 10
-53.88159942626953
 20
58.14923477172852
  0
SEQEND
  8
20
  0
POLYLINE
  8
20
  6
CONTINUOUS
 66
     1
 70
     0
 40
0.0
 41
0.0
  0
VERTEX
  8
20
 10
-52.94409942626953
 20
60.02423477172852
  0
VERTEX
  8
20
 10
-51.81909942626953
 20
60.02423477172852
  0
SEQEND
  8
20
  0
POLYLINE
  8
20
  6
CONTINUOUS
 66
     1
 70
     0
 40
0.0
 41
0.0
  0
VERTEX
  8
20
 10
-52.38159942626953
 20
61.14923477172852
  0
VERTEX
  8
20
 10
-52.38159942626953
 20
58.43048477172852
  0
VERTEX
  8
20
 10
-52.10034942626953
 20
58.14923477172852
  0
VERTEX
  8
20
 10
-51.81909942626953
 20
58.14923477172852
  0
SEQEND
  8
20
  0
POLYLINE
  8
20
  6
CONTINUOUS
 66
     1
 70
     0
 40
0.0
 41
0.0
  0
VERTEX
  8
20
 10
-49.38159942626953
 20
58.61798477172852
  0
VERTEX
  8
20
 10
-49.85034942626953
 20
58.14923477172852
  0
VERTEX
  8
20
 10
-50.41284942626953
 20
58.14923477172852
  0
VERTEX
  8
20
 10
-50.88159942626953
 20
58.61798477172852
  0
VERTEX
  8
20
 10
-50.88159942626953
 20
59.64923477172852
  0
VERTEX
  8
20
 10
-50.41284942626953
 20
60.11798477172852
  0
VERTEX
  8
20
 10
-49.85034942626953
 20
60.11798477172852
  0
VERTEX
  8
20
 10
-49.38159942626953
 20
59.64923477172852
  0
VERTEX
  8
20
 10
-49.38159942626953
 20
59.13360977172852
  0
VERTEX
  8
20
 10
-50.88159942626953
 20
59.13360977172852
  0
SEQEND
  8
20
  0
POLYLINE
  8
20
  6
CONTINUOUS
 66
     1
 70
     0
 40
0.0
 41
0.0
  0
VERTEX
  8
20
 10
-48.81909942626953
 20
59.64923477172852
  0
VERTEX
  8
20
 10
-48.35034942626953
 20
60.11798477172852
  0
VERTEX
  8
20
 10
-47.78784942626953
 20
60.11798477172852
  0
VERTEX
  8
20
 10
-47.31909942626953
 20
59.64923477172852
  0
SEQEND
  8
20
  0
POLYLINE
  8
20
  6
CONTINUOUS
 66
     1
 70
     0
 40
0.0
 41
0.0
  0
VERTEX
  8
20
 10
-48.81909942626953
 20
58.14923477172852
  0
VERTEX
  8
20
 10
-48.81909942626953
 20
60.11798477172852
  0
SEQEND
  8
20
  0
ENDBLK
  8
20
  0
BLOCK
  8
20
  2
COMP28
 70
    64
 10
0.0
 20
0.0
  0
POLYLINE
  8
20
  6
CONTINUOUS
 66
     1
 70
     0
 40
0.0
 41
0.0
  0
VERTEX
  8
20
 10
-51.95807266235352
 20
45.16862106323242
  0
VERTEX
  8
20
 10
-51.20807266235352
 20
45.16862106323242
 42
0.4142135623730875
  0
VERTEX
  8
20
 10
-50.45807266235352
 20
45.91862106323242
 42
0.4142135623730875
  0
VERTEX
  8
20
 10
-51.20807266235352
 20
46.66862106323242
  0
VERTEX
  8
20
 10
-51.95807266235352
 20
46.66862106323242
  0
VERTEX
  8
20
 10
-51.95807266235352
 20
43.66862106323242
  0
SEQEND
  8
20
  0
POLYLINE
  8
20
  6
CONTINUOUS
 66
     1
 70
     0
 40
0.0
 41
0.0
  0
VERTEX
  8
20
 10
-49.89557266235352
 20
46.01237106323242
  0
VERTEX
  8
20
 10
-49.89557266235352
 20
44.23112106323242
 42
0.75
  0
VERTEX
  8
20
 10
-48.39557266235352
 20
44.23112106323242
  0
VERTEX
  8
20
 10
-48.39557266235352
 20
46.01237106323242
 42
0.8749999999999999
  0
VERTEX
  8
20
 10
-49.89557266235352
 20
46.01237106323242
  0
SEQEND
  8
20
  0
POLYLINE
  8
20
  6
CONTINUOUS
 66
     1
 70
     0
 40
0.0
 41
0.0
  0
VERTEX
  8
20
 10
-46.33307266235352
 20
46.66862106323242
  0
VERTEX
  8
20
 10
-46.70807266235352
 20
43.66862106323242
  0
VERTEX
  8
20
 10
-47.08307266235352
 20
46.57487106323242
  0
VERTEX
  8
20
 10
-47.45807266235352
 20
43.66862106323242
  0
VERTEX
  8
20
 10
-47.83307266235352
 20
46.66862106323242
  0
SEQEND
  8
20
  0
POLYLINE
  8
20
  6
CONTINUOUS
 66
     1
 70
     0
 40
0.0
 41
0.0
  0
VERTEX
  8
20
 10
-44.27057266235352
 20
46.66862106323242
  0
VERTEX
  8
20
 10
-45.77057266235352
 20
46.66862106323242
  0
VERTEX
  8
20
 10
-45.77057266235352
 20
43.66862106323242
  0
VERTEX
  8
20
 10
-44.27057266235352
 20
43.66862106323242
  0
SEQEND
  8
20
  0
POLYLINE
  8
20
  6
CONTINUOUS
 66
     1
 70
     0
 40
0.0
 41
0.0
  0
VERTEX
  8
20
 10
-45.77057266235352
 20
45.16862106323242
  0
VERTEX
  8
20
 10
-44.27057266235352
 20
45.16862106323242
  0
SEQEND
  8
20
  0
POLYLINE
  8
20
  6
CONTINUOUS
 66
     1
 70
     0
 40
0.0
 41
0.0
  0
VERTEX
  8
20
 10
-43.70807266235352
 20
45.16862106323242
  0
VERTEX
  8
20
 10
-42.95807266235352
 20
45.16862106323242
 42
0.4142135623730875
  0
VERTEX
  8
20
 10
-42.20807266235352
 20
45.91862106323242
 42
0.4142135623730875
  0
VERTEX
  8
20
 10
-42.95807266235352
 20
46.66862106323242
  0
VERTEX
  8
20
 10
-43.70807266235352
 20
46.66862106323242
  0
VERTEX
  8
20
 10
-43.70807266235352
 20
43.66862106323242
  0
SEQEND
  8
20
  0
POLYLINE
  8
20
  6
CONTINUOUS
 66
     1
 70
     0
 40
0.0
 41
0.0
  0
VERTEX
  8
20
 10
-42.20807266235352
 20
43.66862106323242
  0
VERTEX
  8
20
 10
-42.95807266235352
 20
45.16862106323242
  0
SEQEND
  8
20
  0
ENDBLK
  8
20
  0
BLOCK
  8
20
  2
COMP29
 70
    64
 10
0.0
 20
0.0
  0
POLYLINE
  8
20
  6
CONTINUOUS
 66
     1
 70
     0
 40
0.0
 41
0.0
  0
VERTEX
  8
20
 10
-51.95221328735352
 20
31.56541633605957
  0
VERTEX
  8
20
 10
-50.45221328735352
 20
31.56541633605957
  0
VERTEX
  8
20
 10
-51.95221328735352
 20
28.56541633605957
  0
VERTEX
  8
20
 10
-50.45221328735352
 20
28.56541633605957
  0
SEQEND
  8
20
  0
POLYLINE
  8
20
  6
CONTINUOUS
 66
     1
 70
     0
 40
0.0
 41
0.0
  0
VERTEX
  8
20
 10
-48.38971328735352
 20
31.56541633605957
  0
VERTEX
  8
20
 10
-49.88971328735352
 20
31.56541633605957
  0
VERTEX
  8
20
 10
-49.88971328735352
 20
28.56541633605957
  0
VERTEX
  8
20
 10
-48.38971328735352
 20
28.56541633605957
  0
SEQEND
  8
20
  0
POLYLINE
  8
20
  6
CONTINUOUS
 66
     1
 70
     0
 40
0.0
 41
0.0
  0
VERTEX
  8
20
 10
-49.88971328735352
 20
30.06541633605957
  0
VERTEX
  8
20
 10
-48.38971328735352
 20
30.06541633605957
  0
SEQEND
  8
20
  0
POLYLINE
  8
20
  6
CONTINUOUS
 66
     1
 70
     0
 40
0.0
 41
0.0
  0
VERTEX
  8
20
 10
-47.82721328735352
 20
30.06541633605957
  0
VERTEX
  8
20
 10
-47.07721328735352
 20
30.06541633605957
 42
0.4142135623730903
  0
VERTEX
  8
20
 10
-46.32721328735352
 20
30.81541633605957
 42
0.4142135623730942
  0
VERTEX
  8
20
 10
-47.07721328735352
 20
31.56541633605957
  0
VERTEX
  8
20
 10
-47.82721328735352
 20
31.56541633605957
  0
VERTEX
  8
20
 10
-47.82721328735352
 20
28.56541633605957
  0
SEQEND
  8
20
  0
POLYLINE
  8
20
  6
CONTINUOUS
 66
     1
 70
     0
 40
0.0
 41
0.0
  0
VERTEX
  8
20
 10
-46.32721328735352
 20
28.56541633605957
  0
VERTEX
  8
20
 10
-47.07721328735352
 20
30.06541633605957
  0
SEQEND
  8
20
  0
POLYLINE
  8
20
  6
CONTINUOUS
 66
     1
 70
     0
 40
0.0
 41
0.0
  0
VERTEX
  8
20
 10
-45.76471328735352
 20
30.90916633605957
  0
VERTEX
  8
20
 10
-45.76471328735352
 20
29.12791633605957
 42
0.75
  0
VERTEX
  8
20
 10
-44.26471328735352
 20
29.12791633605957
  0
VERTEX
  8
20
 10
-44.26471328735352
 20
30.90916633605957
 42
0.8749999999999999
  0
VERTEX
  8
20
 10
-45.76471328735352
 20
30.90916633605957
  0
SEQEND
  8
20
  0
ENDBLK
  8
20
  0
BLOCK
  8
20
  2
COMP30
 70
    64
 10
0.0
 20
0.0
  0
POLYLINE
  8
20
  6
CONTINUOUS
 66
     1
 70
     0
 40
0.0
 41
0.0
  0
VERTEX
  8
20
 10
-50.45807266235352
 20
23.01910591125488
 42
0.3601264978076101
  0
VERTEX
  8
20
 10
-51.20807266235352
 20
23.58160591125488
 42
0.398472645277123
  0
VERTEX
  8
20
 10
-51.95807266235352
 20
22.92535591125488
 42
0.4142154868133268
  0
VERTEX
  8
20
 10
-51.20807266235352
 20
22.08160591125488
 42
-0.3750000000000001
  0
VERTEX
  8
20
 10
-50.45807266235352
 20
21.33160591125488
 42
-0.4832250238134313
  0
VERTEX
  8
20
 10
-51.16119766235352
 20
20.58160591125488
 42
-0.3193893660608566
  0
VERTEX
  8
20
 10
-51.95807266235352
 20
21.14410591125488
  0
SEQEND
  8
20
  0
POLYLINE
  8
20
  6
CONTINUOUS
 66
     1
 70
     0
 40
0.0
 41
0.0
  0
VERTEX
  8
20
 10
-49.89557266235352
 20
22.08160591125488
  0
VERTEX
  8
20
 10
-49.14557266235352
 20
22.08160591125488
 42
0.4142135623730903
  0
VERTEX
  8
20
 10
-48.39557266235352
 20
22.83160591125488
 42
0.4142135623730942
  0
VERTEX
  8
20
 10
-49.14557266235352
 20
23.58160591125488
  0
VERTEX
  8
20
 10
-49.89557266235352
 20
23.58160591125488
  0
VERTEX
  8
20
 10
-49.89557266235352
 20
20.58160591125488
  0
SEQEND
  8
20
  0
POLYLINE
  8
20
  6
CONTINUOUS
 66
     1
 70
     0
 40
0.0
 41
0.0
  0
VERTEX
  8
20
 10
-47.83307266235352
 20
20.58160591125488
  0
VERTEX
  8
20
 10
-47.08307266235352
 20
23.58160591125488
  0
VERTEX
  8
20
 10
-46.33307266235352
 20
20.58160591125488
  0
SEQEND
  8
20
  0
POLYLINE
  8
20
  6
CONTINUOUS
 66
     1
 70
     0
 40
0.0
 41
0.0
  0
VERTEX
  8
20
 10
-46.56744766235352
 20
21.51910591125488
  0
VERTEX
  8
20
 10
-47.59869766235352
 20
21.51910591125488
  0
SEQEND
  8
20
  0
POLYLINE
  8
20
  6
CONTINUOUS
 66
     1
 70
     0
 40
0.0
 41
0.0
  0
VERTEX
  8
20
 10
-45.77057266235352
 20
20.58160591125488
  0
VERTEX
  8
20
 10
-45.77057266235352
 20
23.58160591125488
  0
VERTEX
  8
20
 10
-44.27057266235352
 20
20.58160591125488
  0
VERTEX
  8
20
 10
-44.27057266235352
 20
23.58160591125488
  0
SEQEND
  8
20
  0
ENDBLK
  8
20
  0
BLOCK
  8
20
  2
COMP31
 70
    64
 10
0.0
 20
0.0
  0
POLYLINE
  8
20
  6
CONTINUOUS
 66
     1
 70
     0
 40
0.0
 41
0.0
  0
VERTEX
  8
20
 10
-50.86790084838867
 20
14.86539173126221
 42
0.8749999999999999
  0
VERTEX
  8
20
 10
-52.36790084838867
 20
14.86539173126221
  0
VERTEX
  8
20
 10
-52.36790084838867
 20
13.08414173126221
 42
0.75
  0
VERTEX
  8
20
 10
-50.86790084838867
 20
13.08414173126221
  0
SEQEND
  8
20
  0
POLYLINE
  8
20
  6
CONTINUOUS
 66
     1
 70
     0
 40
0.0
 41
0.0
  0
VERTEX
  8
20
 10
-50.30540084838867
 20
15.52164173126221
  0
VERTEX
  8
20
 10
-50.30540084838867
 20
12.52164173126221
  0
SEQEND
  8
20
  0
POLYLINE
  8
20
  6
CONTINUOUS
 66
     1
 70
     0
 40
0.0
 41
0.0
  0
VERTEX
  8
20
 10
-48.80540084838867
 20
15.52164173126221
  0
VERTEX
  8
20
 10
-48.80540084838867
 20
12.52164173126221
  0
SEQEND
  8
20
  0
POLYLINE
  8
20
  6
CONTINUOUS
 66
     1
 70
     0
 40
0.0
 41
0.0
  0
VERTEX
  8
20
 10
-50.30540084838867
 20
14.02164173126221
  0
VERTEX
  8
20
 10
-48.80540084838867
 20
14.02164173126221
  0
SEQEND
  8
20
  0
POLYLINE
  8
20
  6
CONTINUOUS
 66
     1
 70
     0
 40
0.0
 41
0.0
  0
VERTEX
  8
20
 10
-46.74290084838867
 20
15.52164173126221
  0
VERTEX
  8
20
 10
-48.24290084838867
 20
15.52164173126221
  0
VERTEX
  8
20
 10
-48.24290084838867
 20
12.52164173126221
  0
VERTEX
  8
20
 10
-46.74290084838867
 20
12.52164173126221
  0
SEQEND
  8
20
  0
POLYLINE
  8
20
  6
CONTINUOUS
 66
     1
 70
     0
 40
0.0
 41
0.0
  0
VERTEX
  8
20
 10
-48.24290084838867
 20
14.02164173126221
  0
VERTEX
  8
20
 10
-46.74290084838867
 20
14.02164173126221
  0
SEQEND
  8
20
  0
POLYLINE
  8
20
  6
CONTINUOUS
 66
     1
 70
     0
 40
0.0
 41
0.0
  0
VERTEX
  8
20
 10
-44.68040084838867
 20
14.86539173126221
 42
0.8749999999999999
  0
VERTEX
  8
20
 10
-46.18040084838867
 20
14.86539173126221
  0
VERTEX
  8
20
 10
-46.18040084838867
 20
13.08414173126221
 42
0.75
  0
VERTEX
  8
20
 10
-44.68040084838867
 20
13.08414173126221
  0
SEQEND
  8
20
  0
POLYLINE
  8
20
  6
CONTINUOUS
 66
     1
 70
     0
 40
0.0
 41
0.0
  0
VERTEX
  8
20
 10
-44.11790084838867
 20
15.52164173126221
  0
VERTEX
  8
20
 10
-44.11790084838867
 20
12.52164173126221
  0
SEQEND
  8
20
  0
POLYLINE
  8
20
  6
CONTINUOUS
 66
     1
 70
     0
 40
0.0
 41
0.0
  0
VERTEX
  8
20
 10
-44.11790084838867
 20
13.64664173126221
  0
VERTEX
  8
20
 10
-42.61790084838867
 20
15.52164173126221
  0
SEQEND
  8
20
  0
POLYLINE
  8
20
  6
CONTINUOUS
 66
     1
 70
     0
 40
0.0
 41
0.0
  0
VERTEX
  8
20
 10
-43.64915084838867
 20
14.20914173126221
  0
VERTEX
  8
20
 10
-42.61790084838867
 20
12.52164173126221
  0
SEQEND
  8
20
  0
ENDBLK
  8
20
  0
BLOCK
  8
20
  2
COMP32
 70
    64
 10
0.0
 20
0.0
  0
POLYLINE
  8
20
  6
CONTINUOUS
 66
     1
 70
     0
 40
0.0
 41
0.0
  0
VERTEX
  8
20
 10
-51.80767440795898
 20
3.524948358535767
  0
VERTEX
  8
20
 10
-50.30767440795898
 20
3.524948358535767
  0
VERTEX
  8
20
 10
-51.80767440795898
 20
0.5249484181404114
  0
VERTEX
  8
20
 10
-50.30767440795898
 20
0.5249484181404114
  0
SEQEND
  8
20
  0
POLYLINE
  8
20
  6
CONTINUOUS
 66
     1
 70
     0
 40
0.0
 41
0.0
  0
VERTEX
  8
20
 10
-48.24517440795898
 20
3.524948358535767
  0
VERTEX
  8
20
 10
-49.74517440795898
 20
3.524948358535767
  0
VERTEX
  8
20
 10
-49.74517440795898
 20
0.5249484181404114
  0
VERTEX
  8
20
 10
-48.24517440795898
 20
0.5249484181404114
  0
SEQEND
  8
20
  0
POLYLINE
  8
20
  6
CONTINUOUS
 66
     1
 70
     0
 40
0.0
 41
0.0
  0
VERTEX
  8
20
 10
-49.74517440795898
 20
2.024948358535767
  0
VERTEX
  8
20
 10
-48.24517440795898
 20
2.024948358535767
  0
SEQEND
  8
20
  0
POLYLINE
  8
20
  6
CONTINUOUS
 66
     1
 70
     0
 40
0.0
 41
0.0
  0
VERTEX
  8
20
 10
-47.68267440795898
 20
2.024948358535767
  0
VERTEX
  8
20
 10
-46.93267440795898
 20
2.024948358535767
 42
0.4142135623730895
  0
VERTEX
  8
20
 10
-46.18267440795898
 20
2.774948358535767
 42
0.4142135623730925
  0
VERTEX
  8
20
 10
-46.93267440795898
 20
3.524948358535767
  0
VERTEX
  8
20
 10
-47.68267440795898
 20
3.524948358535767
  0
VERTEX
  8
20
 10
-47.68267440795898
 20
0.5249484181404114
  0
SEQEND
  8
20
  0
POLYLINE
  8
20
  6
CONTINUOUS
 66
     1
 70
     0
 40
0.0
 41
0.0
  0
VERTEX
  8
20
 10
-46.18267440795898
 20
0.5249484181404114
  0
VERTEX
  8
20
 10
-46.93267440795898
 20
2.024948358535767
  0
SEQEND
  8
20
  0
POLYLINE
  8
20
  6
CONTINUOUS
 66
     1
 70
     0
 40
0.0
 41
0.0
  0
VERTEX
  8
20
 10
-45.62017440795898
 20
2.868698358535767
  0
VERTEX
  8
20
 10
-45.62017440795898
 20
1.087448358535767
 42
0.7499999205271404
  0
VERTEX
  8
20
 10
-44.12017440795898
 20
1.087448358535767
  0
VERTEX
  8
20
 10
-44.12017440795898
 20
2.868698358535767
 42
0.8749999999999999
  0
VERTEX
  8
20
 10
-45.62017440795898
 20
2.868698358535767
  0
SEQEND
  8
20
  0
ENDBLK
  8
20
  0
BLOCK
  8
20
  2
COMP33
 70
    64
 10
0.0
 20
0.0
  0
POLYLINE
  8
20
  6
CONTINUOUS
 66
     1
 70
     0
 40
0.0
 41
0.0
  0
VERTEX
  8
20
 10
-50.18485260009766
 20
-5.122464179992676
 42
0.3601264978076101
  0
VERTEX
  8
20
 10
-50.93485260009766
 20
-4.559964179992676
 42
0.398472645277123
  0
VERTEX
  8
20
 10
-51.68485260009766
 20
-5.216214179992676
 42
0.4142146640365925
  0
VERTEX
  8
20
 10
-50.93485260009766
 20
-6.059964179992676
 42
-0.3750000000000001
  0
VERTEX
  8
20
 10
-50.18485260009766
 20
-6.809964179992676
 42
-0.4832250238134313
  0
VERTEX
  8
20
 10
-50.88797760009766
 20
-7.559964179992676
 42
-0.3193893660608566
  0
VERTEX
  8
20
 10
-51.68485260009766
 20
-6.997464179992676
  0
SEQEND
  8
20
  0
POLYLINE
  8
20
  6
CONTINUOUS
 66
     1
 70
     0
 40
0.0
 41
0.0
  0
VERTEX
  8
20
 10
-49.62235260009766
 20
-6.059964179992676
  0
VERTEX
  8
20
 10
-48.87235260009766
 20
-6.059964179992676
 42
0.4142135623730895
  0
VERTEX
  8
20
 10
-48.12235260009766
 20
-5.309964179992676
 42
0.4142135623730925
  0
VERTEX
  8
20
 10
-48.87235260009766
 20
-4.559964179992676
  0
VERTEX
  8
20
 10
-49.62235260009766
 20
-4.559964179992676
  0
VERTEX
  8
20
 10
-49.62235260009766
 20
-7.559964179992676
  0
SEQEND
  8
20
  0
POLYLINE
  8
20
  6
CONTINUOUS
 66
     1
 70
     0
 40
0.0
 41
0.0
  0
VERTEX
  8
20
 10
-47.55985260009766
 20
-7.559964179992676
  0
VERTEX
  8
20
 10
-46.80985260009766
 20
-4.559964179992676
  0
VERTEX
  8
20
 10
-46.05985260009766
 20
-7.559964179992676
  0
SEQEND
  8
20
  0
POLYLINE
  8
20
  6
CONTINUOUS
 66
     1
 70
     0
 40
0.0
 41
0.0
  0
VERTEX
  8
20
 10
-46.29422760009766
 20
-6.622464179992676
  0
VERTEX
  8
20
 10
-47.32547760009766
 20
-6.622464179992676
  0
SEQEND
  8
20
  0
POLYLINE
  8
20
  6
CONTINUOUS
 66
     1
 70
     0
 40
0.0
 41
0.0
  0
VERTEX
  8
20
 10
-45.49735260009766
 20
-7.559964179992676
  0
VERTEX
  8
20
 10
-45.49735260009766
 20
-4.559964179992676
  0
VERTEX
  8
20
 10
-43.99735260009766
 20
-7.559964179992676
  0
VERTEX
  8
20
 10
-43.99735260009766
 20
-4.559964179992676
  0
SEQEND
  8
20
  0
ENDBLK
  8
20
  0
BLOCK
  8
20
  2
COMP34
 70
    64
 10
0.0
 20
0.0
  0
POLYLINE
  8
20
  6
CONTINUOUS
 66
     1
 70
     0
 40
0.0
 41
0.0
  0
VERTEX
  8
20
 10
-50.45807266235352
 20
-13.00295925140381
 42
0.8749999999999999
  0
VERTEX
  8
20
 10
-51.95807266235352
 20
-13.00295925140381
  0
VERTEX
  8
20
 10
-51.95807266235352
 20
-14.78420925140381
 42
0.75
  0
VERTEX
  8
20
 10
-50.45807266235352
 20
-14.78420925140381
  0
SEQEND
  8
20
  0
POLYLINE
  8
20
  6
CONTINUOUS
 66
     1
 70
     0
 40
0.0
 41
0.0
  0
VERTEX
  8
20
 10
-49.89557266235352
 20
-12.34670925140381
  0
VERTEX
  8
20
 10
-49.89557266235352
 20
-15.34670925140381
  0
SEQEND
  8
20
  0
POLYLINE
  8
20
  6
CONTINUOUS
 66
     1
 70
     0
 40
0.0
 41
0.0
  0
VERTEX
  8
20
 10
-48.39557266235352
 20
-12.34670925140381
  0
VERTEX
  8
20
 10
-48.39557266235352
 20
-15.34670925140381
  0
SEQEND
  8
20
  0
POLYLINE
  8
20
  6
CONTINUOUS
 66
     1
 70
     0
 40
0.0
 41
0.0
  0
VERTEX
  8
20
 10
-49.89557266235352
 20
-13.84670925140381
  0
VERTEX
  8
20
 10
-48.39557266235352
 20
-13.84670925140381
  0
SEQEND
  8
20
  0
POLYLINE
  8
20
  6
CONTINUOUS
 66
     1
 70
     0
 40
0.0
 41
0.0
  0
VERTEX
  8
20
 10
-46.33307266235352
 20
-12.34670925140381
  0
VERTEX
  8
20
 10
-47.83307266235352
 20
-12.34670925140381
  0
VERTEX
  8
20
 10
-47.83307266235352
 20
-15.34670925140381
  0
VERTEX
  8
20
 10
-46.33307266235352
 20
-15.34670925140381
  0
SEQEND
  8
20
  0
POLYLINE
  8
20
  6
CONTINUOUS
 66
     1
 70
     0
 40
0.0
 41
0.0
  0
VERTEX
  8
20
 10
-47.83307266235352
 20
-13.84670925140381
  0
VERTEX
  8
20
 10
-46.33307266235352
 20
-13.84670925140381
  0
SEQEND
  8
20
  0
POLYLINE
  8
20
  6
CONTINUOUS
 66
     1
 70
     0
 40
0.0
 41
0.0
  0
VERTEX
  8
20
 10
-44.27057266235352
 20
-13.00295925140381
 42
0.8749999999999999
  0
VERTEX
  8
20
 10
-45.77057266235352
 20
-13.00295925140381
  0
VERTEX
  8
20
 10
-45.77057266235352
 20
-14.78420925140381
 42
0.75
  0
VERTEX
  8
20
 10
-44.27057266235352
 20
-14.78420925140381
  0
SEQEND
  8
20
  0
POLYLINE
  8
20
  6
CONTINUOUS
 66
     1
 70
     0
 40
0.0
 41
0.0
  0
VERTEX
  8
20
 10
-43.70807266235352
 20
-12.34670925140381
  0
VERTEX
  8
20
 10
-43.70807266235352
 20
-15.34670925140381
  0
SEQEND
  8
20
  0
POLYLINE
  8
20
  6
CONTINUOUS
 66
     1
 70
     0
 40
0.0
 41
0.0
  0
VERTEX
  8
20
 10
-43.70807266235352
 20
-14.22170925140381
  0
VERTEX
  8
20
 10
-42.20807266235352
 20
-12.34670925140381
  0
SEQEND
  8
20
  0
POLYLINE
  8
20
  6
CONTINUOUS
 66
     1
 70
     0
 40
0.0
 41
0.0
  0
VERTEX
  8
20
 10
-43.23932266235352
 20
-13.65920925140381
  0
VERTEX
  8
20
 10
-42.20807266235352
 20
-15.34670925140381
  0
SEQEND
  8
20
  0
ENDBLK
  8
20
  0
BLOCK
  8
20
  2
COMP35
 70
    64
 10
0.0
 20
0.0
  0
POLYLINE
  8
20
  6
CONTINUOUS
 66
     1
 70
     0
 40
0.0
 41
0.0
  0
VERTEX
  8
20
 10
-51.99463653564453
 20
-24.18040466308594
  0
VERTEX
  8
20
 10
-50.49463653564453
 20
-24.18040466308594
  0
VERTEX
  8
20
 10
-51.99463653564453
 20
-27.18040466308594
  0
VERTEX
  8
20
 10
-50.49463653564453
 20
-27.18040466308594
  0
SEQEND
  8
20
  0
POLYLINE
  8
20
  6
CONTINUOUS
 66
     1
 70
     0
 40
0.0
 41
0.0
  0
VERTEX
  8
20
 10
-48.43213653564453
 20
-24.18040466308594
  0
VERTEX
  8
20
 10
-49.93213653564453
 20
-24.18040466308594
  0
VERTEX
  8
20
 10
-49.93213653564453
 20
-27.18040466308594
  0
VERTEX
  8
20
 10
-48.43213653564453
 20
-27.18040466308594
  0
SEQEND
  8
20
  0
POLYLINE
  8
20
  6
CONTINUOUS
 66
     1
 70
     0
 40
0.0
 41
0.0
  0
VERTEX
  8
20
 10
-49.93213653564453
 20
-25.68040466308594
  0
VERTEX
  8
20
 10
-48.43213653564453
 20
-25.68040466308594
  0
SEQEND
  8
20
  0
POLYLINE
  8
20
  6
CONTINUOUS
 66
     1
 70
     0
 40
0.0
 41
0.0
  0
VERTEX
  8
20
 10
-47.86963653564453
 20
-25.68040466308594
  0
VERTEX
  8
20
 10
-47.11963653564453
 20
-25.68040466308594
 42
0.4142135623730903
  0
VERTEX
  8
20
 10
-46.36963653564453
 20
-24.93040466308594
 42
0.4142135623730942
  0
VERTEX
  8
20
 10
-47.11963653564453
 20
-24.18040466308594
  0
VERTEX
  8
20
 10
-47.86963653564453
 20
-24.18040466308594
  0
VERTEX
  8
20
 10
-47.86963653564453
 20
-27.18040466308594
  0
SEQEND
  8
20
  0
POLYLINE
  8
20
  6
CONTINUOUS
 66
     1
 70
     0
 40
0.0
 41
0.0
  0
VERTEX
  8
20
 10
-46.36963653564453
 20
-27.18040466308594
  0
VERTEX
  8
20
 10
-47.11963653564453
 20
-25.68040466308594
  0
SEQEND
  8
20
  0
POLYLINE
  8
20
  6
CONTINUOUS
 66
     1
 70
     0
 40
0.0
 41
0.0
  0
VERTEX
  8
20
 10
-45.80713653564453
 20
-24.83665466308594
  0
VERTEX
  8
20
 10
-45.80713653564453
 20
-26.61790466308594
 42
0.75
  0
VERTEX
  8
20
 10
-44.30713653564453
 20
-26.61790466308594
  0
VERTEX
  8
20
 10
-44.30713653564453
 20
-24.83665466308594
 42
0.8749999999999999
  0
VERTEX
  8
20
 10
-45.80713653564453
 20
-24.83665466308594
  0
SEQEND
  8
20
  0
ENDBLK
  8
20
  0
BLOCK
  8
20
  2
COMP36
 70
    64
 10
0.0
 20
0.0
  0
POLYLINE
  8
20
  6
CONTINUOUS
 66
     1
 70
     0
 40
0.0
 41
0.0
  0
VERTEX
  8
20
 10
-50.86790084838867
 20
-32.99081420898438
 42
0.3601264978076101
  0
VERTEX
  8
20
 10
-51.61790084838867
 20
-32.42831420898438
 42
0.3984707689582088
  0
VERTEX
  8
20
 10
-52.36790084838867
 20
-33.08456420898438
 42
0.4142154868133268
  0
VERTEX
  8
20
 10
-51.61790084838867
 20
-33.92831420898438
 42
-0.3750000000000001
  0
VERTEX
  8
20
 10
-50.86790084838867
 20
-34.67831420898438
 42
-0.4832250238134313
  0
VERTEX
  8
20
 10
-51.57102584838867
 20
-35.42831420898438
 42
-0.3193868913193182
  0
VERTEX
  8
20
 10
-52.36790084838867
 20
-34.86581420898438
  0
SEQEND
  8
20
  0
POLYLINE
  8
20
  6
CONTINUOUS
 66
     1
 70
     0
 40
0.0
 41
0.0
  0
VERTEX
  8
20
 10
-50.30540084838867
 20
-33.92831420898438
  0
VERTEX
  8
20
 10
-49.55540084838867
 20
-33.92831420898438
 42
0.4142135623730875
  0
VERTEX
  8
20
 10
-48.80540084838867
 20
-33.17831420898438
 42
0.4142135623730875
  0
VERTEX
  8
20
 10
-49.55540084838867
 20
-32.42831420898438
  0
VERTEX
  8
20
 10
-50.30540084838867
 20
-32.42831420898438
  0
VERTEX
  8
20
 10
-50.30540084838867
 20
-35.42831420898438
  0
SEQEND
  8
20
  0
POLYLINE
  8
20
  6
CONTINUOUS
 66
     1
 70
     0
 40
0.0
 41
0.0
  0
VERTEX
  8
20
 10
-48.24290084838867
 20
-35.42831420898438
  0
VERTEX
  8
20
 10
-47.49290084838867
 20
-32.42831420898438
  0
VERTEX
  8
20
 10
-46.74290084838867
 20
-35.42831420898438
  0
SEQEND
  8
20
  0
POLYLINE
  8
20
  6
CONTINUOUS
 66
     1
 70
     0
 40
0.0
 41
0.0
  0
VERTEX
  8
20
 10
-46.97727584838867
 20
-34.49081420898438
  0
VERTEX
  8
20
 10
-48.00852584838867
 20
-34.49081420898438
  0
SEQEND
  8
20
  0
POLYLINE
  8
20
  6
CONTINUOUS
 66
     1
 70
     0
 40
0.0
 41
0.0
  0
VERTEX
  8
20
 10
-46.18040084838867
 20
-35.42831420898438
  0
VERTEX
  8
20
 10
-46.18040084838867
 20
-32.42831420898438
  0
VERTEX
  8
20
 10
-44.68040084838867
 20
-35.42831420898438
  0
VERTEX
  8
20
 10
-44.68040084838867
 20
-32.42831420898438
  0
SEQEND
  8
20
  0
ENDBLK
  8
20
  0
BLOCK
  8
20
  2
COMP37
 70
    64
 10
0.0
 20
0.0
  0
POLYLINE
  8
20
  6
CONTINUOUS
 66
     1
 70
     0
 40
0.0
 41
0.0
  0
VERTEX
  8
20
 10
-50.45807266235352
 20
-41.14452743530273
 42
0.8749999999999999
  0
VERTEX
  8
20
 10
-51.95807266235352
 20
-41.14452743530273
  0
VERTEX
  8
20
 10
-51.95807266235352
 20
-42.92577743530273
 42
0.75
  0
VERTEX
  8
20
 10
-50.45807266235352
 20
-42.92577743530273
  0
SEQEND
  8
20
  0
POLYLINE
  8
20
  6
CONTINUOUS
 66
     1
 70
     0
 40
0.0
 41
0.0
  0
VERTEX
  8
20
 10
-49.89557266235352
 20
-40.48827743530273
  0
VERTEX
  8
20
 10
-49.89557266235352
 20
-43.48827743530273
  0
SEQEND
  8
20
  0
POLYLINE
  8
20
  6
CONTINUOUS
 66
     1
 70
     0
 40
0.0
 41
0.0
  0
VERTEX
  8
20
 10
-48.39557266235352
 20
-40.48827743530273
  0
VERTEX
  8
20
 10
-48.39557266235352
 20
-43.48827743530273
  0
SEQEND
  8
20
  0
POLYLINE
  8
20
  6
CONTINUOUS
 66
     1
 70
     0
 40
0.0
 41
0.0
  0
VERTEX
  8
20
 10
-49.89557266235352
 20
-41.98827743530273
  0
VERTEX
  8
20
 10
-48.39557266235352
 20
-41.98827743530273
  0
SEQEND
  8
20
  0
POLYLINE
  8
20
  6
CONTINUOUS
 66
     1
 70
     0
 40
0.0
 41
0.0
  0
VERTEX
  8
20
 10
-46.33307266235352
 20
-40.48827743530273
  0
VERTEX
  8
20
 10
-47.83307266235352
 20
-40.48827743530273
  0
VERTEX
  8
20
 10
-47.83307266235352
 20
-43.48827743530273
  0
VERTEX
  8
20
 10
-46.33307266235352
 20
-43.48827743530273
  0
SEQEND
  8
20
  0
POLYLINE
  8
20
  6
CONTINUOUS
 66
     1
 70
     0
 40
0.0
 41
0.0
  0
VERTEX
  8
20
 10
-47.83307266235352
 20
-41.98827743530273
  0
VERTEX
  8
20
 10
-46.33307266235352
 20
-41.98827743530273
  0
SEQEND
  8
20
  0
POLYLINE
  8
20
  6
CONTINUOUS
 66
     1
 70
     0
 40
0.0
 41
0.0
  0
VERTEX
  8
20
 10
-44.27057266235352
 20
-41.14452743530273
 42
0.8749999999999999
  0
VERTEX
  8
20
 10
-45.77057266235352
 20
-41.14452743530273
  0
VERTEX
  8
20
 10
-45.77057266235352
 20
-42.92577743530273
 42
0.75
  0
VERTEX
  8
20
 10
-44.27057266235352
 20
-42.92577743530273
  0
SEQEND
  8
20
  0
POLYLINE
  8
20
  6
CONTINUOUS
 66
     1
 70
     0
 40
0.0
 41
0.0
  0
VERTEX
  8
20
 10
-43.70807266235352
 20
-40.48827743530273
  0
VERTEX
  8
20
 10
-43.70807266235352
 20
-43.48827743530273
  0
SEQEND
  8
20
  0
POLYLINE
  8
20
  6
CONTINUOUS
 66
     1
 70
     0
 40
0.0
 41
0.0
  0
VERTEX
  8
20
 10
-43.70807266235352
 20
-42.36327743530273
  0
VERTEX
  8
20
 10
-42.20807266235352
 20
-40.48827743530273
  0
SEQEND
  8
20
  0
POLYLINE
  8
20
  6
CONTINUOUS
 66
     1
 70
     0
 40
0.0
 41
0.0
  0
VERTEX
  8
20
 10
-43.23932266235352
 20
-41.80077743530273
  0
VERTEX
  8
20
 10
-42.20807266235352
 20
-43.48827743530273
  0
SEQEND
  8
20
  0
ENDBLK
  8
20
  0
BLOCK
  8
20
  2
COMP38
 70
    64
 10
0.0
 20
0.0
  0
POLYLINE
  8
20
  6
CONTINUOUS
 66
     1
 70
     0
 40
0.0
 41
0.0
  0
VERTEX
  8
20
 10
-51.95807266235352
 20
-52.50992202758789
  0
VERTEX
  8
20
 10
-50.45807266235352
 20
-52.50992202758789
  0
VERTEX
  8
20
 10
-51.95807266235352
 20
-55.50992202758789
  0
VERTEX
  8
20
 10
-50.45807266235352
 20
-55.50992202758789
  0
SEQEND
  8
20
  0
POLYLINE
  8
20
  6
CONTINUOUS
 66
     1
 70
     0
 40
0.0
 41
0.0
  0
VERTEX
  8
20
 10
-48.39557266235352
 20
-52.50992202758789
  0
VERTEX
  8
20
 10
-49.89557266235352
 20
-52.50992202758789
  0
VERTEX
  8
20
 10
-49.89557266235352
 20
-55.50992202758789
  0
VERTEX
  8
20
 10
-48.39557266235352
 20
-55.50992202758789
  0
SEQEND
  8
20
  0
POLYLINE
  8
20
  6
CONTINUOUS
 66
     1
 70
     0
 40
0.0
 41
0.0
  0
VERTEX
  8
20
 10
-49.89557266235352
 20
-54.00992202758789
  0
VERTEX
  8
20
 10
-48.39557266235352
 20
-54.00992202758789
  0
SEQEND
  8
20
  0
POLYLINE
  8
20
  6
CONTINUOUS
 66
     1
 70
     0
 40
0.0
 41
0.0
  0
VERTEX
  8
20
 10
-47.83307266235352
 20
-54.00992202758789
  0
VERTEX
  8
20
 10
-47.08307266235352
 20
-54.00992202758789
 42
0.4142135623730875
  0
VERTEX
  8
20
 10
-46.33307266235352
 20
-53.25992202758789
 42
0.4142135623730875
  0
VERTEX
  8
20
 10
-47.08307266235352
 20
-52.50992202758789
  0
VERTEX
  8
20
 10
-47.83307266235352
 20
-52.50992202758789
  0
VERTEX
  8
20
 10
-47.83307266235352
 20
-55.50992202758789
  0
SEQEND
  8
20
  0
POLYLINE
  8
20
  6
CONTINUOUS
 66
     1
 70
     0
 40
0.0
 41
0.0
  0
VERTEX
  8
20
 10
-46.33307266235352
 20
-55.50992202758789
  0
VERTEX
  8
20
 10
-47.08307266235352
 20
-54.00992202758789
  0
SEQEND
  8
20
  0
POLYLINE
  8
20
  6
CONTINUOUS
 66
     1
 70
     0
 40
0.0
 41
0.0
  0
VERTEX
  8
20
 10
-45.77057266235352
 20
-53.16617202758789
  0
VERTEX
  8
20
 10
-45.77057266235352
 20
-54.94742202758789
 42
0.75
  0
VERTEX
  8
20
 10
-44.27057266235352
 20
-54.94742202758789
  0
VERTEX
  8
20
 10
-44.27057266235352
 20
-53.16617202758789
 42
0.8749999999999999
  0
VERTEX
  8
20
 10
-45.77057266235352
 20
-53.16617202758789
  0
SEQEND
  8
20
  0
ENDBLK
  8
20
  0
BLOCK
  8
20
  2
COMP39
 70
    64
 10
0.0
 20
0.0
  0
POLYLINE
  8
20
  6
CONTINUOUS
 66
     1
 70
     0
 40
0.0
 41
0.0
  0
VERTEX
  8
20
 10
-50.59867095947266
 20
-60.89477920532227
 42
0.3601264978076101
  0
VERTEX
  8
20
 10
-51.34867095947266
 20
-60.33227920532227
 42
0.3984707689582088
  0
VERTEX
  8
20
 10
-52.09867095947266
 20
-60.98852920532227
 42
0.4142154868133268
  0
VERTEX
  8
20
 10
-51.34867095947266
 20
-61.83227920532227
 42
-0.3750000000000001
  0
VERTEX
  8
20
 10
-50.59867095947266
 20
-62.58227920532227
 42
-0.4832250238134313
  0
VERTEX
  8
20
 10
-51.30179595947266
 20
-63.33227920532227
 42
-0.3193868913193182
  0
VERTEX
  8
20
 10
-52.09867095947266
 20
-62.76977920532227
  0
SEQEND
  8
20
  0
POLYLINE
  8
20
  6
CONTINUOUS
 66
     1
 70
     0
 40
0.0
 41
0.0
  0
VERTEX
  8
20
 10
-50.03617095947266
 20
-61.83227920532227
  0
VERTEX
  8
20
 10
-49.28617095947266
 20
-61.83227920532227
 42
0.4142135623730875
  0
VERTEX
  8
20
 10
-48.53617095947266
 20
-61.08227920532227
 42
0.4142135623730875
  0
VERTEX
  8
20
 10
-49.28617095947266
 20
-60.33227920532227
  0
VERTEX
  8
20
 10
-50.03617095947266
 20
-60.33227920532227
  0
VERTEX
  8
20
 10
-50.03617095947266
 20
-63.33227920532227
  0
SEQEND
  8
20
  0
POLYLINE
  8
20
  6
CONTINUOUS
 66
     1
 70
     0
 40
0.0
 41
0.0
  0
VERTEX
  8
20
 10
-47.97367095947266
 20
-63.33227920532227
  0
VERTEX
  8
20
 10
-47.22367095947266
 20
-60.33227920532227
  0
VERTEX
  8
20
 10
-46.47367095947266
 20
-63.33227920532227
  0
SEQEND
  8
20
  0
POLYLINE
  8
20
  6
CONTINUOUS
 66
     1
 70
     0
 40
0.0
 41
0.0
  0
VERTEX
  8
20
 10
-46.70804595947266
 20
-62.39477920532227
  0
VERTEX
  8
20
 10
-47.73929595947266
 20
-62.39477920532227
  0
SEQEND
  8
20
  0
POLYLINE
  8
20
  6
CONTINUOUS
 66
     1
 70
     0
 40
0.0
 41
0.0
  0
VERTEX
  8
20
 10
-45.91117095947266
 20
-63.33227920532227
  0
VERTEX
  8
20
 10
-45.91117095947266
 20
-60.33227920532227
  0
VERTEX
  8
20
 10
-44.41117095947266
 20
-63.33227920532227
  0
VERTEX
  8
20
 10
-44.41117095947266
 20
-60.33227920532227
  0
SEQEND
  8
20
  0
ENDBLK
  8
20
  0
BLOCK
  8
20
  2
COMP40
 70
    64
 10
0.0
 20
0.0
  0
POLYLINE
  8
20
  6
CONTINUOUS
 66
     1
 70
     0
 40
0.0
 41
0.0
  0
VERTEX
  8
20
 10
-50.86790084838867
 20
-69.01287841796875
 42
0.8749999999999999
  0
VERTEX
  8
20
 10
-52.36790084838867
 20
-69.01287841796875
  0
VERTEX
  8
20
 10
-52.36790084838867
 20
-70.79412841796875
 42
0.75
  0
VERTEX
  8
20
 10
-50.86790084838867
 20
-70.79412841796875
  0
SEQEND
  8
20
  0
POLYLINE
  8
20
  6
CONTINUOUS
 66
     1
 70
     0
 40
0.0
 41
0.0
  0
VERTEX
  8
20
 10
-50.30540084838867
 20
-68.35662841796875
  0
VERTEX
  8
20
 10
-50.30540084838867
 20
-71.35662841796875
  0
SEQEND
  8
20
  0
POLYLINE
  8
20
  6
CONTINUOUS
 66
     1
 70
     0
 40
0.0
 41
0.0
  0
VERTEX
  8
20
 10
-48.80540084838867
 20
-68.35662841796875
  0
VERTEX
  8
20
 10
-48.80540084838867
 20
-71.35662841796875
  0
SEQEND
  8
20
  0
POLYLINE
  8
20
  6
CONTINUOUS
 66
     1
 70
     0
 40
0.0
 41
0.0
  0
VERTEX
  8
20
 10
-50.30540084838867
 20
-69.85662841796875
  0
VERTEX
  8
20
 10
-48.80540084838867
 20
-69.85662841796875
  0
SEQEND
  8
20
  0
POLYLINE
  8
20
  6
CONTINUOUS
 66
     1
 70
     0
 40
0.0
 41
0.0
  0
VERTEX
  8
20
 10
-46.74290084838867
 20
-68.35662841796875
  0
VERTEX
  8
20
 10
-48.24290084838867
 20
-68.35662841796875
  0
VERTEX
  8
20
 10
-48.24290084838867
 20
-71.35662841796875
  0
VERTEX
  8
20
 10
-46.74290084838867
 20
-71.35662841796875
  0
SEQEND
  8
20
  0
POLYLINE
  8
20
  6
CONTINUOUS
 66
     1
 70
     0
 40
0.0
 41
0.0
  0
VERTEX
  8
20
 10
-48.24290084838867
 20
-69.85662841796875
  0
VERTEX
  8
20
 10
-46.74290084838867
 20
-69.85662841796875
  0
SEQEND
  8
20
  0
POLYLINE
  8
20
  6
CONTINUOUS
 66
     1
 70
     0
 40
0.0
 41
0.0
  0
VERTEX
  8
20
 10
-44.68040084838867
 20
-69.01287841796875
 42
0.8749999999999999
  0
VERTEX
  8
20
 10
-46.18040084838867
 20
-69.01287841796875
  0
VERTEX
  8
20
 10
-46.18040084838867
 20
-70.79412841796875
 42
0.75
  0
VERTEX
  8
20
 10
-44.68040084838867
 20
-70.79412841796875
  0
SEQEND
  8
20
  0
POLYLINE
  8
20
  6
CONTINUOUS
 66
     1
 70
     0
 40
0.0
 41
0.0
  0
VERTEX
  8
20
 10
-44.11790084838867
 20
-68.35662841796875
  0
VERTEX
  8
20
 10
-44.11790084838867
 20
-71.35662841796875
  0
SEQEND
  8
20
  0
POLYLINE
  8
20
  6
CONTINUOUS
 66
     1
 70
     0
 40
0.0
 41
0.0
  0
VERTEX
  8
20
 10
-44.11790084838867
 20
-70.23162841796875
  0
VERTEX
  8
20
 10
-42.61790084838867
 20
-68.35662841796875
  0
SEQEND
  8
20
  0
POLYLINE
  8
20
  6
CONTINUOUS
 66
     1
 70
     0
 40
0.0
 41
0.0
  0
VERTEX
  8
20
 10
-43.64915084838867
 20
-69.66912841796875
  0
VERTEX
  8
20
 10
-42.61790084838867
 20
-71.35662841796875
  0
SEQEND
  8
20
  0
ENDBLK
  8
20
  0
BLOCK
  8
20
  2
COMP41
 70
    64
 10
0.0
 20
0.0
  0
POLYLINE
  8
20
  6
CONTINUOUS
 66
     1
 70
     0
 40
0.0
 41
0.0
  0
VERTEX
  8
20
 10
-67.50539398193359
 20
-59.86142349243164
  0
VERTEX
  8
20
 10
-68.25539398193359
 20
-61.92392349243164
  0
VERTEX
  8
20
 10
-66.75539398193359
 20
-61.92392349243164
  0
SEQEND
  8
20
  0
POLYLINE
  8
20
  6
CONTINUOUS
 66
     1
 70
     0
 40
0.0
 41
0.0
  0
VERTEX
  8
20
 10
-67.22414398193359
 20
-62.86142349243164
  0
VERTEX
  8
20
 10
-67.22414398193359
 20
-60.89267349243164
  0
SEQEND
  8
20
  0
ENDBLK
  8
20
  0
BLOCK
  8
20
  2
COMP42
 70
    64
 10
0.0
 20
0.0
  0
POLYLINE
  8
20
  6
CONTINUOUS
 66
     1
 70
     0
 40
0.0
 41
0.0
  0
VERTEX
  8
20
 10
-68.40140533447266
 20
-32.75448608398438
  0
VERTEX
  8
20
 10
-67.93265533447266
 20
-32.19198608398438
  0
VERTEX
  8
20
 10
-67.37015533447266
 20
-32.19198608398438
  0
VERTEX
  8
20
 10
-66.90140533447266
 20
-32.75448608398438
  0
VERTEX
  8
20
 10
-66.90140533447266
 20
-33.22323608398438
  0
VERTEX
  8
20
 10
-67.46390533447266
 20
-33.69198608398438
  0
VERTEX
  8
20
 10
-68.02640533447266
 20
-33.69198608398438
  0
SEQEND
  8
20
  0
POLYLINE
  8
20
  6
CONTINUOUS
 66
     1
 70
     0
 40
0.0
 41
0.0
  0
VERTEX
  8
20
 10
-67.46390533447266
 20
-33.69198608398438
  0
VERTEX
  8
20
 10
-66.90140533447266
 20
-34.25448608398438
  0
VERTEX
  8
20
 10
-66.90140533447266
 20
-34.72323608398438
  0
VERTEX
  8
20
 10
-67.37015533447266
 20
-35.19198608398438
  0
VERTEX
  8
20
 10
-67.93265533447266
 20
-35.19198608398438
  0
VERTEX
  8
20
 10
-68.40140533447266
 20
-34.72323608398438
  0
SEQEND
  8
20
  0
ENDBLK
  8
20
  0
BLOCK
  8
20
  2
COMP43
 70
    64
 10
0.0
 20
0.0
  0
POLYLINE
  8
20
  6
CONTINUOUS
 66
     1
 70
     0
 40
0.0
 41
0.0
  0
VERTEX
  8
20
 10
-68.40140533447266
 20
-5.012038707733154
  0
VERTEX
  8
20
 10
-67.93265533447266
 20
-4.449538707733154
  0
VERTEX
  8
20
 10
-67.37015533447266
 20
-4.449538707733154
  0
VERTEX
  8
20
 10
-66.90140533447266
 20
-5.012038707733154
  0
VERTEX
  8
20
 10
-66.90140533447266
 20
-5.762038707733154
  0
VERTEX
  8
20
 10
-68.40140533447266
 20
-7.074538707733154
  0
VERTEX
  8
20
 10
-68.40140533447266
 20
-7.449538707733154
  0
VERTEX
  8
20
 10
-66.90140533447266
 20
-7.449538707733154
  0
SEQEND
  8
20
  0
ENDBLK
  8
20
  0
BLOCK
  8
20
  2
COMP44
 70
    64
 10
0.0
 20
0.0
  0
POLYLINE
  8
20
  6
CONTINUOUS
 66
     1
 70
     0
 40
0.0
 41
0.0
  0
VERTEX
  8
20
 10
-67.65140533447266
 20
20.58493423461914
  0
VERTEX
  8
20
 10
-67.65140533447266
 20
23.58493423461914
  0
VERTEX
  8
20
 10
-68.16703033447266
 20
22.69430923461914
  0
SEQEND
  8
20
  0
ENDBLK
  8
20
  0
BLOCK
  8
20
  2
COMP45
 70
    64
 10
0.0
 20
0.0
  0
POLYLINE
  8
20
  6
CONTINUOUS
 66
     1
 70
     0
 40
0.0
 41
0.0
  0
VERTEX
  8
20
 10
114.2911682128906
 20
49.14506912231445
  0
VERTEX
  8
20
 10
114.7911682128906
 20
51.14506912231445
  0
VERTEX
  8
20
 10
115.2911682128906
 20
49.14506912231445
  0
SEQEND
  8
20
  0
POLYLINE
  8
20
  6
CONTINUOUS
 66
     1
 70
     0
 40
0.0
 41
0.0
  0
VERTEX
  8
20
 10
115.1349182128906
 20
49.77006912231445
  0
VERTEX
  8
20
 10
114.4474182128906
 20
49.77006912231445
  0
SEQEND
  8
20
  0
POLYLINE
  8
20
  6
CONTINUOUS
 66
     1
 70
     0
 40
0.0
 41
0.0
  0
VERTEX
  8
20
 10
116.1661682128906
 20
49.14506912231445
  0
VERTEX
  8
20
 10
116.1661682128906
 20
51.14506912231445
  0
VERTEX
  8
20
 10
115.8224182128906
 20
50.55131912231445
  0
SEQEND
  8
20
  0
ENDBLK
  8
20
  0
BLOCK
  8
20
  2
COMP46
 70
    64
 10
0.0
 20
0.0
  0
POLYLINE
  8
20
  6
CONTINUOUS
 66
     1
 70
     0
 40
0.0
 41
0.0
  0
VERTEX
  8
20
 10
114.5205688476563
 20
43.91464233398438
  0
VERTEX
  8
20
 10
115.0830688476563
 20
43.91464233398438
 42
0.875
  0
VERTEX
  8
20
 10
115.0830688476563
 20
44.91464233398438
 42
0.875
  0
VERTEX
  8
20
 10
115.0830688476563
 20
45.91464233398438
  0
VERTEX
  8
20
 10
114.5205688476563
 20
45.91464233398438
  0
VERTEX
  8
20
 10
114.5205688476563
 20
43.91464233398438
  0
SEQEND
  8
20
  0
POLYLINE
  8
20
  6
CONTINUOUS
 66
     1
 70
     0
 40
0.0
 41
0.0
  0
VERTEX
  8
20
 10
114.5205688476563
 20
44.91464233398438
  0
VERTEX
  8
20
 10
115.0830688476563
 20
44.91464233398438
  0
SEQEND
  8
20
  0
POLYLINE
  8
20
  6
CONTINUOUS
 66
     1
 70
     0
 40
0.0
 41
0.0
  0
VERTEX
  8
20
 10
116.3955688476563
 20
43.91464233398438
  0
VERTEX
  8
20
 10
116.3955688476563
 20
45.91464233398438
  0
VERTEX
  8
20
 10
116.0518188476563
 20
45.32089233398438
  0
SEQEND
  8
20
  0
ENDBLK
  8
20
  0
BLOCK
  8
20
  2
COMP47
 70
    64
 10
0.0
 20
0.0
  0
POLYLINE
  8
20
  6
CONTINUOUS
 66
     1
 70
     0
 40
0.0
 41
0.0
  0
VERTEX
  8
20
 10
115.5205688476563
 20
40.5678825378418
 42
0.875
  0
VERTEX
  8
20
 10
114.5205688476563
 20
40.5678825378418
  0
VERTEX
  8
20
 10
114.5205688476563
 20
39.3803825378418
 42
0.7500000000000001
  0
VERTEX
  8
20
 10
115.5205688476563
 20
39.3803825378418
  0
SEQEND
  8
20
  0
POLYLINE
  8
20
  6
CONTINUOUS
 66
     1
 70
     0
 40
0.0
 41
0.0
  0
VERTEX
  8
20
 10
116.3955688476563
 20
39.0053825378418
  0
VERTEX
  8
20
 10
116.3955688476563
 20
41.0053825378418
  0
VERTEX
  8
20
 10
116.0518188476563
 20
40.4116325378418
  0
SEQEND
  8
20
  0
ENDBLK
  8
20
  0
BLOCK
  8
20
  2
COMP48
 70
    64
 10
0.0
 20
0.0
  0
POLYLINE
  8
20
  6
CONTINUOUS
 66
     1
 70
     0
 40
0.0
 41
0.0
  0
VERTEX
  8
20
 10
114.5205688476563
 20
34.00436019897461
  0
VERTEX
  8
20
 10
115.0518188476563
 20
34.00436019897461
 42
0.4666666666666667
  0
VERTEX
  8
20
 10
115.5205688476563
 20
34.47311019897461
  0
VERTEX
  8
20
 10
115.5205688476563
 20
35.53561019897461
 42
0.4666666666666667
  0
VERTEX
  8
20
 10
115.0518188476563
 20
36.00436019897461
  0
VERTEX
  8
20
 10
114.5205688476563
 20
36.00436019897461
  0
VERTEX
  8
20
 10
114.5205688476563
 20
34.00436019897461
  0
SEQEND
  8
20
  0
POLYLINE
  8
20
  6
CONTINUOUS
 66
     1
 70
     0
 40
0.0
 41
0.0
  0
VERTEX
  8
20
 10
116.3955688476563
 20
34.00436019897461
  0
VERTEX
  8
20
 10
116.3955688476563
 20
36.00436019897461
  0
VERTEX
  8
20
 10
116.0518188476563
 20
35.41061019897461
  0
SEQEND
  8
20
  0
ENDBLK
  8
20
  0
BLOCK
  8
20
  2
COMP49
 70
    64
 10
0.0
 20
0.0
  0
POLYLINE
  8
20
  6
CONTINUOUS
 66
     1
 70
     0
 40
0.0
 41
0.0
  0
VERTEX
  8
20
 10
114.5205688476563
 20
29.23274230957031
  0
VERTEX
  8
20
 10
115.0205688476563
 20
31.23274230957031
  0
VERTEX
  8
20
 10
115.5205688476563
 20
29.23274230957031
  0
SEQEND
  8
20
  0
POLYLINE
  8
20
  6
CONTINUOUS
 66
     1
 70
     0
 40
0.0
 41
0.0
  0
VERTEX
  8
20
 10
115.3643188476563
 20
29.85774230957031
  0
VERTEX
  8
20
 10
114.6768188476563
 20
29.85774230957031
  0
SEQEND
  8
20
  0
POLYLINE
  8
20
  6
CONTINUOUS
 66
     1
 70
     0
 40
0.0
 41
0.0
  0
VERTEX
  8
20
 10
115.8955688476563
 20
30.85774230957031
  0
VERTEX
  8
20
 10
116.2080688476563
 20
31.23274230957031
  0
VERTEX
  8
20
 10
116.5830688476563
 20
31.23274230957031
  0
VERTEX
  8
20
 10
116.8955688476563
 20
30.85774230957031
  0
VERTEX
  8
20
 10
116.8955688476563
 20
30.35774230957031
  0
VERTEX
  8
20
 10
115.8955688476563
 20
29.48274230957031
  0
VERTEX
  8
20
 10
115.8955688476563
 20
29.23274230957031
  0
VERTEX
  8
20
 10
116.8955688476563
 20
29.23274230957031
  0
SEQEND
  8
20
  0
ENDBLK
  8
20
  0
BLOCK
  8
20
  2
COMP50
 70
    64
 10
0.0
 20
0.0
  0
POLYLINE
  8
20
  6
CONTINUOUS
 66
     1
 70
     0
 40
0.0
 41
0.0
  0
VERTEX
  8
20
 10
114.4288101196289
 20
24.09407615661621
  0
VERTEX
  8
20
 10
114.9913101196289
 20
24.09407615661621
 42
0.875
  0
VERTEX
  8
20
 10
114.9913101196289
 20
25.09407615661621
 42
0.875
  0
VERTEX
  8
20
 10
114.9913101196289
 20
26.09407615661621
  0
VERTEX
  8
20
 10
114.4288101196289
 20
26.09407615661621
  0
VERTEX
  8
20
 10
114.4288101196289
 20
24.09407615661621
  0
SEQEND
  8
20
  0
POLYLINE
  8
20
  6
CONTINUOUS
 66
     1
 70
     0
 40
0.0
 41
0.0
  0
VERTEX
  8
20
 10
114.4288101196289
 20
25.09407615661621
  0
VERTEX
  8
20
 10
114.9913101196289
 20
25.09407615661621
  0
SEQEND
  8
20
  0
POLYLINE
  8
20
  6
CONTINUOUS
 66
     1
 70
     0
 40
0.0
 41
0.0
  0
VERTEX
  8
20
 10
115.8038101196289
 20
25.71907615661621
  0
VERTEX
  8
20
 10
116.1163101196289
 20
26.09407615661621
  0
VERTEX
  8
20
 10
116.4913101196289
 20
26.09407615661621
  0
VERTEX
  8
20
 10
116.8038101196289
 20
25.71907615661621
  0
VERTEX
  8
20
 10
116.8038101196289
 20
25.21907615661621
  0
VERTEX
  8
20
 10
115.8038101196289
 20
24.34407615661621
  0
VERTEX
  8
20
 10
115.8038101196289
 20
24.09407615661621
  0
VERTEX
  8
20
 10
116.8038101196289
 20
24.09407615661621
  0
SEQEND
  8
20
  0
ENDBLK
  8
20
  0
BLOCK
  8
20
  2
COMP51
 70
    64
 10
0.0
 20
0.0
  0
POLYLINE
  8
20
  6
CONTINUOUS
 66
     1
 70
     0
 40
0.0
 41
0.0
  0
VERTEX
  8
20
 10
115.4288101196289
 20
20.65555381774902
 42
0.875
  0
VERTEX
  8
20
 10
114.4288101196289
 20
20.65555381774902
  0
VERTEX
  8
20
 10
114.4288101196289
 20
19.46805381774902
 42
0.7500000000000001
  0
VERTEX
  8
20
 10
115.4288101196289
 20
19.46805381774902
  0
SEQEND
  8
20
  0
POLYLINE
  8
20
  6
CONTINUOUS
 66
     1
 70
     0
 40
0.0
 41
0.0
  0
VERTEX
  8
20
 10
115.8038101196289
 20
20.71805381774902
  0
VERTEX
  8
20
 10
116.1163101196289
 20
21.09305381774902
  0
VERTEX
  8
20
 10
116.4913101196289
 20
21.09305381774902
  0
VERTEX
  8
20
 10
116.8038101196289
 20
20.71805381774902
  0
VERTEX
  8
20
 10
116.8038101196289
 20
20.21805381774902
  0
VERTEX
  8
20
 10
115.8038101196289
 20
19.34305381774902
  0
VERTEX
  8
20
 10
115.8038101196289
 20
19.09305381774902
  0
VERTEX
  8
20
 10
116.8038101196289
 20
19.09305381774902
  0
SEQEND
  8
20
  0
ENDBLK
  8
20
  0
BLOCK
  8
20
  2
COMP52
 70
    64
 10
0.0
 20
0.0
  0
POLYLINE
  8
20
  6
CONTINUOUS
 66
     1
 70
     0
 40
0.0
 41
0.0
  0
VERTEX
  8
20
 10
114.4288101196289
 20
13.95438766479492
  0
VERTEX
  8
20
 10
114.9600601196289
 20
13.95438766479492
 42
0.4666666666666667
  0
VERTEX
  8
20
 10
115.4288101196289
 20
14.42313766479492
  0
VERTEX
  8
20
 10
115.4288101196289
 20
15.48563766479492
 42
0.4666666666666667
  0
VERTEX
  8
20
 10
114.9600601196289
 20
15.95438766479492
  0
VERTEX
  8
20
 10
114.4288101196289
 20
15.95438766479492
  0
VERTEX
  8
20
 10
114.4288101196289
 20
13.95438766479492
  0
SEQEND
  8
20
  0
POLYLINE
  8
20
  6
CONTINUOUS
 66
     1
 70
     0
 40
0.0
 41
0.0
  0
VERTEX
  8
20
 10
115.8038101196289
 20
15.57938766479492
  0
VERTEX
  8
20
 10
116.1163101196289
 20
15.95438766479492
  0
VERTEX
  8
20
 10
116.4913101196289
 20
15.95438766479492
  0
VERTEX
  8
20
 10
116.8038101196289
 20
15.57938766479492
  0
VERTEX
  8
20
 10
116.8038101196289
 20
15.07938766479492
  0
VERTEX
  8
20
 10
115.8038101196289
 20
14.20438766479492
  0
VERTEX
  8
20
 10
115.8038101196289
 20
13.95438766479492
  0
VERTEX
  8
20
 10
116.8038101196289
 20
13.95438766479492
  0
SEQEND
  8
20
  0
ENDBLK
  8
20
  0
BLOCK
  8
20
  2
COMP53
 70
    64
 10
0.0
 20
0.0
  0
POLYLINE
  8
20
  6
CONTINUOUS
 66
     1
 70
     0
 40
0.0
 41
0.0
  0
VERTEX
  8
20
 10
114.5205688476563
 20
8.953364372253418
  0
VERTEX
  8
20
 10
115.0205688476563
 20
10.95336437225342
  0
VERTEX
  8
20
 10
115.5205688476563
 20
8.953364372253418
  0
SEQEND
  8
20
  0
POLYLINE
  8
20
  6
CONTINUOUS
 66
     1
 70
     0
 40
0.0
 41
0.0
  0
VERTEX
  8
20
 10
115.3643188476563
 20
9.578364372253418
  0
VERTEX
  8
20
 10
114.6768188476563
 20
9.578364372253418
  0
SEQEND
  8
20
  0
POLYLINE
  8
20
  6
CONTINUOUS
 66
     1
 70
     0
 40
0.0
 41
0.0
  0
VERTEX
  8
20
 10
115.8955688476563
 20
10.57836437225342
  0
VERTEX
  8
20
 10
116.2080688476563
 20
10.95336437225342
  0
VERTEX
  8
20
 10
116.5830688476563
 20
10.95336437225342
  0
VERTEX
  8
20
 10
116.8955688476563
 20
10.57836437225342
  0
VERTEX
  8
20
 10
116.8955688476563
 20
10.26586437225342
  0
VERTEX
  8
20
 10
116.5205688476563
 20
9.953364372253418
  0
VERTEX
  8
20
 10
116.1455688476563
 20
9.953364372253418
  0
SEQEND
  8
20
  0
POLYLINE
  8
20
  6
CONTINUOUS
 66
     1
 70
     0
 40
0.0
 41
0.0
  0
VERTEX
  8
20
 10
116.5205688476563
 20
9.953364372253418
  0
VERTEX
  8
20
 10
116.8955688476563
 20
9.578364372253418
  0
VERTEX
  8
20
 10
116.8955688476563
 20
9.265864372253418
  0
VERTEX
  8
20
 10
116.5830688476563
 20
8.953364372253418
  0
VERTEX
  8
20
 10
116.2080688476563
 20
8.953364372253418
  0
VERTEX
  8
20
 10
115.8955688476563
 20
9.265864372253418
  0
SEQEND
  8
20
  0
ENDBLK
  8
20
  0
BLOCK
  8
20
  2
COMP54
 70
    64
 10
0.0
 20
0.0
  0
POLYLINE
  8
20
  6
CONTINUOUS
 66
     1
 70
     0
 40
0.0
 41
0.0
  0
VERTEX
  8
20
 10
114.5205688476563
 20
3.952342033386231
  0
VERTEX
  8
20
 10
115.0830688476563
 20
3.952342033386231
 42
0.875
  0
VERTEX
  8
20
 10
115.0830688476563
 20
4.952342033386231
 42
0.875
  0
VERTEX
  8
20
 10
115.0830688476563
 20
5.952342033386231
  0
VERTEX
  8
20
 10
114.5205688476563
 20
5.952342033386231
  0
VERTEX
  8
20
 10
114.5205688476563
 20
3.952342033386231
  0
SEQEND
  8
20
  0
POLYLINE
  8
20
  6
CONTINUOUS
 66
     1
 70
     0
 40
0.0
 41
0.0
  0
VERTEX
  8
20
 10
114.5205688476563
 20
4.952342033386231
  0
VERTEX
  8
20
 10
115.0830688476563
 20
4.952342033386231
  0
SEQEND
  8
20
  0
POLYLINE
  8
20
  6
CONTINUOUS
 66
     1
 70
     0
 40
0.0
 41
0.0
  0
VERTEX
  8
20
 10
115.8955688476563
 20
5.577342033386231
  0
VERTEX
  8
20
 10
116.2080688476563
 20
5.952342033386231
  0
VERTEX
  8
20
 10
116.5830688476563
 20
5.952342033386231
  0
VERTEX
  8
20
 10
116.8955688476563
 20
5.577342033386231
  0
VERTEX
  8
20
 10
116.8955688476563
 20
5.264842033386231
  0
VERTEX
  8
20
 10
116.5205688476563
 20
4.952342033386231
  0
VERTEX
  8
20
 10
116.1455688476563
 20
4.952342033386231
  0
SEQEND
  8
20
  0
POLYLINE
  8
20
  6
CONTINUOUS
 66
     1
 70
     0
 40
0.0
 41
0.0
  0
VERTEX
  8
20
 10
116.5205688476563
 20
4.952342033386231
  0
VERTEX
  8
20
 10
116.8955688476563
 20
4.577342033386231
  0
VERTEX
  8
20
 10
116.8955688476563
 20
4.264842033386231
  0
VERTEX
  8
20
 10
116.5830688476563
 20
3.952342033386231
  0
VERTEX
  8
20
 10
116.2080688476563
 20
3.952342033386231
  0
VERTEX
  8
20
 10
115.8955688476563
 20
4.264842033386231
  0
SEQEND
  8
20
  0
ENDBLK
  8
20
  0
BLOCK
  8
20
  2
COMP55
 70
    64
 10
0.0
 20
0.0
  0
POLYLINE
  8
20
  6
CONTINUOUS
 66
     1
 70
     0
 40
0.0
 41
0.0
  0
VERTEX
  8
20
 10
115.4288101196289
 20
0.651462197303772
 42
0.875
  0
VERTEX
  8
20
 10
114.4288101196289
 20
0.651462197303772
  0
VERTEX
  8
20
 10
114.4288101196289
 20
-0.536037802696228
 42
0.7500000000000001
  0
VERTEX
  8
20
 10
115.4288101196289
 20
-0.536037802696228
  0
SEQEND
  8
20
  0
POLYLINE
  8
20
  6
CONTINUOUS
 66
     1
 70
     0
 40
0.0
 41
0.0
  0
VERTEX
  8
20
 10
115.8038101196289
 20
0.713962197303772
  0
VERTEX
  8
20
 10
116.1163101196289
 20
1.088962197303772
  0
VERTEX
  8
20
 10
116.4913101196289
 20
1.088962197303772
  0
VERTEX
  8
20
 10
116.8038101196289
 20
0.713962197303772
  0
VERTEX
  8
20
 10
116.8038101196289
 20
0.401462197303772
  0
VERTEX
  8
20
 10
116.4288101196289
 20
0.08896219730377197
  0
VERTEX
  8
20
 10
116.0538101196289
 20
0.08896219730377197
  0
SEQEND
  8
20
  0
POLYLINE
  8
20
  6
CONTINUOUS
 66
     1
 70
     0
 40
0.0
 41
0.0
  0
VERTEX
  8
20
 10
116.4288101196289
 20
0.08896219730377197
  0
VERTEX
  8
20
 10
116.8038101196289
 20
-0.286037802696228
  0
VERTEX
  8
20
 10
116.8038101196289
 20
-0.598537802696228
  0
VERTEX
  8
20
 10
116.4913101196289
 20
-0.911037802696228
  0
VERTEX
  8
20
 10
116.1163101196289
 20
-0.911037802696228
  0
VERTEX
  8
20
 10
115.8038101196289
 20
-0.598537802696228
  0
SEQEND
  8
20
  0
ENDBLK
  8
20
  0
BLOCK
  8
20
  2
COMP56
 70
    64
 10
0.0
 20
0.0
  0
POLYLINE
  8
20
  6
CONTINUOUS
 66
     1
 70
     0
 40
0.0
 41
0.0
  0
VERTEX
  8
20
 10
114.4288101196289
 20
-5.95794153213501
  0
VERTEX
  8
20
 10
114.9600601196289
 20
-5.95794153213501
 42
0.4666666666666667
  0
VERTEX
  8
20
 10
115.4288101196289
 20
-5.48919153213501
  0
VERTEX
  8
20
 10
115.4288101196289
 20
-4.42669153213501
 42
0.4666666666666667
  0
VERTEX
  8
20
 10
114.9600601196289
 20
-3.95794153213501
  0
VERTEX
  8
20
 10
114.4288101196289
 20
-3.95794153213501
  0
VERTEX
  8
20
 10
114.4288101196289
 20
-5.95794153213501
  0
SEQEND
  8
20
  0
POLYLINE
  8
20
  6
CONTINUOUS
 66
     1
 70
     0
 40
0.0
 41
0.0
  0
VERTEX
  8
20
 10
115.8038101196289
 20
-4.33294153213501
  0
VERTEX
  8
20
 10
116.1163101196289
 20
-3.95794153213501
  0
VERTEX
  8
20
 10
116.4913101196289
 20
-3.95794153213501
  0
VERTEX
  8
20
 10
116.8038101196289
 20
-4.33294153213501
  0
VERTEX
  8
20
 10
116.8038101196289
 20
-4.64544153213501
  0
VERTEX
  8
20
 10
116.4288101196289
 20
-4.95794153213501
  0
VERTEX
  8
20
 10
116.0538101196289
 20
-4.95794153213501
  0
SEQEND
  8
20
  0
POLYLINE
  8
20
  6
CONTINUOUS
 66
     1
 70
     0
 40
0.0
 41
0.0
  0
VERTEX
  8
20
 10
116.4288101196289
 20
-4.95794153213501
  0
VERTEX
  8
20
 10
116.8038101196289
 20
-5.33294153213501
  0
VERTEX
  8
20
 10
116.8038101196289
 20
-5.64544153213501
  0
VERTEX
  8
20
 10
116.4913101196289
 20
-5.95794153213501
  0
VERTEX
  8
20
 10
116.1163101196289
 20
-5.95794153213501
  0
VERTEX
  8
20
 10
115.8038101196289
 20
-5.64544153213501
  0
SEQEND
  8
20
  0
ENDBLK
  8
20
  0
BLOCK
  8
20
  2
COMP57
 70
    64
 10
0.0
 20
0.0
  0
POLYLINE
  8
20
  6
CONTINUOUS
 66
     1
 70
     0
 40
0.0
 41
0.0
  0
VERTEX
  8
20
 10
114.5205688476563
 20
-10.95896434783936
  0
VERTEX
  8
20
 10
115.0205688476563
 20
-8.958964347839356
  0
VERTEX
  8
20
 10
115.5205688476563
 20
-10.95896434783936
  0
SEQEND
  8
20
  0
POLYLINE
  8
20
  6
CONTINUOUS
 66
     1
 70
     0
 40
0.0
 41
0.0
  0
VERTEX
  8
20
 10
115.3643188476563
 20
-10.33396434783936
  0
VERTEX
  8
20
 10
114.6768188476563
 20
-10.33396434783936
  0
SEQEND
  8
20
  0
POLYLINE
  8
20
  6
CONTINUOUS
 66
     1
 70
     0
 40
0.0
 41
0.0
  0
VERTEX
  8
20
 10
116.3955688476563
 20
-8.958964347839356
  0
VERTEX
  8
20
 10
115.8955688476563
 20
-10.33396434783936
  0
VERTEX
  8
20
 10
116.8955688476563
 20
-10.33396434783936
  0
SEQEND
  8
20
  0
POLYLINE
  8
20
  6
CONTINUOUS
 66
     1
 70
     0
 40
0.0
 41
0.0
  0
VERTEX
  8
20
 10
116.5830688476563
 20
-10.95896434783936
  0
VERTEX
  8
20
 10
116.5830688476563
 20
-9.646464347839356
  0
SEQEND
  8
20
  0
ENDBLK
  8
20
  0
BLOCK
  8
20
  2
COMP58
 70
    64
 10
0.0
 20
0.0
  0
POLYLINE
  8
20
  6
CONTINUOUS
 66
     1
 70
     0
 40
0.0
 41
0.0
  0
VERTEX
  8
20
 10
114.5521621704102
 20
-15.97974014282227
  0
VERTEX
  8
20
 10
115.1146621704102
 20
-15.97974014282227
 42
0.875
  0
VERTEX
  8
20
 10
115.1146621704102
 20
-14.97974014282227
 42
0.875
  0
VERTEX
  8
20
 10
115.1146621704102
 20
-13.97974014282227
  0
VERTEX
  8
20
 10
114.5521621704102
 20
-13.97974014282227
  0
VERTEX
  8
20
 10
114.5521621704102
 20
-15.97974014282227
  0
SEQEND
  8
20
  0
POLYLINE
  8
20
  6
CONTINUOUS
 66
     1
 70
     0
 40
0.0
 41
0.0
  0
VERTEX
  8
20
 10
114.5521621704102
 20
-14.97974014282227
  0
VERTEX
  8
20
 10
115.1146621704102
 20
-14.97974014282227
  0
SEQEND
  8
20
  0
POLYLINE
  8
20
  6
CONTINUOUS
 66
     1
 70
     0
 40
0.0
 41
0.0
  0
VERTEX
  8
20
 10
116.4271621704102
 20
-13.97974014282227
  0
VERTEX
  8
20
 10
115.9271621704102
 20
-15.35474014282227
  0
VERTEX
  8
20
 10
116.9271621704102
 20
-15.35474014282227
  0
SEQEND
  8
20
  0
POLYLINE
  8
20
  6
CONTINUOUS
 66
     1
 70
     0
 40
0.0
 41
0.0
  0
VERTEX
  8
20
 10
116.6146621704102
 20
-15.97974014282227
  0
VERTEX
  8
20
 10
116.6146621704102
 20
-14.66724014282227
  0
SEQEND
  8
20
  0
ENDBLK
  8
20
  0
BLOCK
  8
20
  2
COMP59
 70
    64
 10
0.0
 20
0.0
  0
POLYLINE
  8
20
  6
CONTINUOUS
 66
     1
 70
     0
 40
0.0
 41
0.0
  0
VERTEX
  8
20
 10
115.5521621704102
 20
-19.49430656433106
 42
0.875
  0
VERTEX
  8
20
 10
114.5521621704102
 20
-19.49430656433106
  0
VERTEX
  8
20
 10
114.5521621704102
 20
-20.68180656433106
 42
0.7500000000000001
  0
VERTEX
  8
20
 10
115.5521621704102
 20
-20.68180656433106
  0
SEQEND
  8
20
  0
POLYLINE
  8
20
  6
CONTINUOUS
 66
     1
 70
     0
 40
0.0
 41
0.0
  0
VERTEX
  8
20
 10
116.4271621704102
 20
-19.05680656433106
  0
VERTEX
  8
20
 10
115.9271621704102
 20
-20.43180656433106
  0
VERTEX
  8
20
 10
116.9271621704102
 20
-20.43180656433106
  0
SEQEND
  8
20
  0
POLYLINE
  8
20
  6
CONTINUOUS
 66
     1
 70
     0
 40
0.0
 41
0.0
  0
VERTEX
  8
20
 10
116.6146621704102
 20
-21.05680656433106
  0
VERTEX
  8
20
 10
116.6146621704102
 20
-19.74430656433106
  0
SEQEND
  8
20
  0
ENDBLK
  8
20
  0
BLOCK
  8
20
  2
COMP60
 70
    64
 10
0.0
 20
0.0
  0
POLYLINE
  8
20
  6
CONTINUOUS
 66
     1
 70
     0
 40
0.0
 41
0.0
  0
VERTEX
  8
20
 10
114.4816436767578
 20
-25.85181427001953
  0
VERTEX
  8
20
 10
115.0128936767578
 20
-25.85181427001953
 42
0.4666666666666667
  0
VERTEX
  8
20
 10
115.4816436767578
 20
-25.38306427001953
  0
VERTEX
  8
20
 10
115.4816436767578
 20
-24.32056427001953
 42
0.4666666666666667
  0
VERTEX
  8
20
 10
115.0128936767578
 20
-23.85181427001953
  0
VERTEX
  8
20
 10
114.4816436767578
 20
-23.85181427001953
  0
VERTEX
  8
20
 10
114.4816436767578
 20
-25.85181427001953
  0
SEQEND
  8
20
  0
POLYLINE
  8
20
  6
CONTINUOUS
 66
     1
 70
     0
 40
0.0
 41
0.0
  0
VERTEX
  8
20
 10
116.3566436767578
 20
-23.85181427001953
  0
VERTEX
  8
20
 10
115.8566436767578
 20
-25.22681427001953
  0
VERTEX
  8
20
 10
116.8566436767578
 20
-25.22681427001953
  0
SEQEND
  8
20
  0
POLYLINE
  8
20
  6
CONTINUOUS
 66
     1
 70
     0
 40
0.0
 41
0.0
  0
VERTEX
  8
20
 10
116.5441436767578
 20
-25.85181427001953
  0
VERTEX
  8
20
 10
116.5441436767578
 20
-24.53931427001953
  0
SEQEND
  8
20
  0
ENDBLK
  8
20
  0
BLOCK
  8
20
  2
COMP61
 70
    64
 10
0.0
 20
0.0
  0
POLYLINE
  8
20
  6
CONTINUOUS
 66
     1
 70
     0
 40
0.0
 41
0.0
  0
VERTEX
  8
20
 10
110.2977676391602
 20
-28.80226135253906
  0
VERTEX
  8
20
 10
110.2977676391602
 20
-29.98976135253906
 42
0.7500000000000001
  0
VERTEX
  8
20
 10
111.2977676391602
 20
-29.98976135253906
  0
VERTEX
  8
20
 10
111.2977676391602
 20
-28.80226135253906
 42
0.875
  0
VERTEX
  8
20
 10
110.2977676391602
 20
-28.80226135253906
  0
SEQEND
  8
20
  0
POLYLINE
  8
20
  6
CONTINUOUS
 66
     1
 70
     0
 40
0.0
 41
0.0
  0
VERTEX
  8
20
 10
111.6727676391602
 20
-28.36476135253906
  0
VERTEX
  8
20
 10
111.6727676391602
 20
-29.98976135253906
 42
0.7500000000000001
  0
VERTEX
  8
20
 10
112.6727676391602
 20
-29.98976135253906
  0
VERTEX
  8
20
 10
112.6727676391602
 20
-28.36476135253906
  0
SEQEND
  8
20
  0
POLYLINE
  8
20
  6
CONTINUOUS
 66
     1
 70
     0
 40
0.0
 41
0.0
  0
VERTEX
  8
20
 10
113.0477676391602
 20
-28.36476135253906
  0
VERTEX
  8
20
 10
114.0477676391602
 20
-28.36476135253906
  0
SEQEND
  8
20
  0
POLYLINE
  8
20
  6
CONTINUOUS
 66
     1
 70
     0
 40
0.0
 41
0.0
  0
VERTEX
  8
20
 10
113.5477676391602
 20
-28.36476135253906
  0
VERTEX
  8
20
 10
113.5477676391602
 20
-30.36476135253906
  0
SEQEND
  8
20
  0
POLYLINE
  8
20
  6
CONTINUOUS
 66
     1
 70
     0
 40
0.0
 41
0.0
  0
VERTEX
  8
20
 10
114.9227676391602
 20
-30.36476135253906
  0
VERTEX
  8
20
 10
114.9227676391602
 20
-28.36476135253906
  0
VERTEX
  8
20
 10
114.5790176391602
 20
-28.95851135253906
  0
SEQEND
  8
20
  0
POLYLINE
  8
20
  6
CONTINUOUS
 66
     1
 70
     0
 40
0.0
 41
0.0
  0
VERTEX
  8
20
 10
116.7977676391602
 20
-29.36476135253906
  0
VERTEX
  8
20
 10
115.7977676391602
 20
-29.36476135253906
  0
SEQEND
  8
20
  0
POLYLINE
  8
20
  6
CONTINUOUS
 66
     1
 70
     0
 40
0.0
 41
0.0
  0
VERTEX
  8
20
 10
116.2977676391602
 20
-29.86476135253906
  0
VERTEX
  8
20
 10
116.2977676391602
 20
-28.86476135253906
  0
SEQEND
  8
20
  0
ENDBLK
  8
20
  0
BLOCK
  8
20
  2
COMP62
 70
    64
 10
0.0
 20
0.0
  0
POLYLINE
  8
20
  6
CONTINUOUS
 66
     1
 70
     0
 40
0.0
 41
0.0
  0
VERTEX
  8
20
 10
110.2507553100586
 20
-33.94984436035156
  0
VERTEX
  8
20
 10
110.2507553100586
 20
-35.13734436035156
 42
0.7500000000000001
  0
VERTEX
  8
20
 10
111.2507553100586
 20
-35.13734436035156
  0
VERTEX
  8
20
 10
111.2507553100586
 20
-33.94984436035156
 42
0.875
  0
VERTEX
  8
20
 10
110.2507553100586
 20
-33.94984436035156
  0
SEQEND
  8
20
  0
POLYLINE
  8
20
  6
CONTINUOUS
 66
     1
 70
     0
 40
0.0
 41
0.0
  0
VERTEX
  8
20
 10
111.6257553100586
 20
-33.51234436035156
  0
VERTEX
  8
20
 10
111.6257553100586
 20
-35.13734436035156
 42
0.7500000000000001
  0
VERTEX
  8
20
 10
112.6257553100586
 20
-35.13734436035156
  0
VERTEX
  8
20
 10
112.6257553100586
 20
-33.51234436035156
  0
SEQEND
  8
20
  0
POLYLINE
  8
20
  6
CONTINUOUS
 66
     1
 70
     0
 40
0.0
 41
0.0
  0
VERTEX
  8
20
 10
113.0007553100586
 20
-33.51234436035156
  0
VERTEX
  8
20
 10
114.0007553100586
 20
-33.51234436035156
  0
SEQEND
  8
20
  0
POLYLINE
  8
20
  6
CONTINUOUS
 66
     1
 70
     0
 40
0.0
 41
0.0
  0
VERTEX
  8
20
 10
113.5007553100586
 20
-33.51234436035156
  0
VERTEX
  8
20
 10
113.5007553100586
 20
-35.51234436035156
  0
SEQEND
  8
20
  0
POLYLINE
  8
20
  6
CONTINUOUS
 66
     1
 70
     0
 40
0.0
 41
0.0
  0
VERTEX
  8
20
 10
114.8757553100586
 20
-35.51234436035156
  0
VERTEX
  8
20
 10
114.8757553100586
 20
-33.51234436035156
  0
VERTEX
  8
20
 10
114.5320053100586
 20
-34.10609436035156
  0
SEQEND
  8
20
  0
POLYLINE
  8
20
  6
CONTINUOUS
 66
     1
 70
     0
 40
0.0
 41
0.0
  0
VERTEX
  8
20
 10
116.6882553100586
 20
-34.51234436035156
  0
VERTEX
  8
20
 10
115.8132553100586
 20
-34.51234436035156
  0
SEQEND
  8
20
  0
ENDBLK
  8
20
  0
BLOCK
  8
20
  2
COMP63
 70
    64
 10
0.0
 20
0.0
  0
POLYLINE
  8
20
  6
CONTINUOUS
 66
     1
 70
     0
 40
0.0
 41
0.0
  0
VERTEX
  8
20
 10
110.2977676391602
 20
-38.90938568115234
  0
VERTEX
  8
20
 10
110.2977676391602
 20
-40.09688568115234
 42
0.7500000000000001
  0
VERTEX
  8
20
 10
111.2977676391602
 20
-40.09688568115234
  0
VERTEX
  8
20
 10
111.2977676391602
 20
-38.90938568115234
 42
0.875
  0
VERTEX
  8
20
 10
110.2977676391602
 20
-38.90938568115234
  0
SEQEND
  8
20
  0
POLYLINE
  8
20
  6
CONTINUOUS
 66
     1
 70
     0
 40
0.0
 41
0.0
  0
VERTEX
  8
20
 10
111.6727676391602
 20
-38.47188568115234
  0
VERTEX
  8
20
 10
111.6727676391602
 20
-40.09688568115234
 42
0.7500000000000001
  0
VERTEX
  8
20
 10
112.6727676391602
 20
-40.09688568115234
  0
VERTEX
  8
20
 10
112.6727676391602
 20
-38.47188568115234
  0
SEQEND
  8
20
  0
POLYLINE
  8
20
  6
CONTINUOUS
 66
     1
 70
     0
 40
0.0
 41
0.0
  0
VERTEX
  8
20
 10
113.0477676391602
 20
-38.47188568115234
  0
VERTEX
  8
20
 10
114.0477676391602
 20
-38.47188568115234
  0
SEQEND
  8
20
  0
POLYLINE
  8
20
  6
CONTINUOUS
 66
     1
 70
     0
 40
0.0
 41
0.0
  0
VERTEX
  8
20
 10
113.5477676391602
 20
-38.47188568115234
  0
VERTEX
  8
20
 10
113.5477676391602
 20
-40.47188568115234
  0
SEQEND
  8
20
  0
POLYLINE
  8
20
  6
CONTINUOUS
 66
     1
 70
     0
 40
0.0
 41
0.0
  0
VERTEX
  8
20
 10
114.4227676391602
 20
-38.84688568115234
  0
VERTEX
  8
20
 10
114.7352676391602
 20
-38.47188568115234
  0
VERTEX
  8
20
 10
115.1102676391602
 20
-38.47188568115234
  0
VERTEX
  8
20
 10
115.4227676391602
 20
-38.84688568115234
  0
VERTEX
  8
20
 10
115.4227676391602
 20
-39.34688568115234
  0
VERTEX
  8
20
 10
114.4227676391602
 20
-40.22188568115234
  0
VERTEX
  8
20
 10
114.4227676391602
 20
-40.47188568115234
  0
VERTEX
  8
20
 10
115.4227676391602
 20
-40.47188568115234
  0
SEQEND
  8
20
  0
POLYLINE
  8
20
  6
CONTINUOUS
 66
     1
 70
     0
 40
0.0
 41
0.0
  0
VERTEX
  8
20
 10
116.7977676391602
 20
-39.47188568115234
  0
VERTEX
  8
20
 10
115.7977676391602
 20
-39.47188568115234
  0
SEQEND
  8
20
  0
POLYLINE
  8
20
  6
CONTINUOUS
 66
     1
 70
     0
 40
0.0
 41
0.0
  0
VERTEX
  8
20
 10
116.2977676391602
 20
-39.97188568115234
  0
VERTEX
  8
20
 10
116.2977676391602
 20
-38.97188568115234
  0
SEQEND
  8
20
  0
ENDBLK
  8
20
  0
BLOCK
  8
20
  2
COMP64
 70
    64
 10
0.0
 20
0.0
  0
POLYLINE
  8
20
  6
CONTINUOUS
 66
     1
 70
     0
 40
0.0
 41
0.0
  0
VERTEX
  8
20
 10
110.2507553100586
 20
-43.86892700195313
  0
VERTEX
  8
20
 10
110.2507553100586
 20
-45.05642700195313
 42
0.7500000000000001
  0
VERTEX
  8
20
 10
111.2507553100586
 20
-45.05642700195313
  0
VERTEX
  8
20
 10
111.2507553100586
 20
-43.86892700195313
 42
0.875
  0
VERTEX
  8
20
 10
110.2507553100586
 20
-43.86892700195313
  0
SEQEND
  8
20
  0
POLYLINE
  8
20
  6
CONTINUOUS
 66
     1
 70
     0
 40
0.0
 41
0.0
  0
VERTEX
  8
20
 10
111.6257553100586
 20
-43.43142700195313
  0
VERTEX
  8
20
 10
111.6257553100586
 20
-45.05642700195313
 42
0.7500000000000001
  0
VERTEX
  8
20
 10
112.6257553100586
 20
-45.05642700195313
  0
VERTEX
  8
20
 10
112.6257553100586
 20
-43.43142700195313
  0
SEQEND
  8
20
  0
POLYLINE
  8
20
  6
CONTINUOUS
 66
     1
 70
     0
 40
0.0
 41
0.0
  0
VERTEX
  8
20
 10
113.0007553100586
 20
-43.43142700195313
  0
VERTEX
  8
20
 10
114.0007553100586
 20
-43.43142700195313
  0
SEQEND
  8
20
  0
POLYLINE
  8
20
  6
CONTINUOUS
 66
     1
 70
     0
 40
0.0
 41
0.0
  0
VERTEX
  8
20
 10
113.5007553100586
 20
-43.43142700195313
  0
VERTEX
  8
20
 10
113.5007553100586
 20
-45.43142700195313
  0
SEQEND
  8
20
  0
POLYLINE
  8
20
  6
CONTINUOUS
 66
     1
 70
     0
 40
0.0
 41
0.0
  0
VERTEX
  8
20
 10
114.3757553100586
 20
-43.80642700195313
  0
VERTEX
  8
20
 10
114.6882553100586
 20
-43.43142700195313
  0
VERTEX
  8
20
 10
115.0632553100586
 20
-43.43142700195313
  0
VERTEX
  8
20
 10
115.3757553100586
 20
-43.80642700195313
  0
VERTEX
  8
20
 10
115.3757553100586
 20
-44.30642700195313
  0
VERTEX
  8
20
 10
114.3757553100586
 20
-45.18142700195313
  0
VERTEX
  8
20
 10
114.3757553100586
 20
-45.43142700195313
  0
VERTEX
  8
20
 10
115.3757553100586
 20
-45.43142700195313
  0
SEQEND
  8
20
  0
POLYLINE
  8
20
  6
CONTINUOUS
 66
     1
 70
     0
 40
0.0
 41
0.0
  0
VERTEX
  8
20
 10
116.6882553100586
 20
-44.43142700195313
  0
VERTEX
  8
20
 10
115.8132553100586
 20
-44.43142700195313
  0
SEQEND
  8
20
  0
ENDBLK
  8
20
  0
BLOCK
  8
20
  2
COMP65
 70
    64
 10
0.0
 20
0.0
  0
POLYLINE
  8
20
  6
CONTINUOUS
 66
     1
 70
     0
 40
0.0
 41
0.0
  0
VERTEX
  8
20
 10
110.2977676391602
 20
-48.94599533081055
  0
VERTEX
  8
20
 10
110.2977676391602
 20
-50.13349533081055
 42
0.7500000000000001
  0
VERTEX
  8
20
 10
111.2977676391602
 20
-50.13349533081055
  0
VERTEX
  8
20
 10
111.2977676391602
 20
-48.94599533081055
 42
0.875
  0
VERTEX
  8
20
 10
110.2977676391602
 20
-48.94599533081055
  0
SEQEND
  8
20
  0
POLYLINE
  8
20
  6
CONTINUOUS
 66
     1
 70
     0
 40
0.0
 41
0.0
  0
VERTEX
  8
20
 10
111.6727676391602
 20
-48.50849533081055
  0
VERTEX
  8
20
 10
111.6727676391602
 20
-50.13349533081055
 42
0.7500000000000001
  0
VERTEX
  8
20
 10
112.6727676391602
 20
-50.13349533081055
  0
VERTEX
  8
20
 10
112.6727676391602
 20
-48.50849533081055
  0
SEQEND
  8
20
  0
POLYLINE
  8
20
  6
CONTINUOUS
 66
     1
 70
     0
 40
0.0
 41
0.0
  0
VERTEX
  8
20
 10
113.0477676391602
 20
-48.50849533081055
  0
VERTEX
  8
20
 10
114.0477676391602
 20
-48.50849533081055
  0
SEQEND
  8
20
  0
POLYLINE
  8
20
  6
CONTINUOUS
 66
     1
 70
     0
 40
0.0
 41
0.0
  0
VERTEX
  8
20
 10
113.5477676391602
 20
-48.50849533081055
  0
VERTEX
  8
20
 10
113.5477676391602
 20
-50.50849533081055
  0
SEQEND
  8
20
  0
POLYLINE
  8
20
  6
CONTINUOUS
 66
     1
 70
     0
 40
0.0
 41
0.0
  0
VERTEX
  8
20
 10
114.4227676391602
 20
-48.88349533081055
  0
VERTEX
  8
20
 10
114.7352676391602
 20
-48.50849533081055
  0
VERTEX
  8
20
 10
115.1102676391602
 20
-48.50849533081055
  0
VERTEX
  8
20
 10
115.4227676391602
 20
-48.88349533081055
  0
VERTEX
  8
20
 10
115.4227676391602
 20
-49.19599533081055
  0
VERTEX
  8
20
 10
115.0477676391602
 20
-49.50849533081055
  0
VERTEX
  8
20
 10
114.6727676391602
 20
-49.50849533081055
  0
SEQEND
  8
20
  0
POLYLINE
  8
20
  6
CONTINUOUS
 66
     1
 70
     0
 40
0.0
 41
0.0
  0
VERTEX
  8
20
 10
115.0477676391602
 20
-49.50849533081055
  0
VERTEX
  8
20
 10
115.4227676391602
 20
-49.88349533081055
  0
VERTEX
  8
20
 10
115.4227676391602
 20
-50.19599533081055
  0
VERTEX
  8
20
 10
115.1102676391602
 20
-50.50849533081055
  0
VERTEX
  8
20
 10
114.7352676391602
 20
-50.50849533081055
  0
VERTEX
  8
20
 10
114.4227676391602
 20
-50.19599533081055
  0
SEQEND
  8
20
  0
POLYLINE
  8
20
  6
CONTINUOUS
 66
     1
 70
     0
 40
0.0
 41
0.0
  0
VERTEX
  8
20
 10
116.7977676391602
 20
-49.50849533081055
  0
VERTEX
  8
20
 10
115.7977676391602
 20
-49.50849533081055
  0
SEQEND
  8
20
  0
POLYLINE
  8
20
  6
CONTINUOUS
 66
     1
 70
     0
 40
0.0
 41
0.0
  0
VERTEX
  8
20
 10
116.2977676391602
 20
-50.00849533081055
  0
VERTEX
  8
20
 10
116.2977676391602
 20
-49.00849533081055
  0
SEQEND
  8
20
  0
ENDBLK
  8
20
  0
BLOCK
  8
20
  2
COMP66
 70
    64
 10
0.0
 20
0.0
  0
POLYLINE
  8
20
  6
CONTINUOUS
 66
     1
 70
     0
 40
0.0
 41
0.0
  0
VERTEX
  8
20
 10
110.1716842651367
 20
-53.89082717895508
  0
VERTEX
  8
20
 10
110.1716842651367
 20
-55.07832717895508
 42
0.7500000000000001
  0
VERTEX
  8
20
 10
111.1716842651367
 20
-55.07832717895508
  0
VERTEX
  8
20
 10
111.1716842651367
 20
-53.89082717895508
 42
0.875
  0
VERTEX
  8
20
 10
110.1716842651367
 20
-53.89082717895508
  0
SEQEND
  8
20
  0
POLYLINE
  8
20
  6
CONTINUOUS
 66
     1
 70
     0
 40
0.0
 41
0.0
  0
VERTEX
  8
20
 10
111.5466842651367
 20
-53.45332717895508
  0
VERTEX
  8
20
 10
111.5466842651367
 20
-55.07832717895508
 42
0.7500000000000001
  0
VERTEX
  8
20
 10
112.5466842651367
 20
-55.07832717895508
  0
VERTEX
  8
20
 10
112.5466842651367
 20
-53.45332717895508
  0
SEQEND
  8
20
  0
POLYLINE
  8
20
  6
CONTINUOUS
 66
     1
 70
     0
 40
0.0
 41
0.0
  0
VERTEX
  8
20
 10
112.9216842651367
 20
-53.45332717895508
  0
VERTEX
  8
20
 10
113.9216842651367
 20
-53.45332717895508
  0
SEQEND
  8
20
  0
POLYLINE
  8
20
  6
CONTINUOUS
 66
     1
 70
     0
 40
0.0
 41
0.0
  0
VERTEX
  8
20
 10
113.4216842651367
 20
-53.45332717895508
  0
VERTEX
  8
20
 10
113.4216842651367
 20
-55.45332717895508
  0
SEQEND
  8
20
  0
POLYLINE
  8
20
  6
CONTINUOUS
 66
     1
 70
     0
 40
0.0
 41
0.0
  0
VERTEX
  8
20
 10
114.2966842651367
 20
-53.82832717895508
  0
VERTEX
  8
20
 10
114.6091842651367
 20
-53.45332717895508
  0
VERTEX
  8
20
 10
114.9841842651367
 20
-53.45332717895508
  0
VERTEX
  8
20
 10
115.2966842651367
 20
-53.82832717895508
  0
VERTEX
  8
20
 10
115.2966842651367
 20
-54.14082717895508
  0
VERTEX
  8
20
 10
114.9216842651367
 20
-54.45332717895508
  0
VERTEX
  8
20
 10
114.5466842651367
 20
-54.45332717895508
  0
SEQEND
  8
20
  0
POLYLINE
  8
20
  6
CONTINUOUS
 66
     1
 70
     0
 40
0.0
 41
0.0
  0
VERTEX
  8
20
 10
114.9216842651367
 20
-54.45332717895508
  0
VERTEX
  8
20
 10
115.2966842651367
 20
-54.82832717895508
  0
VERTEX
  8
20
 10
115.2966842651367
 20
-55.14082717895508
  0
VERTEX
  8
20
 10
114.9841842651367
 20
-55.45332717895508
  0
VERTEX
  8
20
 10
114.6091842651367
 20
-55.45332717895508
  0
VERTEX
  8
20
 10
114.2966842651367
 20
-55.14082717895508
  0
SEQEND
  8
20
  0
POLYLINE
  8
20
  6
CONTINUOUS
 66
     1
 70
     0
 40
0.0
 41
0.0
  0
VERTEX
  8
20
 10
116.6091842651367
 20
-54.45332717895508
  0
VERTEX
  8
20
 10
115.7341842651367
 20
-54.45332717895508
  0
SEQEND
  8
20
  0
ENDBLK
  8
20
  0
BLOCK
  8
20
  2
COMP67
 70
    64
 10
0.0
 20
0.0
  0
POLYLINE
  8
20
  6
CONTINUOUS
 66
     1
 70
     0
 40
0.0
 41
0.0
  0
VERTEX
  8
20
 10
110.1716842651367
 20
-58.77343368530273
  0
VERTEX
  8
20
 10
110.1716842651367
 20
-59.96093368530273
 42
0.7500000000000001
  0
VERTEX
  8
20
 10
111.1716842651367
 20
-59.96093368530273
  0
VERTEX
  8
20
 10
111.1716842651367
 20
-58.77343368530273
 42
0.875
  0
VERTEX
  8
20
 10
110.1716842651367
 20
-58.77343368530273
  0
SEQEND
  8
20
  0
POLYLINE
  8
20
  6
CONTINUOUS
 66
     1
 70
     0
 40
0.0
 41
0.0
  0
VERTEX
  8
20
 10
111.5466842651367
 20
-58.33593368530273
  0
VERTEX
  8
20
 10
111.5466842651367
 20
-59.96093368530273
 42
0.7500000000000001
  0
VERTEX
  8
20
 10
112.5466842651367
 20
-59.96093368530273
  0
VERTEX
  8
20
 10
112.5466842651367
 20
-58.33593368530273
  0
SEQEND
  8
20
  0
POLYLINE
  8
20
  6
CONTINUOUS
 66
     1
 70
     0
 40
0.0
 41
0.0
  0
VERTEX
  8
20
 10
112.9216842651367
 20
-58.33593368530273
  0
VERTEX
  8
20
 10
113.9216842651367
 20
-58.33593368530273
  0
SEQEND
  8
20
  0
POLYLINE
  8
20
  6
CONTINUOUS
 66
     1
 70
     0
 40
0.0
 41
0.0
  0
VERTEX
  8
20
 10
113.4216842651367
 20
-58.33593368530273
  0
VERTEX
  8
20
 10
113.4216842651367
 20
-60.33593368530273
  0
SEQEND
  8
20
  0
POLYLINE
  8
20
  6
CONTINUOUS
 66
     1
 70
     0
 40
0.0
 41
0.0
  0
VERTEX
  8
20
 10
114.7966842651367
 20
-58.33593368530273
  0
VERTEX
  8
20
 10
114.2966842651367
 20
-59.71093368530273
  0
VERTEX
  8
20
 10
115.2966842651367
 20
-59.71093368530273
  0
SEQEND
  8
20
  0
POLYLINE
  8
20
  6
CONTINUOUS
 66
     1
 70
     0
 40
0.0
 41
0.0
  0
VERTEX
  8
20
 10
114.9841842651367
 20
-60.33593368530273
  0
VERTEX
  8
20
 10
114.9841842651367
 20
-59.02343368530273
  0
SEQEND
  8
20
  0
POLYLINE
  8
20
  6
CONTINUOUS
 66
     1
 70
     0
 40
0.0
 41
0.0
  0
VERTEX
  8
20
 10
116.6716842651367
 20
-59.33593368530273
  0
VERTEX
  8
20
 10
115.6716842651367
 20
-59.33593368530273
  0
SEQEND
  8
20
  0
POLYLINE
  8
20
  6
CONTINUOUS
 66
     1
 70
     0
 40
0.0
 41
0.0
  0
VERTEX
  8
20
 10
116.1716842651367
 20
-59.83593368530273
  0
VERTEX
  8
20
 10
116.1716842651367
 20
-58.83593368530273
  0
SEQEND
  8
20
  0
ENDBLK
  8
20
  0
BLOCK
  8
20
  2
COMP68
 70
    64
 10
0.0
 20
0.0
  0
POLYLINE
  8
20
  6
CONTINUOUS
 66
     1
 70
     0
 40
0.0
 41
0.0
  0
VERTEX
  8
20
 10
110.3715591430664
 20
-63.91302490234375
  0
VERTEX
  8
20
 10
110.3715591430664
 20
-65.10052490234375
 42
0.7500000000000001
  0
VERTEX
  8
20
 10
111.3715591430664
 20
-65.10052490234375
  0
VERTEX
  8
20
 10
111.3715591430664
 20
-63.91302490234375
 42
0.875
  0
VERTEX
  8
20
 10
110.3715591430664
 20
-63.91302490234375
  0
SEQEND
  8
20
  0
POLYLINE
  8
20
  6
CONTINUOUS
 66
     1
 70
     0
 40
0.0
 41
0.0
  0
VERTEX
  8
20
 10
111.7465591430664
 20
-63.47552490234375
  0
VERTEX
  8
20
 10
111.7465591430664
 20
-65.10052490234375
 42
0.7500000000000001
  0
VERTEX
  8
20
 10
112.7465591430664
 20
-65.10052490234375
  0
VERTEX
  8
20
 10
112.7465591430664
 20
-63.47552490234375
  0
SEQEND
  8
20
  0
POLYLINE
  8
20
  6
CONTINUOUS
 66
     1
 70
     0
 40
0.0
 41
0.0
  0
VERTEX
  8
20
 10
113.1215591430664
 20
-63.47552490234375
  0
VERTEX
  8
20
 10
114.1215591430664
 20
-63.47552490234375
  0
SEQEND
  8
20
  0
POLYLINE
  8
20
  6
CONTINUOUS
 66
     1
 70
     0
 40
0.0
 41
0.0
  0
VERTEX
  8
20
 10
113.6215591430664
 20
-63.47552490234375
  0
VERTEX
  8
20
 10
113.6215591430664
 20
-65.47552490234375
  0
SEQEND
  8
20
  0
POLYLINE
  8
20
  6
CONTINUOUS
 66
     1
 70
     0
 40
0.0
 41
0.0
  0
VERTEX
  8
20
 10
114.9965591430664
 20
-63.47552490234375
  0
VERTEX
  8
20
 10
114.4965591430664
 20
-64.85052490234375
  0
VERTEX
  8
20
 10
115.4965591430664
 20
-64.85052490234375
  0
SEQEND
  8
20
  0
POLYLINE
  8
20
  6
CONTINUOUS
 66
     1
 70
     0
 40
0.0
 41
0.0
  0
VERTEX
  8
20
 10
115.1840591430664
 20
-65.47552490234375
  0
VERTEX
  8
20
 10
115.1840591430664
 20
-64.16302490234375
  0
SEQEND
  8
20
  0
POLYLINE
  8
20
  6
CONTINUOUS
 66
     1
 70
     0
 40
0.0
 41
0.0
  0
VERTEX
  8
20
 10
116.8090591430664
 20
-64.47552490234375
  0
VERTEX
  8
20
 10
115.9340591430664
 20
-64.47552490234375
  0
SEQEND
  8
20
  0
ENDBLK
  8
20
  0
BLOCK
  8
20
  2
COMP69
 70
    64
 10
0.0
 20
0.0
  0
POLYLINE
  8
20
  6
CONTINUOUS
 66
     1
 70
     0
 40
0.0
 41
0.0
  0
VERTEX
  8
20
 10
115.5117797851563
 20
-69.50089263916016
  0
VERTEX
  8
20
 10
114.5117797851563
 20
-69.50089263916016
  0
SEQEND
  8
20
  0
POLYLINE
  8
20
  6
CONTINUOUS
 66
     1
 70
     0
 40
0.0
 41
0.0
  0
VERTEX
  8
20
 10
115.0117797851563
 20
-70.00089263916016
  0
VERTEX
  8
20
 10
115.0117797851563
 20
-69.00089263916016
  0
SEQEND
  8
20
  0
POLYLINE
  8
20
  6
CONTINUOUS
 66
     1
 70
     0
 40
0.0
 41
0.0
  0
VERTEX
  8
20
 10
116.8867797851563
 20
-68.50089263916016
  0
VERTEX
  8
20
 10
116.3867797851563
 20
-70.50089263916016
  0
VERTEX
  8
20
 10
115.8867797851563
 20
-68.50089263916016
  0
SEQEND
  8
20
  0
ENDBLK
  8
20
  0
BLOCK
  8
20
  2
COMP70
 70
    64
 10
0.0
 20
0.0
  0
POLYLINE
  8
20
  6
CONTINUOUS
 66
     1
 70
     0
 40
0.0
 41
0.0
  0
VERTEX
  8
20
 10
114.0841217041016
 20
-73.93521118164063
 42
0.875
  0
VERTEX
  8
20
 10
113.0841217041016
 20
-73.93521118164063
  0
VERTEX
  8
20
 10
113.0841217041016
 20
-75.12271118164063
 42
0.7500000000000001
  0
VERTEX
  8
20
 10
114.0841217041016
 20
-75.12271118164063
  0
SEQEND
  8
20
  0
POLYLINE
  8
20
  6
CONTINUOUS
 66
     1
 70
     0
 40
0.0
 41
0.0
  0
VERTEX
  8
20
 10
114.4591217041016
 20
-73.93521118164063
  0
VERTEX
  8
20
 10
114.4591217041016
 20
-75.12271118164063
 42
0.7500000000000001
  0
VERTEX
  8
20
 10
115.4591217041016
 20
-75.12271118164063
  0
VERTEX
  8
20
 10
115.4591217041016
 20
-73.93521118164063
 42
0.875
  0
VERTEX
  8
20
 10
114.4591217041016
 20
-73.93521118164063
  0
SEQEND
  8
20
  0
POLYLINE
  8
20
  6
CONTINUOUS
 66
     1
 70
     0
 40
0.0
 41
0.0
  0
VERTEX
  8
20
 10
115.8341217041016
 20
-75.49771118164063
  0
VERTEX
  8
20
 10
115.8341217041016
 20
-73.49771118164063
  0
VERTEX
  8
20
 10
116.3341217041016
 20
-74.81021118164063
  0
VERTEX
  8
20
 10
116.8341217041016
 20
-73.49771118164063
  0
VERTEX
  8
20
 10
116.8341217041016
 20
-75.49771118164063
  0
SEQEND
  8
20
  0
ENDBLK
  8
20
  0
BLOCK
  8
20
  2
COMP71
 70
    64
 10
0.0
 20
0.0
  0
POLYLINE
  8
20
  6
CONTINUOUS
 66
     1
 70
     0
 40
0.0
 41
0.0
  0
VERTEX
  8
20
 10
115.4492797851563
 20
-79.58019256591797
  0
VERTEX
  8
20
 10
114.5742797851563
 20
-79.58019256591797
  0
SEQEND
  8
20
  0
POLYLINE
  8
20
  6
CONTINUOUS
 66
     1
 70
     0
 40
0.0
 41
0.0
  0
VERTEX
  8
20
 10
116.8867797851563
 20
-78.58019256591797
  0
VERTEX
  8
20
 10
116.3867797851563
 20
-80.58019256591797
  0
VERTEX
  8
20
 10
115.8867797851563
 20
-78.58019256591797
  0
SEQEND
  8
20
  0
ENDBLK
  8
20
  0
ENDSEC
  0
SECTION
  2
ENTITIES
  0
LINE
  8
100
  6
CONTINUOUS
 10
-73.49594116210938
 20
-103.0036087036133
 11
-73.49594116210938
 21
72.99639129638672
  0
LINE
  8
100
  6
CONTINUOUS
 10
-31.49594116210938
 20
-103.0036087036133
 11
-31.49594116210938
 21
72.99639129638672
  0
LINE
  8
100
  6
CONTINUOUS
 10
27.59513092041016
 20
-103.0036087036133
 11
27.59513092041016
 21
72.99639129638672
  0
LINE
  8
100
  6
CONTINUOUS
 10
29.59513092041016
 20
-103.0036087036133
 11
29.59513092041016
 21
72.99639129638672
  0
LINE
  8
100
  6
CONTINUOUS
 10
-73.49594116210938
 20
72.99639129638672
 11
-31.49594116210938
 21
72.99639129638672
  0
LINE
  8
100
  6
CONTINUOUS
 10
27.59513092041016
 20
72.99639129638672
 11
29.59513092041016
 21
72.99639129638672
  0
LINE
  8
100
  6
CONTINUOUS
 10
-73.49594116210938
 20
-103.0036087036133
 11
-31.49594116210938
 21
-103.0036087036133
  0
LINE
  8
100
  6
CONTINUOUS
 10
27.59513092041016
 20
-103.0036087036133
 11
29.59513092041016
 21
-103.0036087036133
  0
CIRCLE
  8
10
  6
CONTINUOUS
 10
-62.49594116210938
 20
53.99639129638672
 40
2.75
  0
ARC
  8
10
  6
CONTINUOUS
 10
-62.49594116210938
 20
53.99639129638672
 40
1.75
 50
0.0
 51
8.2132107017382
  0
ARC
  8
10
  6
CONTINUOUS
 10
-62.49594116210938
 20
53.99639129638672
 40
1.75
 50
81.78678929826181
 51
98.21321070173821
  0
ARC
  8
10
  6
CONTINUOUS
 10
-62.49594116210938
 20
53.99639129638672
 40
1.75
 50
171.7867892982619
 51
188.2132107017382
  0
ARC
  8
10
  6
CONTINUOUS
 10
-62.49594116210938
 20
53.99639129638672
 40
1.75
 50
261.7867892982618
 51
278.2132107017382
  0
ARC
  8
10
  6
CONTINUOUS
 10
-62.49594116210938
 20
53.99639129638672
 40
1.75
 50
351.7867892982618
 51
0.0
  0
LINE
  8
10
  6
CONTINUOUS
 10
-64.22799196967826
 20
54.24639129638672
 11
-63.34594116210938
 21
54.24639129638672
  0
LINE
  8
10
  6
CONTINUOUS
 10
-61.64594116210937
 20
54.24639129638672
 11
-60.7638903545405
 21
54.24639129638672
  0
LINE
  8
10
  6
CONTINUOUS
 10
-64.22799196967826
 20
53.74639129638672
 11
-63.34594116210938
 21
53.74639129638672
  0
LINE
  8
10
  6
CONTINUOUS
 10
-61.64594116210937
 20
53.74639129638672
 11
-60.7638903545405
 21
53.74639129638672
  0
LINE
  8
10
  6
CONTINUOUS
 10
-62.24594116210938
 20
52.26434048881784
 11
-62.24594116210938
 21
53.14639129638672
  0
LINE
  8
10
  6
CONTINUOUS
 10
-62.24594116210938
 20
54.84639129638672
 11
-62.24594116210938
 21
55.72844210395559
  0
LINE
  8
10
  6
CONTINUOUS
 10
-62.74594116210938
 20
52.26434048881784
 11
-62.74594116210938
 21
53.14639129638672
  0
LINE
  8
10
  6
CONTINUOUS
 10
-62.74594116210938
 20
54.84639129638672
 11
-62.74594116210938
 21
55.72844210395559
  0
ARC
  8
10
  6
CONTINUOUS
 10
-61.64594116210937
 20
54.84639129638672
 40
0.6
 50
180.0
 51
270.0
  0
ARC
  8
10
  6
CONTINUOUS
 10
-63.34594116210938
 20
54.84639129638672
 40
0.6
 50
270.0
 51
0.0
  0
ARC
  8
10
  6
CONTINUOUS
 10
-63.34594116210938
 20
53.14639129638672
 40
0.6
 50
0.0
 51
90.0
  0
ARC
  8
10
  6
CONTINUOUS
 10
-61.64594116210937
 20
53.14639129638672
 40
0.6
 50
90.0
 51
180.0
  0
CIRCLE
  8
10
  6
CONTINUOUS
 10
-62.49594116210938
 20
-84.00360870361328
 40
2.75
  0
ARC
  8
10
  6
CONTINUOUS
 10
-62.49594116210938
 20
-84.00360870361328
 40
1.75
 50
0.0
 51
8.2132107017382
  0
ARC
  8
10
  6
CONTINUOUS
 10
-62.49594116210938
 20
-84.00360870361328
 40
1.75
 50
81.78678929826184
 51
98.21321070173816
  0
ARC
  8
10
  6
CONTINUOUS
 10
-62.49594116210938
 20
-84.00360870361328
 40
1.75
 50
171.7867892982619
 51
188.2132107017382
  0
ARC
  8
10
  6
CONTINUOUS
 10
-62.49594116210938
 20
-84.00360870361328
 40
1.75
 50
261.7867892982619
 51
278.2132107017382
  0
ARC
  8
10
  6
CONTINUOUS
 10
-62.49594116210938
 20
-84.00360870361328
 40
1.75
 50
351.7867892982618
 51
0.0
  0
LINE
  8
10
  6
CONTINUOUS
 10
-64.22799196967826
 20
-83.75360870361328
 11
-63.34594116210938
 21
-83.75360870361328
  0
LINE
  8
10
  6
CONTINUOUS
 10
-61.64594116210937
 20
-83.75360870361328
 11
-60.7638903545405
 21
-83.75360870361328
  0
LINE
  8
10
  6
CONTINUOUS
 10
-64.22799196967826
 20
-84.25360870361328
 11
-63.34594116210938
 21
-84.25360870361328
  0
LINE
  8
10
  6
CONTINUOUS
 10
-61.64594116210937
 20
-84.25360870361328
 11
-60.7638903545405
 21
-84.25360870361328
  0
LINE
  8
10
  6
CONTINUOUS
 10
-62.24594116210938
 20
-85.73565951118216
 11
-62.24594116210938
 21
-84.85360870361328
  0
LINE
  8
10
  6
CONTINUOUS
 10
-62.24594116210938
 20
-83.15360870361329
 11
-62.24594116210938
 21
-82.2715578960444
  0
LINE
  8
10
  6
CONTINUOUS
 10
-62.74594116210938
 20
-85.73565951118216
 11
-62.74594116210938
 21
-84.85360870361328
  0
LINE
  8
10
  6
CONTINUOUS
 10
-62.74594116210938
 20
-83.15360870361329
 11
-62.74594116210938
 21
-82.2715578960444
  0
ARC
  8
10
  6
CONTINUOUS
 10
-61.64594116210937
 20
-83.15360870361329
 40
0.6
 50
180.0
 51
270.0
  0
ARC
  8
10
  6
CONTINUOUS
 10
-63.34594116210938
 20
-83.15360870361329
 40
0.6
 50
270.0
 51
0.0
  0
ARC
  8
10
  6
CONTINUOUS
 10
-63.34594116210938
 20
-84.85360870361328
 40
0.6
 50
0.0
 51
90.0
  0
ARC
  8
10
  6
CONTINUOUS
 10
-61.64594116210937
 20
-84.85360870361328
 40
0.6
 50
90.0
 51
180.0
  0
CIRCLE
  8
100
  6
CENTER
 10
-62.49594116210938
 20
-70.00360870361328
 40
2.0
  0
CIRCLE
  8
100
  6
CENTER
 10
-62.49594116210938
 20
-62.00360870361328
 40
2.0
  0
CIRCLE
  8
100
  6
CENTER
 10
-62.49594116210938
 20
-54.00360870361328
 40
2.0
  0
CIRCLE
  8
100
  6
CENTER
 10
-62.49594116210938
 20
-42.00360870361328
 40
2.0
  0
CIRCLE
  8
100
  6
CENTER
 10
-62.49594116210938
 20
-34.00360870361328
 40
2.0
  0
CIRCLE
  8
100
  6
CENTER
 10
-62.49594116210938
 20
-26.00360870361328
 40
2.0
  0
CIRCLE
  8
100
  6
CENTER
 10
-62.49594116210938
 20
-14.00360870361328
 40
2.0
  0
CIRCLE
  8
100
  6
CENTER
 10
-62.49594116210938
 20
-6.003608703613281
 40
2.0
  0
CIRCLE
  8
100
  6
CENTER
 10
-62.49594116210938
 20
1.996391296386719
 40
2.0
  0
CIRCLE
  8
100
  6
CENTER
 10
-62.49594116210938
 20
13.99639129638672
 40
2.0
  0
CIRCLE
  8
100
  6
CENTER
 10
-62.49594116210938
 20
21.99639129638672
 40
2.0
  0
CIRCLE
  8
100
  6
CENTER
 10
-62.49594116210938
 20
29.99639129638672
 40
2.0
  0
CIRCLE
  8
100
  6
CONTINUOUS
 10
-62.49594116210938
 20
-70.00360870361328
 40
2.0
  0
CIRCLE
  8
100
  6
CONTINUOUS
 10
-62.49594116210938
 20
-62.00360870361328
 40
2.0
  0
CIRCLE
  8
100
  6
CONTINUOUS
 10
-62.49594116210938
 20
-54.00360870361328
 40
2.0
  0
CIRCLE
  8
100
  6
CONTINUOUS
 10
-62.49594116210938
 20
-42.00360870361328
 40
2.0
  0
CIRCLE
  8
100
  6
CONTINUOUS
 10
-62.49594116210938
 20
-34.00360870361328
 40
2.0
  0
CIRCLE
  8
100
  6
CONTINUOUS
 10
-62.49594116210938
 20
-26.00360870361328
 40
2.0
  0
CIRCLE
  8
100
  6
CONTINUOUS
 10
-62.49594116210938
 20
-14.00360870361328
 40
2.0
  0
CIRCLE
  8
100
  6
CONTINUOUS
 10
-62.49594116210938
 20
-6.003608703613281
 40
2.0
  0
CIRCLE
  8
100
  6
CONTINUOUS
 10
-62.49594116210938
 20
13.99639129638672
 40
2.0
  0
CIRCLE
  8
100
  6
CONTINUOUS
 10
-62.49594116210938
 20
21.99639129638672
 40
2.0
  0
CIRCLE
  8
100
  6
CONTINUOUS
 10
-62.49594116210938
 20
29.99639129638672
 40
2.0
  0
CIRCLE
  8
100
  6
CONTINUOUS
 10
-62.49594116210938
 20
1.996391296386719
 40
2.0
  0
CIRCLE
  8
100
  6
CONTINUOUS
 10
-62.49594116210938
 20
44.99639129638672
 40
1.5
  0
CIRCLE
  8
100
  6
CONTINUOUS
 10
-52.49594116210938
 20
-98.00360870361328
 40
2.0
  0
CIRCLE
  8
100
  6
CONTINUOUS
 10
-52.49594116210938
 20
67.99639129638672
 40
2.0
  0
INSERT
  8
100
  6
CONTINUOUS
  2
COMP1
 10
0.0
 20
0.0
 41
1.0
 42
1.0
 50
0.0
  0
INSERT
  8
100
  6
CONTINUOUS
  2
COMP2
 10
0.0
 20
0.0
 41
1.0
 42
1.0
 50
0.0
  0
INSERT
  8
100
  6
CONTINUOUS
  2
COMP3
 10
0.0
 20
0.0
 41
1.0
 42
1.0
 50
0.0
  0
INSERT
  8
100
  6
CONTINUOUS
  2
COMP4
 10
0.0
 20
0.0
 41
1.0
 42
1.0
 50
0.0
  0
INSERT
  8
100
  6
CONTINUOUS
  2
COMP5
 10
0.0
 20
0.0
 41
1.0
 42
1.0
 50
0.0
  0
LINE
  8
100
  6
CONTINUOUS
 10
25.59513092041016
 20
-15.50360870361328
 11
27.59513092041016
 21
-15.50360870361328
  0
LINE
  8
100
  6
CONTINUOUS
 10
25.59513092041016
 20
-12.50360870361328
 11
27.59513092041016
 21
-12.50360870361328
  0
LINE
  8
100
  6
CONTINUOUS
 10
25.59513092041016
 20
-43.50360870361328
 11
27.59513092041016
 21
-43.50360870361328
  0
LINE
  8
100
  6
CONTINUOUS
 10
25.59513092041016
 20
-40.50360870361328
 11
27.59513092041016
 21
-40.50360870361328
  0
LINE
  8
100
  6
CONTINUOUS
 10
25.59513092041016
 20
-71.50360870361328
 11
27.59513092041016
 21
-71.50360870361328
  0
LINE
  8
100
  6
CONTINUOUS
 10
25.59513092041016
 20
-68.50360870361328
 11
27.59513092041016
 21
-68.50360870361328
  0
LINE
  8
100
  6
CONTINUOUS
 10
25.59513092041016
 20
-71.50360870361328
 11
25.59513092041016
 21
-68.50360870361328
  0
LINE
  8
100
  6
CONTINUOUS
 10
25.59513092041016
 20
-43.50360870361328
 11
25.59513092041016
 21
-40.50360870361328
  0
LINE
  8
100
  6
CONTINUOUS
 10
25.59513092041016
 20
-15.50360870361328
 11
25.59513092041016
 21
-12.50360870361328
  0
LINE
  8
100
  6
CONTINUOUS
 10
25.59513092041016
 20
12.49639129638672
 11
25.59513092041016
 21
15.49639129638672
  0
LINE
  8
100
  6
CONTINUOUS
 10
122.5951309204102
 20
-90.00360870361328
 11
122.5951309204102
 21
59.99639129638672
  0
LINE
  8
100
  6
CONTINUOUS
 10
32.59513092041016
 20
-90.00360870361328
 11
122.5951309204102
 21
-90.00360870361328
  0
LINE
  8
100
  6
CONTINUOUS
 10
29.59513092041016
 20
50.99639129638672
 11
39.59513092041016
 21
50.99639129638672
  0
LINE
  8
100
  6
CONTINUOUS
 10
29.59513092041016
 20
56.99639129638672
 11
39.59513092041016
 21
56.99639129638672
  0
LINE
  8
100
  6
CONTINUOUS
 10
29.59513092041016
 20
-81.00360870361328
 11
39.59513092041016
 21
-81.00360870361328
  0
LINE
  8
100
  6
CONTINUOUS
 10
29.59513092041016
 20
-87.00360870361328
 11
39.59513092041016
 21
-87.00360870361328
  0
LINE
  8
100
  6
CONTINUOUS
 10
40.59513092041016
 20
50.49639129638672
 11
40.59513092041016
 21
57.49639129638672
  0
LINE
  8
100
  6
CONTINUOUS
 10
40.59513092041016
 20
57.49639129638672
 11
50.59513092041016
 21
57.49639129638672
  0
LINE
  8
100
  6
CONTINUOUS
 10
40.59513092041016
 20
50.49639129638672
 11
50.59513092041016
 21
50.49639129638672
  0
LINE
  8
100
  6
CONTINUOUS
 10
40.59513092041016
 20
-80.50360870361328
 11
50.59513092041016
 21
-80.50360870361328
  0
LINE
  8
100
  6
CONTINUOUS
 10
40.59513092041016
 20
-87.50360870361328
 11
50.59513092041016
 21
-87.50360870361328
  0
LINE
  8
100
  6
CONTINUOUS
 10
39.59513092041016
 20
49.49639129638672
 11
50.59513092041016
 21
49.49639129638672
  0
LINE
  8
100
  6
CONTINUOUS
 10
39.59513092041016
 20
58.49639129638672
 11
50.59513092041016
 21
58.49639129638672
  0
LINE
  8
100
  6
CONTINUOUS
 10
50.59513092041016
 20
57.49639129638672
 11
50.59513092041016
 21
58.49639129638672
  0
LINE
  8
100
  6
CONTINUOUS
 10
39.59513092041016
 20
-79.50360870361328
 11
50.59513092041016
 21
-79.50360870361328
  0
LINE
  8
100
  6
CONTINUOUS
 10
39.59513092041016
 20
-88.50360870361328
 11
50.59513092041016
 21
-88.50360870361328
  0
LINE
  8
100
  6
CONTINUOUS
 10
39.59513092041016
 20
-79.50360870361328
 11
39.59513092041016
 21
-88.50360870361328
  0
LINE
  8
100
  6
CONTINUOUS
 10
50.59513092041016
 20
-79.50360870361328
 11
50.59513092041016
 21
-80.50360870361328
  0
LINE
  8
100
  6
CONTINUOUS
 10
50.59513092041016
 20
-87.50360870361328
 11
50.59513092041016
 21
-88.50360870361328
  0
LINE
  8
100
  6
CONTINUOUS
 10
40.59513092041016
 20
-80.50360870361328
 11
40.59513092041016
 21
-87.50360870361328
  0
LINE
  8
100
  6
CONTINUOUS
 10
39.59513092041016
 20
58.49639129638672
 11
39.59513092041016
 21
49.49639129638672
  0
LINE
  8
100
  6
CONTINUOUS
 10
50.59513092041016
 20
50.49639129638672
 11
50.59513092041016
 21
49.49639129638672
  0
LINE
  8
10
  6
CONTINUOUS
 10
40.59513092041016
 20
55.49639129638672
 11
47.06377601623535
 21
55.49639129638672
  0
LINE
  8
10
  6
CONTINUOUS
 10
40.59513092041016
 20
54.99639129638672
 11
47.56377601623535
 21
54.99639129638672
  0
LINE
  8
10
  6
CONTINUOUS
 10
47.56377601623535
 20
54.99639129638672
 11
47.56377601623535
 21
52.99639129638672
  0
LINE
  8
10
  6
CONTINUOUS
 10
47.06377601623535
 20
52.49639129638672
 11
47.06377601623535
 21
55.49639129638672
  0
LINE
  8
10
  6
CONTINUOUS
 10
47.56377601623535
 20
54.99639129638672
 11
47.06377601623535
 21
55.49639129638672
  0
LINE
  8
10
  6
CONTINUOUS
 10
47.06377601623535
 20
52.49639129638672
 11
47.56377601623535
 21
52.99639129638672
  0
LINE
  8
10
  6
CONTINUOUS
 10
40.59513092041016
 20
52.49639129638672
 11
47.06377601623535
 21
52.49639129638672
  0
LINE
  8
10
  6
CONTINUOUS
 10
40.59513092041016
 20
52.99639129638672
 11
47.56377601623535
 21
52.99639129638672
  0
LINE
  8
10
  6
CONTINUOUS
 10
40.59513092041016
 20
-82.50360870361328
 11
47.06377601623535
 21
-82.50360870361328
  0
LINE
  8
10
  6
CONTINUOUS
 10
40.59513092041016
 20
-83.00360870361328
 11
47.56377601623535
 21
-83.00360870361328
  0
LINE
  8
10
  6
CONTINUOUS
 10
47.56377601623535
 20
-83.00360870361328
 11
47.56377601623535
 21
-85.00360870361328
  0
LINE
  8
10
  6
CONTINUOUS
 10
47.06377601623535
 20
-85.50360870361328
 11
47.06377601623535
 21
-82.50360870361328
  0
LINE
  8
10
  6
CONTINUOUS
 10
47.56377601623535
 20
-83.00360870361328
 11
47.06377601623535
 21
-82.50360870361328
  0
LINE
  8
10
  6
CONTINUOUS
 10
47.06377601623535
 20
-85.50360870361328
 11
47.56377601623535
 21
-85.00360870361328
  0
LINE
  8
10
  6
CONTINUOUS
 10
40.59513092041016
 20
-85.50360870361328
 11
47.06377601623535
 21
-85.50360870361328
  0
LINE
  8
10
  6
CONTINUOUS
 10
40.59513092041016
 20
-85.00360870361328
 11
47.56377601623535
 21
-85.00360870361328
  0
LINE
  8
100
  6
CONTINUOUS
 10
132.5951309204102
 20
-83.00360870361328
 11
132.5951309204102
 21
52.99639129638672
  0
LINE
  8
100
  6
CONTINUOUS
 10
128.0951309204102
 20
-83.00360870361328
 11
128.0951309204102
 21
52.99639129638672
  0
INSERT
  8
100
  6
CONTINUOUS
  2
COMP6
 10
0.0
 20
0.0
 41
1.0
 42
1.0
 50
0.0
  0
LINE
  8
100
  6
CENTER
 10
122.5951309204102
 20
-90.00360870361328
 11
122.5951309204102
 21
59.99639129638672
  0
INSERT
  8
100
  6
CONTINUOUS
  2
COMP7
 10
0.0
 20
0.0
 41
1.0
 42
1.0
 50
0.0
  0
INSERT
  8
100
  6
CONTINUOUS
  2
COMP8
 10
0.0
 20
0.0
 41
1.0
 42
1.0
 50
0.0
  0
INSERT
  8
100
  6
CONTINUOUS
  2
COMP9
 10
0.0
 20
0.0
 41
1.0
 42
1.0
 50
0.0
  0
INSERT
  8
100
  6
CONTINUOUS
  2
COMP10
 10
0.0
 20
0.0
 41
1.0
 42
1.0
 50
0.0
  0
INSERT
  8
100
  6
CONTINUOUS
  2
COMP11
 10
0.0
 20
0.0
 41
1.0
 42
1.0
 50
0.0
  0
INSERT
  8
100
  6
CONTINUOUS
  2
COMP12
 10
0.0
 20
0.0
 41
1.0
 42
1.0
 50
0.0
  0
INSERT
  8
100
  6
CONTINUOUS
  2
COMP13
 10
0.0
 20
0.0
 41
1.0
 42
1.0
 50
0.0
  0
INSERT
  8
100
  6
CONTINUOUS
  2
COMP14
 10
0.0
 20
0.0
 41
1.0
 42
1.0
 50
0.0
  0
INSERT
  8
100
  6
CONTINUOUS
  2
COMP15
 10
0.0
 20
0.0
 41
1.0
 42
1.0
 50
0.0
  0
INSERT
  8
100
  6
CONTINUOUS
  2
COMP16
 10
0.0
 20
0.0
 41
1.0
 42
1.0
 50
0.0
  0
LINE
  8
100
  6
CONTINUOUS
 10
32.59513092041016
 20
59.99639129638672
 11
122.5951309204102
 21
59.99639129638672
  0
LINE
  8
100
  6
CONTINUOUS
 10
117.6695709228516
 20
50.99639129638672
 11
122.5951309204102
 21
50.99639129638672
  0
LINE
  8
100
  6
CONTINUOUS
 10
117.5951309204102
 20
48.99639129638672
 11
117.5951309204102
 21
50.99639129638672
  0
LINE
  8
100
  6
CONTINUOUS
 10
117.6695709228516
 20
45.99639129638672
 11
122.5951309204102
 21
45.99639129638672
  0
LINE
  8
100
  6
CONTINUOUS
 10
117.5951309204102
 20
43.99639129638672
 11
117.5951309204102
 21
45.99639129638672
  0
LINE
  8
100
  6
CONTINUOUS
 10
123.5951309204102
 20
-63.50360870361328
 11
127.5951309204102
 21
-63.50360870361328
  0
LINE
  8
100
  6
CONTINUOUS
 10
124.5951309204102
 20
-66.50360870361328
 11
124.5951309204102
 21
-63.50360870361328
  0
LINE
  8
100
  6
CONTINUOUS
 10
126.5951309204102
 20
-66.50360870361328
 11
126.5951309204102
 21
-63.50360870361328
  0
LINE
  8
100
  6
CONTINUOUS
 10
123.5951309204102
 20
-66.50360870361328
 11
127.5951309204102
 21
-66.50360870361328
  0
LINE
  8
100
  6
CONTINUOUS
 10
123.5951309204102
 20
-83.00360870361328
 11
123.5951309204102
 21
52.99639129638672
  0
LINE
  8
100
  6
CONTINUOUS
 10
117.6695709228516
 20
48.99639129638672
 11
122.5951309204102
 21
48.99639129638672
  0
LINE
  8
100
  6
CONTINUOUS
 10
117.6695709228516
 20
43.99639129638672
 11
122.5951309204102
 21
43.99639129638672
  0
LINE
  8
100
  6
CONTINUOUS
 10
117.6695709228516
 20
40.99639129638672
 11
122.5951309204102
 21
40.99639129638672
  0
LINE
  8
100
  6
CONTINUOUS
 10
117.5951309204102
 20
38.99639129638672
 11
117.5951309204102
 21
40.99639129638672
  0
LINE
  8
100
  6
CONTINUOUS
 10
117.6695709228516
 20
38.99639129638672
 11
122.5951309204102
 21
38.99639129638672
  0
LINE
  8
100
  6
CONTINUOUS
 10
117.6695709228516
 20
35.99639129638672
 11
122.5951309204102
 21
35.99639129638672
  0
LINE
  8
100
  6
CONTINUOUS
 10
117.5951309204102
 20
33.99639129638672
 11
117.5951309204102
 21
35.99639129638672
  0
LINE
  8
100
  6
CONTINUOUS
 10
117.6695709228516
 20
33.99639129638672
 11
122.5951309204102
 21
33.99639129638672
  0
LINE
  8
100
  6
CONTINUOUS
 10
117.6695709228516
 20
30.99639129638672
 11
122.5951309204102
 21
30.99639129638672
  0
LINE
  8
100
  6
CONTINUOUS
 10
117.5951309204102
 20
28.99639129638672
 11
117.5951309204102
 21
30.99639129638672
  0
LINE
  8
100
  6
CONTINUOUS
 10
117.6695709228516
 20
28.99639129638672
 11
122.5951309204102
 21
28.99639129638672
  0
LINE
  8
100
  6
CONTINUOUS
 10
117.6695709228516
 20
25.99639129638672
 11
122.5951309204102
 21
25.99639129638672
  0
LINE
  8
100
  6
CONTINUOUS
 10
117.5951309204102
 20
23.99639129638672
 11
117.5951309204102
 21
25.99639129638672
  0
LINE
  8
100
  6
CONTINUOUS
 10
117.6695709228516
 20
23.99639129638672
 11
122.5951309204102
 21
23.99639129638672
  0
LINE
  8
100
  6
CONTINUOUS
 10
117.6695709228516
 20
20.99639129638672
 11
122.5951309204102
 21
20.99639129638672
  0
LINE
  8
100
  6
CONTINUOUS
 10
117.5951309204102
 20
18.99639129638672
 11
117.5951309204102
 21
20.99639129638672
  0
LINE
  8
100
  6
CONTINUOUS
 10
117.6695709228516
 20
18.99639129638672
 11
122.5951309204102
 21
18.99639129638672
  0
LINE
  8
100
  6
CONTINUOUS
 10
117.6695709228516
 20
15.99639129638672
 11
122.5951309204102
 21
15.99639129638672
  0
LINE
  8
100
  6
CONTINUOUS
 10
117.5951309204102
 20
13.99639129638672
 11
117.5951309204102
 21
15.99639129638672
  0
LINE
  8
100
  6
CONTINUOUS
 10
117.6695709228516
 20
13.99639129638672
 11
122.5951309204102
 21
13.99639129638672
  0
LINE
  8
100
  6
CONTINUOUS
 10
117.6695709228516
 20
10.99639129638672
 11
122.5951309204102
 21
10.99639129638672
  0
LINE
  8
100
  6
CONTINUOUS
 10
117.5951309204102
 20
8.996391296386719
 11
117.5951309204102
 21
10.99639129638672
  0
LINE
  8
100
  6
CONTINUOUS
 10
117.6695709228516
 20
8.996391296386719
 11
122.5951309204102
 21
8.996391296386719
  0
LINE
  8
100
  6
CONTINUOUS
 10
117.6695709228516
 20
5.996391296386719
 11
122.5951309204102
 21
5.996391296386719
  0
LINE
  8
100
  6
CONTINUOUS
 10
117.5951309204102
 20
3.996391296386719
 11
117.5951309204102
 21
5.996391296386719
  0
LINE
  8
100
  6
CONTINUOUS
 10
117.6695709228516
 20
3.996391296386719
 11
122.5951309204102
 21
3.996391296386719
  0
LINE
  8
100
  6
CONTINUOUS
 10
117.6695709228516
 20
0.9963912963867188
 11
122.5951309204102
 21
0.9963912963867188
  0
LINE
  8
100
  6
CONTINUOUS
 10
117.5951309204102
 20
-1.003608703613281
 11
117.5951309204102
 21
0.9963912963867188
  0
LINE
  8
100
  6
CONTINUOUS
 10
117.6695709228516
 20
-1.003608703613281
 11
122.5951309204102
 21
-1.003608703613281
  0
LINE
  8
100
  6
CONTINUOUS
 10
117.6695709228516
 20
-4.003608703613281
 11
122.5951309204102
 21
-4.003608703613281
  0
LINE
  8
100
  6
CONTINUOUS
 10
117.5951309204102
 20
-6.003608703613281
 11
117.5951309204102
 21
-4.003608703613281
  0
LINE
  8
100
  6
CONTINUOUS
 10
117.6695709228516
 20
-6.003608703613281
 11
122.5951309204102
 21
-6.003608703613281
  0
LINE
  8
100
  6
CONTINUOUS
 10
117.6695709228516
 20
-9.003608703613281
 11
122.5951309204102
 21
-9.003608703613281
  0
LINE
  8
100
  6
CONTINUOUS
 10
117.5951309204102
 20
-11.00360870361328
 11
117.5951309204102
 21
-9.003608703613281
  0
LINE
  8
100
  6
CONTINUOUS
 10
117.6695709228516
 20
-11.00360870361328
 11
122.5951309204102
 21
-11.00360870361328
  0
LINE
  8
100
  6
CONTINUOUS
 10
117.6695709228516
 20
-14.00360870361328
 11
122.5951309204102
 21
-14.00360870361328
  0
LINE
  8
100
  6
CONTINUOUS
 10
117.5951309204102
 20
-16.00360870361328
 11
117.5951309204102
 21
-14.00360870361328
  0
LINE
  8
100
  6
CONTINUOUS
 10
117.6695709228516
 20
-16.00360870361328
 11
122.5951309204102
 21
-16.00360870361328
  0
LINE
  8
100
  6
CONTINUOUS
 10
117.6695709228516
 20
-19.00360870361328
 11
122.5951309204102
 21
-19.00360870361328
  0
LINE
  8
100
  6
CONTINUOUS
 10
117.5951309204102
 20
-21.00360870361328
 11
117.5951309204102
 21
-19.00360870361328
  0
LINE
  8
100
  6
CONTINUOUS
 10
117.6695709228516
 20
-21.00360870361328
 11
122.5951309204102
 21
-21.00360870361328
  0
LINE
  8
100
  6
CONTINUOUS
 10
117.6695709228516
 20
-24.00360870361328
 11
122.5951309204102
 21
-24.00360870361328
  0
LINE
  8
100
  6
CONTINUOUS
 10
117.5951309204102
 20
-26.00360870361328
 11
117.5951309204102
 21
-24.00360870361328
  0
LINE
  8
100
  6
CONTINUOUS
 10
117.6695709228516
 20
-26.00360870361328
 11
122.5951309204102
 21
-26.00360870361328
  0
LINE
  8
100
  6
CONTINUOUS
 10
117.6695709228516
 20
-29.00360870361328
 11
122.5951309204102
 21
-29.00360870361328
  0
LINE
  8
100
  6
CONTINUOUS
 10
117.5951309204102
 20
-31.00360870361328
 11
117.5951309204102
 21
-29.00360870361328
  0
LINE
  8
100
  6
CONTINUOUS
 10
117.6695709228516
 20
-31.00360870361328
 11
122.5951309204102
 21
-31.00360870361328
  0
LINE
  8
100
  6
CONTINUOUS
 10
117.6695709228516
 20
-34.00360870361328
 11
122.5951309204102
 21
-34.00360870361328
  0
LINE
  8
100
  6
CONTINUOUS
 10
117.5951309204102
 20
-36.00360870361328
 11
117.5951309204102
 21
-34.00360870361328
  0
LINE
  8
100
  6
CONTINUOUS
 10
117.6695709228516
 20
-36.00360870361328
 11
122.5951309204102
 21
-36.00360870361328
  0
LINE
  8
100
  6
CONTINUOUS
 10
117.6695709228516
 20
-39.00360870361328
 11
122.5951309204102
 21
-39.00360870361328
  0
LINE
  8
100
  6
CONTINUOUS
 10
117.5951309204102
 20
-41.00360870361328
 11
117.5951309204102
 21
-39.00360870361328
  0
LINE
  8
100
  6
CONTINUOUS
 10
117.6695709228516
 20
-41.00360870361328
 11
122.5951309204102
 21
-41.00360870361328
  0
LINE
  8
100
  6
CONTINUOUS
 10
117.6695709228516
 20
-44.00360870361328
 11
122.5951309204102
 21
-44.00360870361328
  0
LINE
  8
100
  6
CONTINUOUS
 10
117.5951309204102
 20
-46.00360870361328
 11
117.5951309204102
 21
-44.00360870361328
  0
LINE
  8
100
  6
CONTINUOUS
 10
117.6695709228516
 20
-46.00360870361328
 11
122.5951309204102
 21
-46.00360870361328
  0
LINE
  8
100
  6
CONTINUOUS
 10
117.6695709228516
 20
-49.00360870361328
 11
122.5951309204102
 21
-49.00360870361328
  0
LINE
  8
100
  6
CONTINUOUS
 10
117.5951309204102
 20
-51.00360870361328
 11
117.5951309204102
 21
-49.00360870361328
  0
LINE
  8
100
  6
CONTINUOUS
 10
117.6695709228516
 20
-51.00360870361328
 11
122.5951309204102
 21
-51.00360870361328
  0
LINE
  8
100
  6
CONTINUOUS
 10
117.6695709228516
 20
-54.00360870361328
 11
122.5951309204102
 21
-54.00360870361328
  0
LINE
  8
100
  6
CONTINUOUS
 10
117.5951309204102
 20
-56.00360870361328
 11
117.5951309204102
 21
-54.00360870361328
  0
LINE
  8
100
  6
CONTINUOUS
 10
117.6695709228516
 20
-56.00360870361328
 11
122.5951309204102
 21
-56.00360870361328
  0
LINE
  8
100
  6
CONTINUOUS
 10
117.6695709228516
 20
-59.00360870361328
 11
122.5951309204102
 21
-59.00360870361328
  0
LINE
  8
100
  6
CONTINUOUS
 10
117.5951309204102
 20
-61.00360870361328
 11
117.5951309204102
 21
-59.00360870361328
  0
LINE
  8
100
  6
CONTINUOUS
 10
117.6695709228516
 20
-61.00360870361328
 11
122.5951309204102
 21
-61.00360870361328
  0
LINE
  8
100
  6
CONTINUOUS
 10
117.6695709228516
 20
-64.00360870361328
 11
122.5951309204102
 21
-64.00360870361328
  0
LINE
  8
100
  6
CONTINUOUS
 10
117.5951309204102
 20
-66.00360870361328
 11
117.5951309204102
 21
-64.00360870361328
  0
LINE
  8
100
  6
CONTINUOUS
 10
117.6695709228516
 20
-66.00360870361328
 11
122.5951309204102
 21
-66.00360870361328
  0
LINE
  8
100
  6
CONTINUOUS
 10
117.6695709228516
 20
-69.00360870361328
 11
122.5951309204102
 21
-69.00360870361328
  0
LINE
  8
100
  6
CONTINUOUS
 10
117.5951309204102
 20
-71.00360870361328
 11
117.5951309204102
 21
-69.00360870361328
  0
LINE
  8
100
  6
CONTINUOUS
 10
117.6695709228516
 20
-71.00360870361328
 11
122.5951309204102
 21
-71.00360870361328
  0
LINE
  8
100
  6
CONTINUOUS
 10
117.6695709228516
 20
-74.00360870361328
 11
122.5951309204102
 21
-74.00360870361328
  0
LINE
  8
100
  6
CONTINUOUS
 10
117.5951309204102
 20
-76.00360870361328
 11
117.5951309204102
 21
-74.00360870361328
  0
LINE
  8
100
  6
CONTINUOUS
 10
117.6695709228516
 20
-76.00360870361328
 11
122.5951309204102
 21
-76.00360870361328
  0
LINE
  8
100
  6
CONTINUOUS
 10
117.6695709228516
 20
-79.00360870361328
 11
122.5951309204102
 21
-79.00360870361328
  0
LINE
  8
100
  6
CONTINUOUS
 10
117.5951309204102
 20
-81.00360870361328
 11
117.5951309204102
 21
-79.00360870361328
  0
LINE
  8
100
  6
CONTINUOUS
 10
117.6695709228516
 20
-81.00360870361328
 11
122.5951309204102
 21
-81.00360870361328
  0
LINE
  8
100
  6
CONTINUOUS
 10
123.5951309204102
 20
-68.50360870361328
 11
127.5951309204102
 21
-68.50360870361328
  0
LINE
  8
100
  6
CONTINUOUS
 10
124.5951309204102
 20
-71.50360870361328
 11
124.5951309204102
 21
-68.50360870361328
  0
LINE
  8
100
  6
CONTINUOUS
 10
126.5951309204102
 20
-71.50360870361328
 11
126.5951309204102
 21
-68.50360870361328
  0
LINE
  8
100
  6
CONTINUOUS
 10
123.5951309204102
 20
-71.50360870361328
 11
127.5951309204102
 21
-71.50360870361328
  0
LINE
  8
100
  6
CONTINUOUS
 10
123.5951309204102
 20
-58.50360870361328
 11
127.5951309204102
 21
-58.50360870361328
  0
LINE
  8
100
  6
CONTINUOUS
 10
124.5951309204102
 20
-61.50360870361328
 11
124.5951309204102
 21
-58.50360870361328
  0
LINE
  8
100
  6
CONTINUOUS
 10
126.5951309204102
 20
-61.50360870361328
 11
126.5951309204102
 21
-58.50360870361328
  0
LINE
  8
100
  6
CONTINUOUS
 10
123.5951309204102
 20
-61.50360870361328
 11
127.5951309204102
 21
-61.50360870361328
  0
LINE
  8
100
  6
CONTINUOUS
 10
123.5951309204102
 20
-53.50360870361328
 11
127.5951309204102
 21
-53.50360870361328
  0
LINE
  8
100
  6
CONTINUOUS
 10
124.5951309204102
 20
-56.50360870361328
 11
124.5951309204102
 21
-53.50360870361328
  0
LINE
  8
100
  6
CONTINUOUS
 10
126.5951309204102
 20
-56.50360870361328
 11
126.5951309204102
 21
-53.50360870361328
  0
LINE
  8
100
  6
CONTINUOUS
 10
123.5951309204102
 20
-56.50360870361328
 11
127.5951309204102
 21
-56.50360870361328
  0
LINE
  8
100
  6
CONTINUOUS
 10
123.5951309204102
 20
-38.50360870361328
 11
127.5951309204102
 21
-38.50360870361328
  0
LINE
  8
100
  6
CONTINUOUS
 10
124.5951309204102
 20
-41.50360870361328
 11
124.5951309204102
 21
-38.50360870361328
  0
LINE
  8
100
  6
CONTINUOUS
 10
126.5951309204102
 20
-41.50360870361328
 11
126.5951309204102
 21
-38.50360870361328
  0
LINE
  8
100
  6
CONTINUOUS
 10
123.5951309204102
 20
-41.50360870361328
 11
127.5951309204102
 21
-41.50360870361328
  0
LINE
  8
100
  6
CONTINUOUS
 10
123.5951309204102
 20
-33.50360870361328
 11
127.5951309204102
 21
-33.50360870361328
  0
LINE
  8
100
  6
CONTINUOUS
 10
124.5951309204102
 20
-36.50360870361328
 11
124.5951309204102
 21
-33.50360870361328
  0
LINE
  8
100
  6
CONTINUOUS
 10
126.5951309204102
 20
-36.50360870361328
 11
126.5951309204102
 21
-33.50360870361328
  0
LINE
  8
100
  6
CONTINUOUS
 10
123.5951309204102
 20
-36.50360870361328
 11
127.5951309204102
 21
-36.50360870361328
  0
LINE
  8
100
  6
CONTINUOUS
 10
127.5951309204102
 20
-83.00360870361328
 11
127.5951309204102
 21
52.99639129638672
  0
LINE
  8
100
  6
CONTINUOUS
 10
123.5951309204102
 20
-23.50360870361328
 11
127.5951309204102
 21
-23.50360870361328
  0
LINE
  8
100
  6
CONTINUOUS
 10
124.5951309204102
 20
-26.50360870361328
 11
124.5951309204102
 21
-23.50360870361328
  0
LINE
  8
100
  6
CONTINUOUS
 10
126.5951309204102
 20
-26.50360870361328
 11
126.5951309204102
 21
-23.50360870361328
  0
LINE
  8
100
  6
CONTINUOUS
 10
123.5951309204102
 20
-26.50360870361328
 11
127.5951309204102
 21
-26.50360870361328
  0
LINE
  8
100
  6
CONTINUOUS
 10
123.5951309204102
 20
-18.50360870361328
 11
127.5951309204102
 21
-18.50360870361328
  0
LINE
  8
100
  6
CONTINUOUS
 10
124.5951309204102
 20
-21.50360870361328
 11
124.5951309204102
 21
-18.50360870361328
  0
LINE
  8
100
  6
CONTINUOUS
 10
126.5951309204102
 20
-21.50360870361328
 11
126.5951309204102
 21
-18.50360870361328
  0
LINE
  8
100
  6
CONTINUOUS
 10
123.5951309204102
 20
-21.50360870361328
 11
127.5951309204102
 21
-21.50360870361328
  0
LINE
  8
100
  6
CONTINUOUS
 10
123.5951309204102
 20
-8.503608703613281
 11
127.5951309204102
 21
-8.503608703613281
  0
LINE
  8
100
  6
CONTINUOUS
 10
124.5951309204102
 20
-11.50360870361328
 11
124.5951309204102
 21
-8.503608703613281
  0
LINE
  8
100
  6
CONTINUOUS
 10
126.5951309204102
 20
-11.50360870361328
 11
126.5951309204102
 21
-8.503608703613281
  0
LINE
  8
100
  6
CONTINUOUS
 10
123.5951309204102
 20
-11.50360870361328
 11
127.5951309204102
 21
-11.50360870361328
  0
LINE
  8
100
  6
CONTINUOUS
 10
123.5951309204102
 20
6.496391296386719
 11
127.5951309204102
 21
6.496391296386719
  0
LINE
  8
100
  6
CONTINUOUS
 10
124.5951309204102
 20
3.496391296386719
 11
124.5951309204102
 21
6.496391296386719
  0
LINE
  8
100
  6
CONTINUOUS
 10
126.5951309204102
 20
3.496391296386719
 11
126.5951309204102
 21
6.496391296386719
  0
LINE
  8
100
  6
CONTINUOUS
 10
123.5951309204102
 20
3.496391296386719
 11
127.5951309204102
 21
3.496391296386719
  0
LINE
  8
100
  6
CONTINUOUS
 10
123.5951309204102
 20
16.49639129638672
 11
127.5951309204102
 21
16.49639129638672
  0
LINE
  8
100
  6
CONTINUOUS
 10
124.5951309204102
 20
13.49639129638672
 11
124.5951309204102
 21
16.49639129638672
  0
LINE
  8
100
  6
CONTINUOUS
 10
126.5951309204102
 20
13.49639129638672
 11
126.5951309204102
 21
16.49639129638672
  0
LINE
  8
100
  6
CONTINUOUS
 10
123.5951309204102
 20
13.49639129638672
 11
127.5951309204102
 21
13.49639129638672
  0
LINE
  8
100
  6
CONTINUOUS
 10
124.5951309204102
 20
18.49639129638672
 11
124.5951309204102
 21
21.49639129638672
  0
LINE
  8
100
  6
CONTINUOUS
 10
126.5951309204102
 20
18.49639129638672
 11
126.5951309204102
 21
21.49639129638672
  0
LINE
  8
100
  6
CONTINUOUS
 10
123.5951309204102
 20
18.49639129638672
 11
127.5951309204102
 21
18.49639129638672
  0
LINE
  8
100
  6
CONTINUOUS
 10
123.5951309204102
 20
21.49639129638672
 11
127.5951309204102
 21
21.49639129638672
  0
LINE
  8
100
  6
CONTINUOUS
 10
123.5951309204102
 20
31.49639129638672
 11
127.5951309204102
 21
31.49639129638672
  0
LINE
  8
100
  6
CONTINUOUS
 10
124.5951309204102
 20
28.49639129638672
 11
124.5951309204102
 21
31.49639129638672
  0
LINE
  8
100
  6
CONTINUOUS
 10
126.5951309204102
 20
28.49639129638672
 11
126.5951309204102
 21
31.49639129638672
  0
LINE
  8
100
  6
CONTINUOUS
 10
123.5951309204102
 20
28.49639129638672
 11
127.5951309204102
 21
28.49639129638672
  0
LINE
  8
100
  6
CONTINUOUS
 10
123.5951309204102
 20
36.49639129638672
 11
127.5951309204102
 21
36.49639129638672
  0
LINE
  8
100
  6
CONTINUOUS
 10
124.5951309204102
 20
33.49639129638672
 11
124.5951309204102
 21
36.49639129638672
  0
LINE
  8
100
  6
CONTINUOUS
 10
126.5951309204102
 20
33.49639129638672
 11
126.5951309204102
 21
36.49639129638672
  0
LINE
  8
100
  6
CONTINUOUS
 10
123.5951309204102
 20
33.49639129638672
 11
127.5951309204102
 21
33.49639129638672
  0
LINE
  8
100
  6
CONTINUOUS
 10
123.5951309204102
 20
41.49639129638672
 11
127.5951309204102
 21
41.49639129638672
  0
LINE
  8
100
  6
CONTINUOUS
 10
124.5951309204102
 20
38.49639129638672
 11
124.5951309204102
 21
41.49639129638672
  0
LINE
  8
100
  6
CONTINUOUS
 10
123.5951309204102
 20
38.49639129638672
 11
127.5951309204102
 21
38.49639129638672
  0
LINE
  8
100
  6
CONTINUOUS
 10
126.5951309204102
 20
38.49639129638672
 11
126.5951309204102
 21
41.49639129638672
  0
LINE
  8
100
  6
CONTINUOUS
 10
123.5951309204102
 20
46.49639129638672
 11
127.5951309204102
 21
46.49639129638672
  0
LINE
  8
100
  6
CONTINUOUS
 10
124.5951309204102
 20
43.49639129638672
 11
124.5951309204102
 21
46.49639129638672
  0
LINE
  8
100
  6
CONTINUOUS
 10
126.5951309204102
 20
43.49639129638672
 11
126.5951309204102
 21
46.49639129638672
  0
LINE
  8
100
  6
CONTINUOUS
 10
123.5951309204102
 20
43.49639129638672
 11
127.5951309204102
 21
43.49639129638672
  0
LINE
  8
100
  6
CONTINUOUS
 10
30.59513092041016
 20
-68.50360870361328
 11
29.59513092041016
 21
-68.50360870361328
  0
LINE
  8
100
  6
CONTINUOUS
 10
27.59513092041016
 20
-68.50360870361328
 11
25.59513092041016
 21
-68.50360870361328
  0
LINE
  8
100
  6
CONTINUOUS
 10
30.59513092041016
 20
-71.50360870361328
 11
29.59513092041016
 21
-71.50360870361328
  0
LINE
  8
100
  6
CONTINUOUS
 10
27.59513092041016
 20
-71.50360870361328
 11
25.59513092041016
 21
-71.50360870361328
  0
LINE
  8
100
  6
CONTINUOUS
 10
30.59513092041016
 20
-72.50360870361328
 11
30.59513092041016
 21
-67.50360870361328
  0
LINE
  8
100
  6
CONTINUOUS
 10
30.59513092041016
 20
-67.50360870361328
 11
43.59513092041016
 21
-67.50360870361328
  0
LINE
  8
100
  6
CONTINUOUS
 10
35.59513092041016
 20
-72.50360870361328
 11
35.59513092041016
 21
-67.50360870361328
  0
LINE
  8
100
  6
CONTINUOUS
 10
43.59513092041016
 20
-72.50360870361328
 11
43.59513092041016
 21
-67.50360870361328
  0
LINE
  8
100
  6
CONTINUOUS
 10
30.59513092041016
 20
-72.50360870361328
 11
43.59513092041016
 21
-72.50360870361328
  0
LINE
  8
100
  6
CONTINUOUS
 10
30.59513092041016
 20
-40.50360870361328
 11
29.59513092041016
 21
-40.50360870361328
  0
LINE
  8
100
  6
CONTINUOUS
 10
27.59513092041016
 20
-40.50360870361328
 11
25.59513092041016
 21
-40.50360870361328
  0
LINE
  8
100
  6
CONTINUOUS
 10
30.59513092041016
 20
-43.50360870361328
 11
29.59513092041016
 21
-43.50360870361328
  0
LINE
  8
100
  6
CONTINUOUS
 10
27.59513092041016
 20
-43.50360870361328
 11
25.59513092041016
 21
-43.50360870361328
  0
LINE
  8
100
  6
CONTINUOUS
 10
30.59513092041016
 20
-44.50360870361328
 11
30.59513092041016
 21
-39.50360870361328
  0
LINE
  8
100
  6
CONTINUOUS
 10
30.59513092041016
 20
-39.50360870361328
 11
43.59513092041016
 21
-39.50360870361328
  0
LINE
  8
100
  6
CONTINUOUS
 10
35.59513092041016
 20
-44.50360870361328
 11
35.59513092041016
 21
-39.50360870361328
  0
LINE
  8
100
  6
CONTINUOUS
 10
43.59513092041016
 20
-44.50360870361328
 11
43.59513092041016
 21
-39.50360870361328
  0
LINE
  8
100
  6
CONTINUOUS
 10
30.59513092041016
 20
-44.50360870361328
 11
43.59513092041016
 21
-44.50360870361328
  0
LINE
  8
100
  6
CONTINUOUS
 10
30.59513092041016
 20
-12.50360870361328
 11
29.59513092041016
 21
-12.50360870361328
  0
LINE
  8
100
  6
CONTINUOUS
 10
27.59513092041016
 20
-12.50360870361328
 11
25.59513092041016
 21
-12.50360870361328
  0
LINE
  8
100
  6
CONTINUOUS
 10
30.59513092041016
 20
-15.50360870361328
 11
29.59513092041016
 21
-15.50360870361328
  0
LINE
  8
100
  6
CONTINUOUS
 10
27.59513092041016
 20
-15.50360870361328
 11
25.59513092041016
 21
-15.50360870361328
  0
LINE
  8
100
  6
CONTINUOUS
 10
30.59513092041016
 20
-16.50360870361328
 11
30.59513092041016
 21
-11.50360870361328
  0
LINE
  8
100
  6
CONTINUOUS
 10
30.59513092041016
 20
-11.50360870361328
 11
43.59513092041016
 21
-11.50360870361328
  0
LINE
  8
100
  6
CONTINUOUS
 10
35.59513092041016
 20
-16.50360870361328
 11
35.59513092041016
 21
-11.50360870361328
  0
LINE
  8
100
  6
CONTINUOUS
 10
43.59513092041016
 20
-16.50360870361328
 11
43.59513092041016
 21
-11.50360870361328
  0
LINE
  8
100
  6
CONTINUOUS
 10
30.59513092041016
 20
-16.50360870361328
 11
43.59513092041016
 21
-16.50360870361328
  0
LINE
  8
100
  6
CONTINUOUS
 10
30.59513092041016
 20
15.49639129638672
 11
29.59513092041016
 21
15.49639129638672
  0
LINE
  8
100
  6
CONTINUOUS
 10
27.59513092041016
 20
15.49639129638672
 11
25.59513092041016
 21
15.49639129638672
  0
LINE
  8
100
  6
CONTINUOUS
 10
30.59513092041016
 20
12.49639129638672
 11
29.59513092041016
 21
12.49639129638672
  0
LINE
  8
100
  6
CONTINUOUS
 10
27.59513092041016
 20
12.49639129638672
 11
25.59513092041016
 21
12.49639129638672
  0
LINE
  8
100
  6
CONTINUOUS
 10
30.59513092041016
 20
11.49639129638672
 11
30.59513092041016
 21
16.49639129638672
  0
LINE
  8
100
  6
CONTINUOUS
 10
30.59513092041016
 20
16.49639129638672
 11
43.59513092041016
 21
16.49639129638672
  0
LINE
  8
100
  6
CONTINUOUS
 10
35.59513092041016
 20
11.49639129638672
 11
35.59513092041016
 21
16.49639129638672
  0
LINE
  8
100
  6
CONTINUOUS
 10
43.59513092041016
 20
11.49639129638672
 11
43.59513092041016
 21
16.49639129638672
  0
LINE
  8
100
  6
CONTINUOUS
 10
30.59513092041016
 20
11.49639129638672
 11
43.59513092041016
 21
11.49639129638672
  0
CIRCLE
  8
100
  6
CONTINUOUS
 10
57.59513092041016
 20
-86.00360870361328
 40
1.75
  0
CIRCLE
  8
100
  6
CONTINUOUS
 10
117.5951309204102
 20
-86.00360870361328
 40
1.75
  0
CIRCLE
  8
100
  6
CONTINUOUS
 10
117.5951309204102
 20
55.99639129638672
 40
1.75
  0
CIRCLE
  8
100
  6
CONTINUOUS
 10
57.59513092041016
 20
55.99639129638672
 40
1.75
  0
LINE
  8
100
  6
CONTINUOUS
 10
193.2216033935547
 20
-103.0036087036133
 11
193.2216033935547
 21
72.99639129638672
  0
LINE
  8
100
  6
CONTINUOUS
 10
235.2216033935547
 20
-103.0036087036133
 11
235.2216033935547
 21
72.99639129638672
  0
LINE
  8
100
  6
CONTINUOUS
 10
193.2216033935547
 20
-103.0036087036133
 11
235.2216033935547
 21
-103.0036087036133
  0
LINE
  8
100
  6
CONTINUOUS
 10
193.2216033935547
 20
72.99639129638672
 11
235.2216033935547
 21
72.99639129638672
  0
CIRCLE
  8
100
  6
CONTINUOUS
 10
214.2216033935547
 20
-98.00360870361328
 40
2.25
  0
CIRCLE
  8
100
  6
CONTINUOUS
 10
214.2216033935547
 20
67.99639129638672
 40
2.25
  0
LINE
  8
100
  6
CONTINUOUS
 10
229.2216033935547
 20
-90.00360870361328
 11
229.2216033935547
 21
-83.00360870361328
  0
LINE
  8
100
  6
CONTINUOUS
 10
229.2216033935547
 20
52.99639129638672
 11
229.2216033935547
 21
59.99639129638672
  0
LINE
  8
100
  6
CONTINUOUS
 10
230.8216033935547
 20
-90.00360870361328
 11
230.8216033935547
 21
-83.00360870361328
  0
LINE
  8
100
  6
CONTINUOUS
 10
230.8216033935547
 20
52.99639129638672
 11
230.8216033935547
 21
59.99639129638672
  0
LINE
  8
100
  6
CONTINUOUS
 10
224.0216033935547
 20
-83.00360870361328
 11
232.0216033935547
 21
-83.00360870361328
  0
LINE
  8
100
  6
CONTINUOUS
 10
224.0216033935547
 20
52.99639129638672
 11
232.0216033935547
 21
52.99639129638672
  0
LINE
  8
100
  6
CONTINUOUS
 10
232.0216033935547
 20
-83.00360870361328
 11
232.0216033935547
 21
52.99639129638672
  0
LINE
  8
100
  6
CONTINUOUS
 10
224.0216033935547
 20
-83.00360870361328
 11
224.0216033935547
 21
52.99639129638672
  0
LINE
  8
100
  6
CONTINUOUS
 10
229.2216033935547
 20
-90.00360870361328
 11
230.8216033935547
 21
-90.00360870361328
  0
LINE
  8
100
  6
CONTINUOUS
 10
229.2216033935547
 20
59.99639129638672
 11
230.8216033935547
 21
59.99639129638672
  0
INSERT
  8
100
  6
CENTER
  2
COMP17
 10
0.0
 20
0.0
 41
1.0
 42
1.0
 50
0.0
  0
INSERT
  8
100
  6
CENTER
  2
COMP18
 10
0.0
 20
0.0
 41
1.0
 42
1.0
 50
0.0
  0
INSERT
  8
100
  6
CENTER
  2
COMP19
 10
0.0
 20
0.0
 41
1.0
 42
1.0
 50
0.0
  0
INSERT
  8
100
  6
CENTER
  2
COMP20
 10
0.0
 20
0.0
 41
1.0
 42
1.0
 50
0.0
  0
INSERT
  8
100
  6
CENTER
  2
COMP21
 10
0.0
 20
0.0
 41
1.0
 42
1.0
 50
0.0
  0
INSERT
  8
100
  6
CENTER
  2
COMP22
 10
0.0
 20
0.0
 41
1.0
 42
1.0
 50
0.0
  0
INSERT
  8
100
  6
CENTER
  2
COMP23
 10
0.0
 20
0.0
 41
1.0
 42
1.0
 50
0.0
  0
INSERT
  8
100
  6
CENTER
  2
COMP24
 10
0.0
 20
0.0
 41
1.0
 42
1.0
 50
0.0
  0
INSERT
  8
100
  6
CENTER
  2
COMP25
 10
0.0
 20
0.0
 41
1.0
 42
1.0
 50
0.0
  0
CIRCLE
  8
100
  6
CONTINUOUS
 10
228.0216033935547
 20
-25.00360870361328
 40
2.0
  0
LINE
  8
100
  6
CONTINUOUS
 10
226.085111720451
 20
-24.50360870361328
 11
229.9580950666584
 21
-24.50360870361328
  0
CIRCLE
  8
100
  6
CONTINUOUS
 10
228.0216033935547
 20
-35.00360870361328
 40
2.0
  0
LINE
  8
100
  6
CONTINUOUS
 10
226.085111720451
 20
-34.50360870361328
 11
229.9580950666584
 21
-34.50360870361328
  0
LINE
  8
100
  6
CONTINUOUS
 10
226.085111720451
 20
-35.50360870361328
 11
229.9580950666584
 21
-35.50360870361328
  0
LINE
  8
100
  6
CONTINUOUS
 10
226.085111720451
 20
-39.50360870361328
 11
229.9580950666584
 21
-39.50360870361328
  0
LINE
  8
100
  6
CONTINUOUS
 10
226.085111720451
 20
-40.50360870361328
 11
229.9580950666584
 21
-40.50360870361328
  0
CIRCLE
  8
100
  6
CONTINUOUS
 10
228.0216033935547
 20
-45.00360870361328
 40
2.0
  0
LINE
  8
100
  6
CONTINUOUS
 10
226.085111720451
 20
-44.50360870361328
 11
229.9580950666584
 21
-44.50360870361328
  0
LINE
  8
100
  6
CONTINUOUS
 10
226.085111720451
 20
-49.50360870361328
 11
229.9580950666584
 21
-49.50360870361328
  0
LINE
  8
100
  6
CONTINUOUS
 10
226.085111720451
 20
-50.50360870361328
 11
229.9580950666584
 21
-50.50360870361328
  0
CIRCLE
  8
100
  6
CONTINUOUS
 10
228.0216033935547
 20
-55.00360870361328
 40
2.0
  0
LINE
  8
100
  6
CONTINUOUS
 10
226.085111720451
 20
-54.50360870361328
 11
229.9580950666584
 21
-54.50360870361328
  0
LINE
  8
100
  6
CONTINUOUS
 10
226.085111720451
 20
-55.50360870361328
 11
229.9580950666584
 21
-55.50360870361328
  0
CIRCLE
  8
100
  6
CONTINUOUS
 10
228.0216033935547
 20
-60.00360870361328
 40
2.0
  0
LINE
  8
100
  6
CONTINUOUS
 10
226.085111720451
 20
-59.50360870361328
 11
229.9580950666584
 21
-59.50360870361328
  0
LINE
  8
100
  6
CONTINUOUS
 10
226.085111720451
 20
-60.50360870361328
 11
229.9580950666584
 21
-60.50360870361328
  0
CIRCLE
  8
100
  6
CONTINUOUS
 10
228.0216033935547
 20
-65.00360870361328
 40
2.0
  0
LINE
  8
100
  6
CONTINUOUS
 10
226.085111720451
 20
-64.50360870361328
 11
229.9580950666584
 21
-64.50360870361328
  0
LINE
  8
100
  6
CONTINUOUS
 10
226.085111720451
 20
-65.50360870361328
 11
229.9580950666584
 21
-65.50360870361328
  0
CIRCLE
  8
100
  6
CONTINUOUS
 10
228.0216033935547
 20
-70.00360870361328
 40
2.0
  0
LINE
  8
100
  6
CONTINUOUS
 10
226.085111720451
 20
-69.50360870361328
 11
229.9580950666584
 21
-69.50360870361328
  0
LINE
  8
100
  6
CONTINUOUS
 10
226.085111720451
 20
-74.50360870361328
 11
229.9580950666584
 21
-74.50360870361328
  0
LINE
  8
100
  6
CONTINUOUS
 10
226.085111720451
 20
-75.50360870361328
 11
229.9580950666584
 21
-75.50360870361328
  0
CIRCLE
  8
100
  6
CONTINUOUS
 10
228.0216033935547
 20
49.99639129638672
 40
2.0
  0
LINE
  8
100
  6
CONTINUOUS
 10
226.085111720451
 20
50.49639129638672
 11
229.9580950666584
 21
50.49639129638672
  0
LINE
  8
100
  6
CONTINUOUS
 10
226.085111720451
 20
49.49639129638672
 11
229.9580950666584
 21
49.49639129638672
  0
CIRCLE
  8
100
  6
CONTINUOUS
 10
228.0216033935547
 20
44.99639129638672
 40
2.0
  0
LINE
  8
100
  6
CONTINUOUS
 10
226.085111720451
 20
45.49639129638672
 11
229.9580950666584
 21
45.49639129638672
  0
LINE
  8
100
  6
CONTINUOUS
 10
226.085111720451
 20
44.49639129638672
 11
229.9580950666584
 21
44.49639129638672
  0
CIRCLE
  8
100
  6
CONTINUOUS
 10
228.0216033935547
 20
24.99639129638672
 40
2.0
  0
LINE
  8
100
  6
CONTINUOUS
 10
226.085111720451
 20
25.49639129638672
 11
229.9580950666584
 21
25.49639129638672
  0
LINE
  8
100
  6
CONTINUOUS
 10
226.085111720451
 20
24.49639129638672
 11
229.9580950666584
 21
24.49639129638672
  0
CIRCLE
  8
100
  6
CONTINUOUS
 10
228.0216033935547
 20
19.99639129638672
 40
2.0
  0
LINE
  8
100
  6
CONTINUOUS
 10
226.085111720451
 20
20.49639129638672
 11
229.9580950666584
 21
20.49639129638672
  0
LINE
  8
100
  6
CONTINUOUS
 10
226.085111720451
 20
19.49639129638672
 11
229.9580950666584
 21
19.49639129638672
  0
CIRCLE
  8
100
  6
CONTINUOUS
 10
228.0216033935547
 20
4.996391296386719
 40
2.0
  0
LINE
  8
100
  6
CONTINUOUS
 10
226.085111720451
 20
5.496391296386719
 11
229.9580950666584
 21
5.496391296386719
  0
LINE
  8
100
  6
CONTINUOUS
 10
226.085111720451
 20
4.496391296386719
 11
229.9580950666584
 21
4.496391296386719
  0
CIRCLE
  8
100
  6
CONTINUOUS
 10
228.0216033935547
 20
-5.003608703613281
 40
2.0
  0
LINE
  8
100
  6
CONTINUOUS
 10
226.085111720451
 20
-4.503608703613281
 11
229.9580950666584
 21
-4.503608703613281
  0
LINE
  8
100
  6
CONTINUOUS
 10
226.085111720451
 20
-5.503608703613281
 11
229.9580950666584
 21
-5.503608703613281
  0
CIRCLE
  8
100
  6
CONTINUOUS
 10
228.0216033935547
 20
-10.00360870361328
 40
2.0
  0
LINE
  8
100
  6
CONTINUOUS
 10
226.085111720451
 20
-9.503608703613281
 11
229.9580950666584
 21
-9.503608703613281
  0
LINE
  8
100
  6
CONTINUOUS
 10
226.085111720451
 20
-10.50360870361328
 11
229.9580950666584
 21
-10.50360870361328
  0
CIRCLE
  8
100
  6
CONTINUOUS
 10
228.0216033935547
 20
-20.00360870361328
 40
2.0
  0
LINE
  8
100
  6
CONTINUOUS
 10
226.085111720451
 20
-19.50360870361328
 11
229.9580950666584
 21
-19.50360870361328
  0
LINE
  8
100
  6
CONTINUOUS
 10
226.085111720451
 20
-20.50360870361328
 11
229.9580950666584
 21
-20.50360870361328
  0
LINE
  8
100
  6
CONTINUOUS
 10
226.085111720451
 20
-25.50360870361328
 11
229.9580950666584
 21
-25.50360870361328
  0
CIRCLE
  8
100
  6
CONTINUOUS
 10
228.0216033935547
 20
-30.00360870361328
 40
2.0
  0
LINE
  8
100
  6
CONTINUOUS
 10
226.085111720451
 20
-29.50360870361328
 11
229.9580950666584
 21
-29.50360870361328
  0
LINE
  8
100
  6
CONTINUOUS
 10
226.085111720451
 20
-30.50360870361328
 11
229.9580950666584
 21
-30.50360870361328
  0
CIRCLE
  8
100
  6
CONTINUOUS
 10
228.0216033935547
 20
-40.00360870361328
 40
2.0
  0
LINE
  8
100
  6
CONTINUOUS
 10
226.085111720451
 20
-45.50360870361328
 11
229.9580950666584
 21
-45.50360870361328
  0
CIRCLE
  8
100
  6
CONTINUOUS
 10
228.0216033935547
 20
-50.00360870361328
 40
2.0
  0
LINE
  8
100
  6
CONTINUOUS
 10
226.085111720451
 20
-70.50360870361328
 11
229.9580950666584
 21
-70.50360870361328
  0
CIRCLE
  8
100
  6
CONTINUOUS
 10
228.0216033935547
 20
-75.00360870361328
 40
2.0
  0
LINE
  8
100
  6
CONTINUOUS
 10
132.5951309204102
 20
-83.00360870361328
 11
122.5951309204102
 21
-83.00360870361328
  0
LINE
  8
100
  6
CONTINUOUS
 10
132.5951309204102
 20
52.99639129638672
 11
122.5951309204102
 21
52.99639129638672
  0
LINE
  8
100
  6
DASHED
 10
229.2216033935547
 20
-90.00360870361328
 11
210.8216033935547
 21
-90.00360870361328
  0
LINE
  8
100
  6
DASHED
 10
210.8216033935547
 20
59.99639129638672
 11
229.2216033935547
 21
59.99639129638672
  0
LINE
  8
100
  6
CONTINUOUS
 10
32.59513092041016
 20
-90.00360870361328
 11
32.59513092041016
 21
-87.00360870361328
  0
LINE
  8
100
  6
CONTINUOUS
 10
32.59513092041016
 20
-81.00360870361328
 11
32.59513092041016
 21
-72.50360870361328
  0
LINE
  8
100
  6
CONTINUOUS
 10
32.59513092041016
 20
-67.50360870361328
 11
32.59513092041016
 21
-64.50360870361328
  0
LINE
  8
100
  6
CONTINUOUS
 10
32.59513092041016
 20
-59.50360870361328
 11
32.59513092041016
 21
-56.50360870361328
  0
LINE
  8
100
  6
CONTINUOUS
 10
32.59513092041016
 20
-51.50360870361328
 11
32.59513092041016
 21
-44.50360870361328
  0
LINE
  8
100
  6
CONTINUOUS
 10
32.59513092041016
 20
-39.50360870361328
 11
32.59513092041016
 21
-36.50360870361328
  0
LINE
  8
100
  6
CONTINUOUS
 10
32.59513092041016
 20
-31.50360870361328
 11
32.59513092041016
 21
-28.50360870361328
  0
LINE
  8
100
  6
CONTINUOUS
 10
32.59513092041016
 20
-23.50360870361328
 11
32.59513092041016
 21
-16.50360870361328
  0
LINE
  8
100
  6
CONTINUOUS
 10
32.59513092041016
 20
-11.50360870361328
 11
32.59513092041016
 21
-8.503608703613281
  0
LINE
  8
100
  6
CONTINUOUS
 10
32.59513092041016
 20
-3.503608703613281
 11
32.59513092041016
 21
-0.5036087036132813
  0
LINE
  8
100
  6
CONTINUOUS
 10
32.59513092041016
 20
4.496391296386719
 11
32.59513092041016
 21
11.49639129638672
  0
LINE
  8
100
  6
CONTINUOUS
 10
32.59513092041016
 20
16.49639129638672
 11
32.59513092041016
 21
19.49639129638672
  0
LINE
  8
100
  6
CONTINUOUS
 10
32.59513092041016
 20
24.49639129638672
 11
32.59513092041016
 21
27.49639129638672
  0
LINE
  8
100
  6
CONTINUOUS
 10
32.59513092041016
 20
32.49639129638672
 11
32.59513092041016
 21
50.99639129638672
  0
LINE
  8
100
  6
CONTINUOUS
 10
32.59513092041016
 20
56.99639129638672
 11
32.59513092041016
 21
59.99639129638672
  0
LINE
  8
100
  6
CONTINUOUS
 10
29.59513092041016
 20
28.99639129638672
 11
29.59513092041016
 21
30.99639129638672
  0
LINE
  8
100
  6
CONTINUOUS
 10
30.09513092041016
 20
30.99639129638672
 11
31.59513092041016
 21
30.99639129638672
  0
LINE
  8
100
  6
CONTINUOUS
 10
30.09513092041016
 20
28.99639129638672
 11
31.59513092041016
 21
28.99639129638672
  0
LINE
  8
100
  6
CONTINUOUS
 10
31.59513092041016
 20
27.49639129638672
 11
50.59513092041016
 21
27.49639129638672
  0
LINE
  8
100
  6
CONTINUOUS
 10
31.59513092041016
 20
27.49639129638672
 11
31.59513092041016
 21
32.49639129638672
  0
LINE
  8
100
  6
CONTINUOUS
 10
31.59513092041016
 20
32.49639129638672
 11
50.59513092041016
 21
32.49639129638672
  0
LINE
  8
100
  6
CONTINUOUS
 10
50.59513092041016
 20
27.49639129638672
 11
50.59513092041016
 21
32.49639129638672
  0
LINE
  8
100
  6
CONTINUOUS
 10
50.59513092041016
 20
19.49639129638672
 11
50.59513092041016
 21
24.49639129638672
  0
LINE
  8
100
  6
CONTINUOUS
 10
31.59513092041016
 20
24.49639129638672
 11
50.59513092041016
 21
24.49639129638672
  0
LINE
  8
100
  6
CONTINUOUS
 10
31.59513092041016
 20
19.49639129638672
 11
31.59513092041016
 21
24.49639129638672
  0
LINE
  8
100
  6
CONTINUOUS
 10
30.09513092041016
 20
22.99639129638672
 11
31.59513092041016
 21
22.99639129638672
  0
LINE
  8
100
  6
CONTINUOUS
 10
29.59513092041016
 20
20.99639129638672
 11
29.59513092041016
 21
22.99639129638672
  0
LINE
  8
100
  6
CONTINUOUS
 10
30.09513092041016
 20
20.99639129638672
 11
31.59513092041016
 21
20.99639129638672
  0
LINE
  8
100
  6
CONTINUOUS
 10
29.59513092041016
 20
0.9963912963867188
 11
29.59513092041016
 21
2.996391296386719
  0
LINE
  8
100
  6
CONTINUOUS
 10
30.09513092041016
 20
0.9963912963867188
 11
31.59513092041016
 21
0.9963912963867188
  0
LINE
  8
100
  6
CONTINUOUS
 10
30.09513092041016
 20
2.996391296386719
 11
31.59513092041016
 21
2.996391296386719
  0
LINE
  8
100
  6
CONTINUOUS
 10
31.59513092041016
 20
4.496391296386719
 11
50.59513092041016
 21
4.496391296386719
  0
LINE
  8
100
  6
CONTINUOUS
 10
31.59513092041016
 20
-0.5036087036132813
 11
31.59513092041016
 21
4.496391296386719
  0
LINE
  8
100
  6
CONTINUOUS
 10
29.59513092041016
 20
-7.003608703613281
 11
29.59513092041016
 21
-5.003608703613281
  0
LINE
  8
100
  6
CONTINUOUS
 10
30.09513092041016
 20
-5.003608703613281
 11
31.59513092041016
 21
-5.003608703613281
  0
LINE
  8
100
  6
CONTINUOUS
 10
30.09513092041016
 20
-7.003608703613281
 11
31.59513092041016
 21
-7.003608703613281
  0
LINE
  8
100
  6
CONTINUOUS
 10
31.59513092041016
 20
-8.503608703613281
 11
31.59513092041016
 21
-3.503608703613281
  0
LINE
  8
100
  6
CONTINUOUS
 10
31.59513092041016
 20
-3.503608703613281
 11
50.59513092041016
 21
-3.503608703613281
  0
LINE
  8
100
  6
CONTINUOUS
 10
31.59513092041016
 20
-8.503608703613281
 11
50.59513092041016
 21
-8.503608703613281
  0
LINE
  8
100
  6
CONTINUOUS
 10
50.59513092041016
 20
-8.503608703613281
 11
50.59513092041016
 21
-3.503608703613281
  0
LINE
  8
100
  6
CONTINUOUS
 10
50.59513092041016
 20
-0.5036087036132813
 11
50.59513092041016
 21
4.496391296386719
  0
LINE
  8
100
  6
CONTINUOUS
 10
31.59513092041016
 20
-0.5036087036132813
 11
50.59513092041016
 21
-0.5036087036132813
  0
LINE
  8
100
  6
CONTINUOUS
 10
31.59513092041016
 20
19.49639129638672
 11
50.59513092041016
 21
19.49639129638672
  0
LINE
  8
100
  6
CONTINUOUS
 10
30.09513092041016
 20
-7.003608703613281
 11
30.09513092041016
 21
-5.003608703613281
  0
LINE
  8
100
  6
CONTINUOUS
 10
30.09513092041016
 20
0.9963912963867188
 11
30.09513092041016
 21
2.996391296386719
  0
LINE
  8
100
  6
CONTINUOUS
 10
30.09513092041016
 20
20.99639129638672
 11
30.09513092041016
 21
22.99639129638672
  0
LINE
  8
100
  6
CONTINUOUS
 10
30.09513092041016
 20
28.99639129638672
 11
30.09513092041016
 21
30.99639129638672
  0
LINE
  8
100
  6
CONTINUOUS
 10
30.09513092041016
 20
-63.00360870361328
 11
30.09513092041016
 21
-61.00360870361328
  0
LINE
  8
100
  6
CONTINUOUS
 10
30.09513092041016
 20
-55.00360870361328
 11
30.09513092041016
 21
-53.00360870361328
  0
LINE
  8
100
  6
CONTINUOUS
 10
30.09513092041016
 20
-35.00360870361328
 11
30.09513092041016
 21
-33.00360870361328
  0
LINE
  8
100
  6
CONTINUOUS
 10
30.09513092041016
 20
-27.00360870361328
 11
30.09513092041016
 21
-25.00360870361328
  0
LINE
  8
100
  6
CONTINUOUS
 10
29.59513092041016
 20
-27.00360870361328
 11
29.59513092041016
 21
-25.00360870361328
  0
LINE
  8
100
  6
CONTINUOUS
 10
30.09513092041016
 20
-25.00360870361328
 11
31.59513092041016
 21
-25.00360870361328
  0
LINE
  8
100
  6
CONTINUOUS
 10
30.09513092041016
 20
-27.00360870361328
 11
31.59513092041016
 21
-27.00360870361328
  0
LINE
  8
100
  6
CONTINUOUS
 10
31.59513092041016
 20
-28.50360870361328
 11
31.59513092041016
 21
-23.50360870361328
  0
LINE
  8
100
  6
CONTINUOUS
 10
31.59513092041016
 20
-23.50360870361328
 11
50.59513092041016
 21
-23.50360870361328
  0
LINE
  8
100
  6
CONTINUOUS
 10
31.59513092041016
 20
-28.50360870361328
 11
50.59513092041016
 21
-28.50360870361328
  0
LINE
  8
100
  6
CONTINUOUS
 10
50.59513092041016
 20
-28.50360870361328
 11
50.59513092041016
 21
-23.50360870361328
  0
LINE
  8
100
  6
CONTINUOUS
 10
29.59513092041016
 20
-35.00360870361328
 11
29.59513092041016
 21
-33.00360870361328
  0
LINE
  8
100
  6
CONTINUOUS
 10
30.09513092041016
 20
-33.00360870361328
 11
31.59513092041016
 21
-33.00360870361328
  0
LINE
  8
100
  6
CONTINUOUS
 10
30.09513092041016
 20
-35.00360870361328
 11
31.59513092041016
 21
-35.00360870361328
  0
LINE
  8
100
  6
CONTINUOUS
 10
31.59513092041016
 20
-36.50360870361328
 11
31.59513092041016
 21
-31.50360870361328
  0
LINE
  8
100
  6
CONTINUOUS
 10
31.59513092041016
 20
-31.50360870361328
 11
50.59513092041016
 21
-31.50360870361328
  0
LINE
  8
100
  6
CONTINUOUS
 10
31.59513092041016
 20
-36.50360870361328
 11
50.59513092041016
 21
-36.50360870361328
  0
LINE
  8
100
  6
CONTINUOUS
 10
50.59513092041016
 20
-36.50360870361328
 11
50.59513092041016
 21
-31.50360870361328
  0
LINE
  8
100
  6
CONTINUOUS
 10
29.59513092041016
 20
-55.00360870361328
 11
29.59513092041016
 21
-53.00360870361328
  0
LINE
  8
100
  6
CONTINUOUS
 10
30.09513092041016
 20
-53.00360870361328
 11
31.59513092041016
 21
-53.00360870361328
  0
LINE
  8
100
  6
CONTINUOUS
 10
31.59513092041016
 20
-56.50360870361328
 11
31.59513092041016
 21
-51.50360870361328
  0
LINE
  8
100
  6
CONTINUOUS
 10
50.59513092041016
 20
-56.50360870361328
 11
50.59513092041016
 21
-51.50360870361328
  0
LINE
  8
100
  6
CONTINUOUS
 10
31.59513092041016
 20
-56.50360870361328
 11
50.59513092041016
 21
-56.50360870361328
  0
LINE
  8
100
  6
CONTINUOUS
 10
29.59513092041016
 20
-63.00360870361328
 11
29.59513092041016
 21
-61.00360870361328
  0
LINE
  8
100
  6
CONTINUOUS
 10
31.59513092041016
 20
-64.50360870361328
 11
31.59513092041016
 21
-59.50360870361328
  0
LINE
  8
100
  6
CONTINUOUS
 10
30.09513092041016
 20
-63.00360870361328
 11
31.59513092041016
 21
-63.00360870361328
  0
LINE
  8
100
  6
CONTINUOUS
 10
31.59513092041016
 20
-59.50360870361328
 11
50.59513092041016
 21
-59.50360870361328
  0
LINE
  8
100
  6
CONTINUOUS
 10
31.59513092041016
 20
-64.50360870361328
 11
50.59513092041016
 21
-64.50360870361328
  0
LINE
  8
100
  6
CONTINUOUS
 10
50.59513092041016
 20
-64.50360870361328
 11
50.59513092041016
 21
-59.50360870361328
  0
LINE
  8
100
  6
CONTINUOUS
 10
31.59513092041016
 20
-51.50360870361328
 11
50.59513092041016
 21
-51.50360870361328
  0
LINE
  8
100
  6
CONTINUOUS
 10
30.09513092041016
 20
-61.00360870361328
 11
31.59513092041016
 21
-61.00360870361328
  0
LINE
  8
100
  6
CONTINUOUS
 10
30.09513092041016
 20
-55.00360870361328
 11
31.59513092041016
 21
-55.00360870361328
  0
LINE
  8
100
  6
DASHED
 10
204.2216033935547
 20
-90.00360870361328
 11
204.2216033935547
 21
59.99639129638672
  0
LINE
  8
100
  6
DASHED
 10
204.2216033935547
 20
59.99639129638672
 11
214.2216033935547
 21
59.99639129638672
  0
LINE
  8
100
  6
DASHED
 10
204.2216033935547
 20
-90.00360870361328
 11
214.2216033935547
 21
-90.00360870361328
  0
INSERT
  8
20
  6
CONTINUOUS
  2
COMP26
 10
0.0
 20
0.0
 41
1.0
 42
1.0
 50
0.0
  0
INSERT
  8
20
  6
CONTINUOUS
  2
COMP27
 10
0.0
 20
0.0
 41
1.0
 42
1.0
 50
0.0
  0
INSERT
  8
20
  6
CONTINUOUS
  2
COMP28
 10
0.0
 20
0.0
 41
1.0
 42
1.0
 50
0.0
  0
INSERT
  8
20
  6
CONTINUOUS
  2
COMP29
 10
0.0
 20
0.0
 41
1.0
 42
1.0
 50
0.0
  0
INSERT
  8
20
  6
CONTINUOUS
  2
COMP30
 10
0.0
 20
0.0
 41
1.0
 42
1.0
 50
0.0
  0
INSERT
  8
20
  6
CONTINUOUS
  2
COMP31
 10
0.0
 20
0.0
 41
1.0
 42
1.0
 50
0.0
  0
INSERT
  8
20
  6
CONTINUOUS
  2
COMP32
 10
0.0
 20
0.0
 41
1.0
 42
1.0
 50
0.0
  0
INSERT
  8
20
  6
CONTINUOUS
  2
COMP33
 10
0.0
 20
0.0
 41
1.0
 42
1.0
 50
0.0
  0
INSERT
  8
20
  6
CONTINUOUS
  2
COMP34
 10
0.0
 20
0.0
 41
1.0
 42
1.0
 50
0.0
  0
INSERT
  8
20
  6
CONTINUOUS
  2
COMP35
 10
0.0
 20
0.0
 41
1.0
 42
1.0
 50
0.0
  0
INSERT
  8
20
  6
CONTINUOUS
  2
COMP36
 10
0.0
 20
0.0
 41
1.0
 42
1.0
 50
0.0
  0
INSERT
  8
20
  6
CONTINUOUS
  2
COMP37
 10
0.0
 20
0.0
 41
1.0
 42
1.0
 50
0.0
  0
INSERT
  8
20
  6
CONTINUOUS
  2
COMP38
 10
0.0
 20
0.0
 41
1.0
 42
1.0
 50
0.0
  0
INSERT
  8
20
  6
CONTINUOUS
  2
COMP39
 10
0.0
 20
0.0
 41
1.0
 42
1.0
 50
0.0
  0
INSERT
  8
20
  6
CONTINUOUS
  2
COMP40
 10
0.0
 20
0.0
 41
1.0
 42
1.0
 50
0.0
  0
INSERT
  8
20
  6
CONTINUOUS
  2
COMP41
 10
0.0
 20
0.0
 41
1.0
 42
1.0
 50
0.0
  0
INSERT
  8
20
  6
CONTINUOUS
  2
COMP42
 10
0.0
 20
0.0
 41
1.0
 42
1.0
 50
0.0
  0
INSERT
  8
20
  6
CONTINUOUS
  2
COMP43
 10
0.0
 20
0.0
 41
1.0
 42
1.0
 50
0.0
  0
INSERT
  8
20
  6
CONTINUOUS
  2
COMP44
 10
0.0
 20
0.0
 41
1.0
 42
1.0
 50
0.0
  0
INSERT
  8
20
  6
CONTINUOUS
  2
COMP45
 10
0.0
 20
0.0
 41
1.0
 42
1.0
 50
0.0
  0
INSERT
  8
20
  6
CONTINUOUS
  2
COMP46
 10
0.0
 20
0.0
 41
1.0
 42
1.0
 50
0.0
  0
INSERT
  8
20
  6
CONTINUOUS
  2
COMP47
 10
0.0
 20
0.0
 41
1.0
 42
1.0
 50
0.0
  0
INSERT
  8
20
  6
CONTINUOUS
  2
COMP48
 10
0.0
 20
0.0
 41
1.0
 42
1.0
 50
0.0
  0
INSERT
  8
20
  6
CONTINUOUS
  2
COMP49
 10
0.0
 20
0.0
 41
1.0
 42
1.0
 50
0.0
  0
INSERT
  8
20
  6
CONTINUOUS
  2
COMP50
 10
0.0
 20
0.0
 41
1.0
 42
1.0
 50
0.0
  0
INSERT
  8
20
  6
CONTINUOUS
  2
COMP51
 10
0.0
 20
0.0
 41
1.0
 42
1.0
 50
0.0
  0
INSERT
  8
20
  6
CONTINUOUS
  2
COMP52
 10
0.0
 20
0.0
 41
1.0
 42
1.0
 50
0.0
  0
INSERT
  8
20
  6
CONTINUOUS
  2
COMP53
 10
0.0
 20
0.0
 41
1.0
 42
1.0
 50
0.0
  0
INSERT
  8
20
  6
CONTINUOUS
  2
COMP54
 10
0.0
 20
0.0
 41
1.0
 42
1.0
 50
0.0
  0
INSERT
  8
20
  6
CONTINUOUS
  2
COMP55
 10
0.0
 20
0.0
 41
1.0
 42
1.0
 50
0.0
  0
INSERT
  8
20
  6
CONTINUOUS
  2
COMP56
 10
0.0
 20
0.0
 41
1.0
 42
1.0
 50
0.0
  0
INSERT
  8
20
  6
CONTINUOUS
  2
COMP57
 10
0.0
 20
0.0
 41
1.0
 42
1.0
 50
0.0
  0
INSERT
  8
20
  6
CONTINUOUS
  2
COMP58
 10
0.0
 20
0.0
 41
1.0
 42
1.0
 50
0.0
  0
INSERT
  8
20
  6
CONTINUOUS
  2
COMP59
 10
0.0
 20
0.0
 41
1.0
 42
1.0
 50
0.0
  0
INSERT
  8
20
  6
CONTINUOUS
  2
COMP60
 10
0.0
 20
0.0
 41
1.0
 42
1.0
 50
0.0
  0
INSERT
  8
20
  6
CONTINUOUS
  2
COMP61
 10
0.0
 20
0.0
 41
1.0
 42
1.0
 50
0.0
  0
INSERT
  8
20
  6
CONTINUOUS
  2
COMP62
 10
0.0
 20
0.0
 41
1.0
 42
1.0
 50
0.0
  0
INSERT
  8
20
  6
CONTINUOUS
  2
COMP63
 10
0.0
 20
0.0
 41
1.0
 42
1.0
 50
0.0
  0
INSERT
  8
20
  6
CONTINUOUS
  2
COMP64
 10
0.0
 20
0.0
 41
1.0
 42
1.0
 50
0.0
  0
INSERT
  8
20
  6
CONTINUOUS
  2
COMP65
 10
0.0
 20
0.0
 41
1.0
 42
1.0
 50
0.0
  0
INSERT
  8
20
  6
CONTINUOUS
  2
COMP66
 10
0.0
 20
0.0
 41
1.0
 42
1.0
 50
0.0
  0
INSERT
  8
20
  6
CONTINUOUS
  2
COMP67
 10
0.0
 20
0.0
 41
1.0
 42
1.0
 50
0.0
  0
INSERT
  8
20
  6
CONTINUOUS
  2
COMP68
 10
0.0
 20
0.0
 41
1.0
 42
1.0
 50
0.0
  0
INSERT
  8
20
  6
CONTINUOUS
  2
COMP69
 10
0.0
 20
0.0
 41
1.0
 42
1.0
 50
0.0
  0
INSERT
  8
20
  6
CONTINUOUS
  2
COMP70
 10
0.0
 20
0.0
 41
1.0
 42
1.0
 50
0.0
  0
INSERT
  8
20
  6
CONTINUOUS
  2
COMP71
 10
0.0
 20
0.0
 41
1.0
 42
1.0
 50
0.0
  0
ENDSEC
  0
EOF
