  0
SECTION
  2
HEADER
  9
$ACADVER
  1
AC1006
  9
$INSBASE
 10
0.0
 20
0.0
 30
0.0
  9
$EXTMIN
 10
-7.103697299957275
 20
-233.2435607910156
  9
$EXTMAX
 10
222.0
 20
57.5
  9
$LIMMIN
 10
-7.103697299957275
 20
-233.2435607910156
  9
$LIMMAX
 10
222.0
 20
57.5
  9
$ORTHOMODE
 70
     0
  9
$REGENMODE
 70
     1
  9
$FILLMODE
 70
     1
  9
$QTEXTMODE
 70
     0
  9
$MIRRTEXT
 70
     1
  9
$DRAGMODE
 70
     2
  9
$LTSCALE
 40
1.0
  9
$OSMODE
 70
     0
  9
$ATTMODE
 70
     1
  9
$TEXTSIZE
 40
3.0
  9
$TRACEWID
 40
0.5
  9
$TEXTSTYLE
  7
BIGFONT
  9
$CLAYER
  8
0
  9
$CELTYPE
  6
BYLAYER
  9
$CECOLOR
 62
   256
  9
$DIMSCALE
 40
1.0
  9
$DIMASZ
 40
3.0
  9
$DIMEXO
 40
1.0
  9
$DIMDLI
 40
5.0
  9
$DIMRND
 40
0.0
  9
$DIMDLE
 40
5.0
  9
$DIMEXE
 40
2.0
  9
$DIMTP
 40
0.0
  9
$DIMTM
 40
0.0
  9
$DIMTXT
 40
3.0
  9
$DIMCEN
 40
2.0
  9
$DIMTSZ
 40
0.0
  9
$DIMTOL
 70
     0
  9
$DIMLIM
 70
     0
  9
$DIMTIH
 70
     0
  9
$DIMTOH
 70
     0
  9
$DIMSE1
 70
     0
  9
$DIMSE2
 70
     0
  9
$DIMTAD
 70
     1
  9
$DIMZIN
 70
     8
  9
$DIMBLK
  1

  9
$DIMASO
 70
     1
  9
$DIMSHO
 70
     0
  9
$DIMPOST
  1

  9
$DIMAPOST
  1

  9
$DIMALT
 70
     0
  9
$DIMALTD
 70
     4
  9
$DIMALTF
 40
25.4
  9
$DIMLFAC
 40
1.0
  9
$DIMTOFL
 70
     1
  9
$DIMTVP
 40
1.0
  9
$DIMTIX
 70
     0
  9
$DIMSOXD
 70
     0
  9
$DIMSAH
 70
     0
  9
$DIMBLK1
  1

  9
$DIMBLK2
  1

  9
$LUNITS
 70
     2
  9
$LUPREC
 70
     4
  9
$AXISMODE
 70
     0
  9
$AXISUNIT
 10
0.0
 20
0.0
  9
$SKETCHINC
 40
1.0
  9
$FILLETRAD
 40
0.0
  9
$AUNITS
 70
     0
  9
$AUPREC
 70
     0
  9
$MENU
  1
acad
  9
$ELEVATION
 40
0.0
  9
$THICKNESS
 40
0.0
  9
$LIMCHECK
 70
     0
  9
$BLIPMODE
 70
     1
  9
$CHAMFERA
 40
0.0
  9
$CHAMFERB
 40
0.0
  9
$SKPOLY
 70
     0
  9
$TDCREATE
 40
2454078.6734375
  9
$TDUPDATE
 40
2454078.6734375
  9
$TDINDWG
 40
0.0
  9
$TDUSRTIMER
 40
0.0
  9
$USRTIMER
 70
     1
  9
$ANGBASE
 50
0.0
  9
$ANGDIR
 70
     0
  9
$PDMODE
 70
     0
  9
$PDSIZE
 40
0.0
  9
$PLINEWID
 40
0.0
  9
$COORDS
 70
     0
  9
$SPLFRAME
 70
     0
  9
$SPLINETYPE
 70
     6
  9
$SPLINESEGS
 70
     8
  9
$ATTDIA
 70
     0
  9
$ATTREQ
 70
     1
  9
$HANDLING
 70
     0
  9
$HANDSEED
  5
0
  9
$SURFTAB1
 70
     6
  9
$SURFTAB2
 70
     6
  9
$SURFTYPE
 70
     6
  9
$SURFU
 70
     6
  9
$SURFV
 70
     6
  9
$FLATLAND
 70
     0
  9
$UCSNAME
  2

  9
$UCSORG
 10
0.0
 20
0.0
 30
0.0
  9
$UCSXDIR
 10
1.0
 20
0.0
 30
0.0
  9
$UCSYDIR
 10
0.0
 20
1.0
 30
0.0
  9
$USERI1
 70
     0
  9
$USERI2
 70
     0
  9
$USERI3
 70
     0
  9
$USERI4
 70
     0
  9
$USERI5
 70
     0
  9
$USERR1
 40
0.0
  9
$USERR2
 40
0.0
  9
$USERR3
 40
0.0
  9
$USERR4
 40
0.0
  9
$USERR5
 40
0.0
  9
$WORLDVIEW
 70
     1
  0
ENDSEC
  0
SECTION
  2
TABLES
  0
TABLE
  2
VPORT
 70
     1
  0
VPORT
  2
*ACTIVE
 70
     0
 10
0.0
 20
0.0
 11
1.0
 21
1.0
 12
107.4481513500214
 22
-87.87178039550781
 13
0.0
 23
0.0
 14
0.0
 24
0.0
 15
0.0
 25
0.0
 16
0.0
 26
0.0
 36
1.0
 17
0.0
 27
0.0
 37
0.0
 40
290.7435607910156
 41
1.5
 42
50.0
 43
0.0
 44
0.0
 50
0.0
 51
0.0
 71
     0
 72
   100
 73
     1
 74
     1
 75
     0
 76
     0
 77
     0
 78
     0
  0
ENDTAB
  0
TABLE
  2
LTYPE
 70
    20
  0
LTYPE
  2
CONTINUOUS
 70
    64
  3
solid line
 72
    65
 73
     0
 40
0.0
  0
LTYPE
  2
CENTER
 70
    64
  3
--- - --- - --- - --- - --- - 
 72
    65
 73
     4
 40
6.0
 49
3.0
 49
-1.0
 49
1.0
 49
-1.0
  0
ENDTAB
  0
TABLE
  2
LAYER
 70
    20
  0
LAYER
  2
0
 70
    64
 62
     7
  6
CONTINUOUS
  0
LAYER
  2
1
 70
    64
 62
     7
  6
CONTINUOUS
  0
LAYER
  2
10
 70
    64
 62
     7
  6
CONTINUOUS
  0
LAYER
  2
20
 70
    64
 62
     7
  6
CONTINUOUS
  0
ENDTAB
  0
TABLE
  2
STYLE
 70
     4
  0
STYLE
  2
BIGFONT
 70
    64
 40
0.0
 41
1.0
 50
0.0
 71
     0
 42
3.0
  3
txt
  4
bigfont
  0
ENDTAB
  0
TABLE
  2
VIEW
 70
     0
  0
ENDTAB
  0
TABLE
  2
UCS
 70
     0
  0
ENDTAB
  0
TABLE
  2
DWGMGR
 70
     0
  0
ENDTAB
  0
ENDSEC
  0
SECTION
  2
BLOCKS
  0
ENDSEC
  0
SECTION
  2
ENTITIES
  0
LINE
  8
1
  6
CENTER
 10
-7.103697299957275
 20
0.0
 11
114.3422012329102
 21
0.0
  0
LINE
  8
10
  6
CONTINUOUS
 10
0.0
 20
19.0
 11
0.0
 21
48.0
  0
LINE
  8
10
  6
CONTINUOUS
 10
6.000000000000028
 20
57.5
 11
17.0
 21
57.5
  0
LINE
  8
10
  6
CONTINUOUS
 10
110.0
 20
-32.5
 11
110.0
 21
32.5
  0
LINE
  8
10
  6
CONTINUOUS
 10
65.0
 20
43.5
 11
65.0
 21
46.0
  0
LINE
  8
10
  6
CONTINUOUS
 10
65.0
 20
46.0
 11
96.5
 21
46.0
  0
LINE
  8
10
  6
CONTINUOUS
 10
110.0
 20
32.5
 11
96.5
 21
46.0
  0
LINE
  8
10
  6
CONTINUOUS
 10
10.5
 20
43.5
 11
65.0
 21
43.5
  0
LINE
  8
10
  6
CONTINUOUS
 10
16.0
 20
47.0
 11
16.0
 21
51.0
  0
LINE
  8
10
  6
CONTINUOUS
 10
16.0
 20
57.0
 11
16.0
 21
57.5
  0
LINE
  8
10
  6
CONTINUOUS
 10
0.0
 20
48.0
 11
6.000000000000028
 21
57.5
  0
LINE
  8
10
  6
CONTINUOUS
 10
10.5
 20
43.5
 11
10.5
 21
46.99999999999999
  0
LINE
  8
10
  6
CONTINUOUS
 10
16.0
 20
48.5
 11
10.5
 21
46.99999999999999
  0
LINE
  8
10
  6
CONTINUOUS
 10
4.0
 20
18.0
 11
5.0
 21
18.0
  0
LINE
  8
10
  6
CONTINUOUS
 10
5.0
 20
-18.0
 11
5.0
 21
18.0
  0
LINE
  8
10
  6
CONTINUOUS
 10
0.0
 20
19.0
 11
4.0
 21
18.0
  0
LINE
  8
10
  6
CONTINUOUS
 10
17.0
 20
47.0
 11
17.0
 21
51.0
  0
LINE
  8
10
  6
CONTINUOUS
 10
17.0
 20
57.0
 11
17.0
 21
57.5
  0
LINE
  8
10
  6
CONTINUOUS
 10
10.5
 20
44.0
 11
14.0
 21
44.0
  0
LINE
  8
10
  6
CONTINUOUS
 10
10.5
 20
45.0
 11
14.0
 21
45.0
  0
ARC
  8
10
  6
CONTINUOUS
 10
14.0
 20
47.0
 40
2.0
 50
270.0
 51
0.0
  0
ARC
  8
10
  6
CONTINUOUS
 10
14.0
 20
47.0
 40
3.0
 50
270.0
 51
0.0
  0
LINE
  8
10
  6
CONTINUOUS
 10
18.0
 20
51.0
 11
18.0
 21
57.0
  0
LINE
  8
10
  6
CONTINUOUS
 10
13.0
 20
51.0
 11
13.0
 21
57.0
  0
LINE
  8
10
  6
CONTINUOUS
 10
13.0
 20
57.0
 11
18.0
 21
57.0
  0
LINE
  8
10
  6
CONTINUOUS
 10
13.0
 20
51.0
 11
18.0
 21
51.0
  0
LINE
  8
10
  6
CONTINUOUS
 10
18.0
 20
54.40414518843274
 11
18.7
 21
54.0
  0
LINE
  8
10
  6
CONTINUOUS
 10
18.0
 20
54.0
 11
18.7
 21
53.59585481156726
  0
LINE
  8
10
  6
CONTINUOUS
 10
18.0
 20
51.05
 11
18.7
 21
51.05
  0
LINE
  8
10
  6
CONTINUOUS
 10
18.0
 20
56.95
 11
18.7
 21
56.95
  0
LINE
  8
10
  6
CONTINUOUS
 10
18.7
 20
56.95
 11
18.7
 21
51.05
  0
LINE
  8
10
  6
CONTINUOUS
 10
18.0
 20
56.95
 11
18.0
 21
51.05
  0
LINE
  8
10
  6
CONTINUOUS
 10
18.7
 20
56.6
 11
20.7
 21
56.6
  0
LINE
  8
10
  6
CONTINUOUS
 10
18.7
 20
51.4
 11
20.7
 21
51.4
  0
LINE
  8
10
  6
CONTINUOUS
 10
20.7
 20
56.6
 11
20.7
 21
51.4
  0
LINE
  8
10
  6
CONTINUOUS
 10
62.0
 20
-43.5
 11
62.0
 21
43.5
  0
LINE
  8
10
  6
CONTINUOUS
 10
0.0
 20
46.99999999999999
 11
10.5
 21
46.99999999999999
  0
LINE
  8
10
  6
CONTINUOUS
 10
1.0
 20
20.0
 11
7.0
 21
20.0
  0
LINE
  8
10
  6
CONTINUOUS
 10
1.0
 20
28.0
 11
7.0
 21
28.0
  0
LINE
  8
10
  6
CONTINUOUS
 10
7.0
 20
20.0
 11
7.0
 21
28.0
  0
LINE
  8
10
  6
CONTINUOUS
 10
1.0
 20
20.0
 11
1.0
 21
22.5
  0
LINE
  8
10
  6
CONTINUOUS
 10
1.0
 20
25.5
 11
1.0
 21
28.0
  0
LINE
  8
10
  6
CONTINUOUS
 10
2.0
 20
22.5
 11
2.0
 21
25.5
  0
LINE
  8
10
  6
CONTINUOUS
 10
5.0
 20
21.0
 11
5.0
 21
27.0
  0
LINE
  8
10
  6
CONTINUOUS
 10
1.0
 20
22.5
 11
5.0
 21
22.5
  0
LINE
  8
10
  6
CONTINUOUS
 10
1.0
 20
25.5
 11
5.0
 21
25.5
  0
LINE
  8
10
  6
CONTINUOUS
 10
2.0
 20
21.0
 11
6.0
 21
21.0
  0
LINE
  8
10
  6
CONTINUOUS
 10
2.0
 20
25.5
 11
2.0
 21
27.0
  0
LINE
  8
10
  6
CONTINUOUS
 10
2.0
 20
27.0
 11
6.0
 21
27.0
  0
LINE
  8
10
  6
CONTINUOUS
 10
2.0
 20
21.0
 11
2.0
 21
22.5
  0
LINE
  8
10
  6
CONTINUOUS
 10
6.0
 20
21.0
 11
6.0
 21
27.0
  0
LINE
  8
10
  6
CONTINUOUS
 10
1.0
 20
34.0
 11
7.0
 21
34.0
  0
LINE
  8
10
  6
CONTINUOUS
 10
1.0
 20
39.5
 11
5.0
 21
39.5
  0
LINE
  8
10
  6
CONTINUOUS
 10
1.0
 20
36.5
 11
5.0
 21
36.5
  0
LINE
  8
10
  6
CONTINUOUS
 10
2.0
 20
36.5
 11
2.0
 21
39.5
  0
LINE
  8
10
  6
CONTINUOUS
 10
1.0
 20
42.0
 11
7.0
 21
42.0
  0
LINE
  8
10
  6
CONTINUOUS
 10
2.0
 20
35.0
 11
2.0
 21
36.5
  0
LINE
  8
10
  6
CONTINUOUS
 10
2.0
 20
39.5
 11
2.0
 21
41.0
  0
LINE
  8
10
  6
CONTINUOUS
 10
2.0
 20
35.0
 11
6.0
 21
35.0
  0
LINE
  8
10
  6
CONTINUOUS
 10
6.0
 20
35.0
 11
6.0
 21
41.0
  0
LINE
  8
10
  6
CONTINUOUS
 10
2.0
 20
41.0
 11
6.0
 21
41.0
  0
LINE
  8
10
  6
CONTINUOUS
 10
5.0
 20
35.0
 11
5.0
 21
41.0
  0
LINE
  8
10
  6
CONTINUOUS
 10
7.0
 20
34.0
 11
7.0
 21
42.0
  0
LINE
  8
10
  6
CONTINUOUS
 10
1.0
 20
34.0
 11
1.0
 21
36.5
  0
LINE
  8
10
  6
CONTINUOUS
 10
1.0
 20
39.5
 11
1.0
 21
42.0
  0
LINE
  8
10
  6
CONTINUOUS
 10
110.0
 20
-32.5
 11
96.5
 21
-46.0
  0
LINE
  8
10
  6
CONTINUOUS
 10
0.0
 20
-48.0
 11
6.000000000000028
 21
-57.5
  0
LINE
  8
10
  6
CONTINUOUS
 10
65.0
 20
-46.0
 11
96.5
 21
-46.0
  0
LINE
  8
10
  6
CONTINUOUS
 10
65.0
 20
-43.5
 11
65.0
 21
-46.0
  0
LINE
  8
10
  6
CONTINUOUS
 10
16.0
 20
-48.5
 11
10.5
 21
-46.99999999999999
  0
LINE
  8
10
  6
CONTINUOUS
 10
10.5
 20
-43.5
 11
10.5
 21
-46.99999999999999
  0
LINE
  8
10
  6
CONTINUOUS
 10
10.5
 20
-43.5
 11
65.0
 21
-43.5
  0
LINE
  8
10
  6
CONTINUOUS
 10
0.0
 20
-22.0
 11
0.0
 21
-48.0
  0
LINE
  8
10
  6
CONTINUOUS
 10
4.0
 20
-18.0
 11
5.0
 21
-18.0
  0
LINE
  8
10
  6
CONTINUOUS
 10
10.5
 20
-45.0
 11
14.0
 21
-45.0
  0
ARC
  8
10
  6
CONTINUOUS
 10
14.0
 20
-47.0
 40
2.0
 50
0.0
 51
90.0
  0
LINE
  8
10
  6
CONTINUOUS
 10
10.5
 20
-44.0
 11
14.0
 21
-44.0
  0
ARC
  8
10
  6
CONTINUOUS
 10
14.0
 20
-47.0
 40
3.0
 50
0.0
 51
90.0
  0
LINE
  8
10
  6
CONTINUOUS
 10
6.000000000000028
 20
-57.5
 11
17.0
 21
-57.5
  0
LINE
  8
10
  6
CONTINUOUS
 10
13.0
 20
-51.0
 11
13.0
 21
-57.0
  0
LINE
  8
10
  6
CONTINUOUS
 10
18.0
 20
-51.0
 11
18.0
 21
-57.0
  0
LINE
  8
10
  6
CONTINUOUS
 10
13.0
 20
-57.0
 11
18.0
 21
-57.0
  0
LINE
  8
10
  6
CONTINUOUS
 10
13.0
 20
-51.0
 11
18.0
 21
-51.0
  0
LINE
  8
10
  6
CONTINUOUS
 10
16.0
 20
-47.0
 11
16.0
 21
-51.0
  0
LINE
  8
10
  6
CONTINUOUS
 10
16.0
 20
-57.0
 11
16.0
 21
-57.5
  0
LINE
  8
10
  6
CONTINUOUS
 10
17.0
 20
-47.0
 11
17.0
 21
-51.0
  0
LINE
  8
10
  6
CONTINUOUS
 10
17.0
 20
-57.0
 11
17.0
 21
-57.5
  0
LINE
  8
10
  6
CONTINUOUS
 10
18.0
 20
-54.40414518843274
 11
18.7
 21
-54.0
  0
LINE
  8
10
  6
CONTINUOUS
 10
18.0
 20
-54.0
 11
18.7
 21
-53.59585481156726
  0
LINE
  8
10
  6
CONTINUOUS
 10
18.0
 20
-51.05
 11
18.7
 21
-51.05
  0
LINE
  8
10
  6
CONTINUOUS
 10
18.0
 20
-56.95
 11
18.7
 21
-56.95
  0
LINE
  8
10
  6
CONTINUOUS
 10
18.7
 20
-56.95
 11
18.7
 21
-51.05
  0
LINE
  8
10
  6
CONTINUOUS
 10
18.0
 20
-56.95
 11
18.0
 21
-51.05
  0
LINE
  8
10
  6
CONTINUOUS
 10
18.7
 20
-56.6
 11
20.7
 21
-56.6
  0
LINE
  8
10
  6
CONTINUOUS
 10
18.7
 20
-51.4
 11
20.7
 21
-51.4
  0
LINE
  8
10
  6
CONTINUOUS
 10
20.7
 20
-56.6
 11
20.7
 21
-51.4
  0
LINE
  8
10
  6
CONTINUOUS
 10
0.0
 20
-46.99999999999999
 11
10.5
 21
-46.99999999999999
  0
LINE
  8
10
  6
CONTINUOUS
 10
1.0
 20
-25.5
 11
5.0
 21
-25.5
  0
LINE
  8
10
  6
CONTINUOUS
 10
1.0
 20
-22.5
 11
5.0
 21
-22.5
  0
LINE
  8
10
  6
CONTINUOUS
 10
2.0
 20
-22.5
 11
2.0
 21
-25.5
  0
LINE
  8
10
  6
CONTINUOUS
 10
1.0
 20
-28.0
 11
7.0
 21
-28.0
  0
LINE
  8
10
  6
CONTINUOUS
 10
1.0
 20
-20.0
 11
7.0
 21
-20.0
  0
LINE
  8
10
  6
CONTINUOUS
 10
2.0
 20
-21.0
 11
2.0
 21
-22.5
  0
LINE
  8
10
  6
CONTINUOUS
 10
2.0
 20
-25.5
 11
2.0
 21
-27.0
  0
LINE
  8
10
  6
CONTINUOUS
 10
2.0
 20
-21.0
 11
6.0
 21
-21.0
  0
LINE
  8
10
  6
CONTINUOUS
 10
6.0
 20
-21.0
 11
6.0
 21
-27.0
  0
LINE
  8
10
  6
CONTINUOUS
 10
2.0
 20
-27.0
 11
6.0
 21
-27.0
  0
LINE
  8
10
  6
CONTINUOUS
 10
5.0
 20
-21.0
 11
5.0
 21
-27.0
  0
LINE
  8
10
  6
CONTINUOUS
 10
7.0
 20
-20.0
 11
7.0
 21
-28.0
  0
LINE
  8
10
  6
CONTINUOUS
 10
1.0
 20
-20.0
 11
1.0
 21
-22.5
  0
LINE
  8
10
  6
CONTINUOUS
 10
1.0
 20
-25.5
 11
1.0
 21
-28.0
  0
LINE
  8
10
  6
CONTINUOUS
 10
1.0
 20
-34.0
 11
7.0
 21
-34.0
  0
LINE
  8
10
  6
CONTINUOUS
 10
1.0
 20
-39.5
 11
5.0
 21
-39.5
  0
LINE
  8
10
  6
CONTINUOUS
 10
1.0
 20
-36.5
 11
5.0
 21
-36.5
  0
LINE
  8
10
  6
CONTINUOUS
 10
2.0
 20
-36.5
 11
2.0
 21
-39.5
  0
LINE
  8
10
  6
CONTINUOUS
 10
1.0
 20
-42.0
 11
7.0
 21
-42.0
  0
LINE
  8
10
  6
CONTINUOUS
 10
2.0
 20
-35.0
 11
2.0
 21
-36.5
  0
LINE
  8
10
  6
CONTINUOUS
 10
2.0
 20
-39.5
 11
2.0
 21
-41.0
  0
LINE
  8
10
  6
CONTINUOUS
 10
2.0
 20
-35.0
 11
6.0
 21
-35.0
  0
LINE
  8
10
  6
CONTINUOUS
 10
6.0
 20
-35.0
 11
6.0
 21
-41.0
  0
LINE
  8
10
  6
CONTINUOUS
 10
2.0
 20
-41.0
 11
6.0
 21
-41.0
  0
LINE
  8
10
  6
CONTINUOUS
 10
5.0
 20
-35.0
 11
5.0
 21
-41.0
  0
LINE
  8
10
  6
CONTINUOUS
 10
7.0
 20
-34.0
 11
7.0
 21
-42.0
  0
LINE
  8
10
  6
CONTINUOUS
 10
1.0
 20
-34.0
 11
1.0
 21
-36.5
  0
LINE
  8
10
  6
CONTINUOUS
 10
1.0
 20
-39.5
 11
1.0
 21
-42.0
  0
ARC
  8
10
  6
CONTINUOUS
 10
4.0
 20
-22.0
 40
4.0
 50
90.0
 51
180.0
  0
LINE
  8
10
  6
CONTINUOUS
 10
5.0
 20
17.0
 11
4.0
 21
17.0
  0
LINE
  8
10
  6
CONTINUOUS
 10
4.0
 20
17.0
 11
3.5
 21
15.0
  0
LINE
  8
10
  6
CONTINUOUS
 10
3.5
 20
15.0
 11
2.0
 21
16.5
  0
LINE
  8
10
  6
CONTINUOUS
 10
2.0
 20
16.5
 11
2.0
 21
18.5
  0
ARC
  8
10
  6
CONTINUOUS
 10
2.0
 20
-20.3
 40
3.0
 50
103.2917191676422
 51
228.1896851042214
  0
ARC
  8
10
  6
CONTINUOUS
 10
4.0
 20
-18.8
 40
2.000000000000001
 50
60.00000000000002
 51
103.2917191676422
  0
LINE
  8
10
  6
CONTINUOUS
 10
3.5401818332106
 20
-16.85357577761413
 11
1.3102727498159
 21
-17.3803636664212
  0
ARC
  8
10
  6
CONTINUOUS
 10
4.0
 20
-18.8
 40
1.000000000000001
 50
60.00000000000007
 51
103.2917191676422
  0
LINE
  8
10
  6
CONTINUOUS
 10
3.7700909166053
 20
-17.82678788880707
 11
1.5401818332106
 21
-18.35357577761413
  0
ARC
  8
10
  6
CONTINUOUS
 10
2.0
 20
-20.3
 40
1.999999999999999
 50
103.2917191676422
 51
200.5122900566155
  0
LINE
  8
10
  6
CONTINUOUS
 10
21.5
 20
43.5
 11
21.5
 21
46.99999999999999
  0
LINE
  8
10
  6
CONTINUOUS
 10
19.5
 20
43.5
 11
19.5
 21
45.99999999999999
  0
LINE
  8
10
  6
CONTINUOUS
 10
21.5
 20
46.99999999999999
 11
19.5
 21
45.99999999999999
  0
LINE
  8
10
  6
CONTINUOUS
 10
56.0
 20
-124.25
 11
56.0
 21
-149.0
  0
LINE
  8
10
  6
CONTINUOUS
 10
56.0
 20
-188.5
 11
56.0
 21
-215.75
  0
LINE
  8
10
  6
CONTINUOUS
 10
66.0
 20
-124.25
 11
66.0
 21
-134.25
  0
LINE
  8
10
  6
CONTINUOUS
 10
66.0
 20
-205.75
 11
66.0
 21
-215.75
  0
LINE
  8
10
  6
CONTINUOUS
 10
69.0
 20
-139.25
 11
69.0
 21
-151.25
  0
LINE
  8
10
  6
CONTINUOUS
 10
69.0
 20
-188.75
 11
69.0
 21
-200.75
  0
LINE
  8
10
  6
CONTINUOUS
 10
74.5
 20
-153.25
 11
74.5
 21
-186.75
  0
LINE
  8
10
  6
CONTINUOUS
 10
56.0
 20
-124.25
 11
66.0
 21
-124.25
  0
LINE
  8
10
  6
CONTINUOUS
 10
56.0
 20
-215.75
 11
66.0
 21
-215.75
  0
LINE
  8
10
  6
CONTINUOUS
 10
66.0
 20
-134.25
 11
69.0
 21
-139.25
  0
LINE
  8
10
  6
CONTINUOUS
 10
69.0
 20
-151.25
 11
74.5
 21
-153.25
  0
LINE
  8
10
  6
CONTINUOUS
 10
74.5
 20
-186.75
 11
69.0
 21
-188.75
  0
LINE
  8
10
  6
CONTINUOUS
 10
69.0
 20
-200.75
 11
66.0
 21
-205.75
  0
LINE
  8
10
  6
CONTINUOUS
 10
61.0
 20
-152.0
 11
61.0
 21
-188.0
  0
LINE
  8
10
  6
CONTINUOUS
 10
61.0
 20
-188.0
 11
56.0
 21
-188.5
  0
LINE
  8
10
  6
CONTINUOUS
 10
61.0
 20
-152.0
 11
59.50000000000001
 21
-151.85
  0
LINE
  8
10
  6
CONTINUOUS
 10
56.0
 20
-149.0
 11
59.50000000000001
 21
-151.85
  0
LINE
  8
10
  6
CONTINUOUS
 10
56.0
 20
-188.5
 11
56.0
 21
-184.5
  0
LINE
  8
10
  6
CONTINUOUS
 10
56.0
 20
-184.5
 11
59.5
 21
-186.0
  0
LINE
  8
10
  6
CONTINUOUS
 10
59.5
 20
-186.0
 11
59.92156862745098
 21
-188.1078431372549
  0
LINE
  8
10
  6
CONTINUOUS
 10
61.0
 20
-166.0
 11
72.0
 21
-166.0
  0
LINE
  8
10
  6
CONTINUOUS
 10
61.0
 20
-174.0
 11
72.0
 21
-174.0
  0
LINE
  8
10
  6
CONTINUOUS
 10
61.0
 20
-159.0
 11
72.0
 21
-159.0
  0
LINE
  8
10
  6
CONTINUOUS
 10
61.0
 20
-181.0
 11
72.0
 21
-181.0
  0
LINE
  8
10
  6
CONTINUOUS
 10
72.0
 20
-159.0
 11
72.0
 21
-160.5
  0
LINE
  8
10
  6
CONTINUOUS
 10
72.0
 20
-164.5
 11
72.0
 21
-166.0
  0
LINE
  8
10
  6
CONTINUOUS
 10
72.0
 20
-174.0
 11
72.0
 21
-175.5
  0
LINE
  8
10
  6
CONTINUOUS
 10
72.0
 20
-179.5
 11
72.0
 21
-181.0
  0
LINE
  8
10
  6
CONTINUOUS
 10
68.0
 20
-159.0
 11
68.0
 21
-166.0
  0
LINE
  8
10
  6
CONTINUOUS
 10
68.0
 20
-174.0
 11
68.0
 21
-181.0
  0
LINE
  8
10
  6
CONTINUOUS
 10
67.0
 20
-159.0
 11
67.0
 21
-166.0
  0
LINE
  8
10
  6
CONTINUOUS
 10
67.0
 20
-174.0
 11
67.0
 21
-181.0
  0
LINE
  8
10
  6
CONTINUOUS
 10
68.0
 20
-160.5
 11
72.0
 21
-160.5
  0
LINE
  8
10
  6
CONTINUOUS
 10
68.0
 20
-164.5
 11
72.0
 21
-164.5
  0
LINE
  8
10
  6
CONTINUOUS
 10
68.0
 20
-175.5
 11
72.0
 21
-175.5
  0
LINE
  8
10
  6
CONTINUOUS
 10
68.0
 20
-179.5
 11
72.0
 21
-179.5
  0
LINE
  8
10
  6
CONTINUOUS
 10
143.75
 20
-215.75
 11
143.75
 21
-124.25
  0
LINE
  8
10
  6
CONTINUOUS
 10
156.25
 20
-215.75
 11
156.25
 21
-124.25
  0
LINE
  8
10
  6
CONTINUOUS
 10
143.75
 20
-124.25
 11
156.25
 21
-124.25
  0
LINE
  8
10
  6
CONTINUOUS
 10
143.75
 20
-215.75
 11
156.25
 21
-215.75
  0
CIRCLE
  8
10
  6
CONTINUOUS
 10
150.0
 20
-129.25
 40
2.25
  0
CIRCLE
  8
10
  6
CONTINUOUS
 10
150.0
 20
-210.75
 40
2.25
  0
CIRCLE
  8
10
  6
CONTINUOUS
 10
150.0
 20
-129.25
 40
4.0
  0
CIRCLE
  8
10
  6
CONTINUOUS
 10
150.0
 20
-210.75
 40
4.0
  0
LINE
  8
10
  6
CONTINUOUS
 10
143.75
 20
-134.25
 11
156.25
 21
-134.25
  0
LINE
  8
10
  6
CONTINUOUS
 10
144.95
 20
-144.75
 11
146.95
 21
-144.75
  0
LINE
  8
10
  6
CONTINUOUS
 10
153.05
 20
-144.75
 11
155.05
 21
-144.75
  0
LINE
  8
10
  6
CONTINUOUS
 10
144.95
 20
-205.75
 11
144.95
 21
-153.25
  0
LINE
  8
10
  6
CONTINUOUS
 10
144.95
 20
-144.75
 11
144.95
 21
-134.25
  0
LINE
  8
10
  6
CONTINUOUS
 10
155.05
 20
-205.75
 11
155.05
 21
-153.25
  0
LINE
  8
10
  6
CONTINUOUS
 10
155.05
 20
-144.75
 11
155.05
 21
-134.25
  0
LINE
  8
10
  6
CONTINUOUS
 10
143.75
 20
-205.75
 11
144.95
 21
-205.75
  0
LINE
  8
10
  6
CONTINUOUS
 10
155.05
 20
-205.75
 11
156.25
 21
-205.75
  0
LINE
  8
10
  6
CONTINUOUS
 10
144.95
 20
-153.25
 11
155.05
 21
-153.25
  0
LINE
  8
10
  6
CONTINUOUS
 10
144.95
 20
-186.75
 11
155.05
 21
-186.75
  0
LINE
  8
10
  6
CONTINUOUS
 10
144.95
 20
-181.75
 11
155.05
 21
-181.75
  0
LINE
  8
10
  6
CONTINUOUS
 10
144.95
 20
-158.25
 11
155.05
 21
-158.25
  0
LINE
  8
10
  6
CONTINUOUS
 10
147.95
 20
-152.05
 11
152.05
 21
-152.05
  0
LINE
  8
10
  6
CONTINUOUS
 10
146.95
 20
-144.75
 11
147.95
 21
-152.05
  0
LINE
  8
10
  6
CONTINUOUS
 10
152.05
 20
-152.05
 11
153.05
 21
-144.75
  0
LINE
  8
10
  6
CONTINUOUS
 10
147.5
 20
-194.75
 11
148.5
 21
-194.75
  0
LINE
  8
10
  6
CONTINUOUS
 10
151.5
 20
-194.75
 11
152.5
 21
-194.75
  0
LINE
  8
10
  6
CONTINUOUS
 10
147.5
 20
-194.75
 11
147.5
 21
-186.75
  0
LINE
  8
10
  6
CONTINUOUS
 10
152.5
 20
-194.75
 11
152.5
 21
-186.75
  0
LINE
  8
10
  6
CONTINUOUS
 10
148.5
 20
-194.75
 11
148.5
 21
-186.75
  0
LINE
  8
10
  6
CONTINUOUS
 10
151.5
 20
-194.75
 11
151.5
 21
-186.75
  0
LINE
  8
1
  6
CENTER
 10
150.0
 20
-120.25
 11
150.0
 21
-219.75
  0
LINE
  8
1
  6
CENTER
 10
141.0
 20
-129.25
 11
159.0
 21
-129.25
  0
LINE
  8
1
  6
CENTER
 10
141.0
 20
-210.75
 11
159.0
 21
-210.75
  0
TEXT
  8
20
  6
CONTINUOUS
 10
83.16046905517578
 20
-232.7435607910156
 40
4.0
 41
1.0
 50
0.0
 51
0.0
  7
BIGFONT
  1
台座（オプション）
  0
LINE
  8
10
  6
CONTINUOUS
 10
218.25
 20
-46.99999999999999
 11
218.25
 21
46.99999999999999
  0
LINE
  8
10
  6
CONTINUOUS
 10
205.75
 20
-46.99999999999999
 11
205.75
 21
46.99999999999999
  0
LINE
  8
10
  6
CONTINUOUS
 10
217.25
 20
-21.0
 11
217.25
 21
-46.0
  0
LINE
  8
10
  6
CONTINUOUS
 10
206.75
 20
-21.0
 11
206.75
 21
-46.0
  0
LINE
  8
10
  6
CONTINUOUS
 10
211.5
 20
-21.0
 11
211.5
 21
-46.0
  0
LINE
  8
10
  6
CONTINUOUS
 10
212.5
 20
-21.0
 11
212.5
 21
-46.0
  0
LINE
  8
10
  6
CONTINUOUS
 10
206.75
 20
-21.0
 11
211.5
 21
-21.0
  0
LINE
  8
10
  6
CONTINUOUS
 10
212.5
 20
-21.0
 11
217.25
 21
-21.0
  0
LINE
  8
10
  6
CONTINUOUS
 10
206.75
 20
-31.75
 11
211.5
 21
-31.75
  0
LINE
  8
10
  6
CONTINUOUS
 10
212.5
 20
-31.75
 11
217.25
 21
-31.75
  0
LINE
  8
10
  6
CONTINUOUS
 10
206.75
 20
-43.5
 11
211.5
 21
-43.5
  0
LINE
  8
10
  6
CONTINUOUS
 10
212.5
 20
-43.5
 11
217.25
 21
-43.5
  0
LINE
  8
10
  6
CONTINUOUS
 10
205.75
 20
-46.0
 11
206.75
 21
-46.0
  0
LINE
  8
10
  6
CONTINUOUS
 10
211.5
 20
-46.0
 11
212.5
 21
-46.0
  0
LINE
  8
10
  6
CONTINUOUS
 10
217.25
 20
-46.0
 11
218.25
 21
-46.0
  0
CIRCLE
  8
10
  6
CONTINUOUS
 10
214.875
 20
-35.75
 40
1.5
  0
CIRCLE
  8
10
  6
CONTINUOUS
 10
209.125
 20
-35.75
 40
1.5
  0
CIRCLE
  8
10
  6
CONTINUOUS
 10
209.125
 20
-24.0
 40
1.5
  0
CIRCLE
  8
10
  6
CONTINUOUS
 10
214.875
 20
-24.0
 40
1.5
  0
LINE
  8
10
  6
CONTINUOUS
 10
205.75
 20
-46.99999999999999
 11
207.0
 21
-48.0
  0
LINE
  8
10
  6
CONTINUOUS
 10
217.0
 20
-48.0
 11
218.25
 21
-46.99999999999999
  0
LINE
  8
10
  6
CONTINUOUS
 10
207.0
 20
-48.0
 11
207.0
 21
-57.5
  0
LINE
  8
10
  6
CONTINUOUS
 10
217.0
 20
-48.0
 11
217.0
 21
-57.5
  0
LINE
  8
10
  6
CONTINUOUS
 10
207.0
 20
-57.5
 11
217.0
 21
-57.5
  0
LINE
  8
10
  6
CONTINUOUS
 10
207.5
 20
-57.0
 11
216.5
 21
-57.0
  0
LINE
  8
10
  6
CONTINUOUS
 10
207.5
 20
-51.0
 11
216.5
 21
-51.0
  0
CIRCLE
  8
10
  6
CONTINUOUS
 10
212.0
 20
-54.0
 40
2.600000000000001
  0
CIRCLE
  8
10
  6
CONTINUOUS
 10
212.0
 20
-54.0
 40
3.0
  0
LINE
  8
10
  6
CONTINUOUS
 10
212.5
 20
-51.44852983556535
 11
212.5
 21
-56.55147016443465
  0
LINE
  8
10
  6
CONTINUOUS
 10
211.5
 20
-51.44852983556535
 11
211.5
 21
-56.55147016443465
  0
LINE
  8
10
  6
CONTINUOUS
 10
216.5
 20
-51.0
 11
216.5
 21
-57.0
  0
LINE
  8
10
  6
CONTINUOUS
 10
207.5
 20
-51.0
 11
207.5
 21
-57.0
  0
LINE
  8
10
  6
CONTINUOUS
 10
217.0
 20
-43.5
 11
217.0
 21
-46.99999999999999
  0
LINE
  8
10
  6
CONTINUOUS
 10
207.0
 20
-43.5
 11
207.0
 21
-46.99999999999999
  0
LINE
  8
10
  6
CONTINUOUS
 10
217.0
 20
-46.99999999999999
 11
215.5
 21
-48.0
  0
LINE
  8
10
  6
CONTINUOUS
 10
207.0
 20
-46.99999999999999
 11
208.5
 21
-48.0
  0
LINE
  8
10
  6
CONTINUOUS
 10
215.5
 20
-48.0
 11
215.5
 21
-51.0
  0
LINE
  8
10
  6
CONTINUOUS
 10
215.5
 20
-57.0
 11
215.5
 21
-57.5
  0
LINE
  8
10
  6
CONTINUOUS
 10
208.5
 20
-48.0
 11
208.5
 21
-51.0
  0
LINE
  8
10
  6
CONTINUOUS
 10
208.5
 20
-57.0
 11
208.5
 21
-57.5
  0
LINE
  8
10
  6
CONTINUOUS
 10
205.75
 20
46.0
 11
206.75
 21
46.0
  0
LINE
  8
10
  6
CONTINUOUS
 10
211.5
 20
46.0
 11
212.5
 21
46.0
  0
LINE
  8
10
  6
CONTINUOUS
 10
217.25
 20
46.0
 11
218.25
 21
46.0
  0
LINE
  8
10
  6
CONTINUOUS
 10
206.75
 20
21.0
 11
206.75
 21
46.0
  0
LINE
  8
10
  6
CONTINUOUS
 10
217.25
 20
21.0
 11
217.25
 21
46.0
  0
LINE
  8
10
  6
CONTINUOUS
 10
211.5
 20
21.0
 11
211.5
 21
46.0
  0
LINE
  8
10
  6
CONTINUOUS
 10
212.5
 20
21.0
 11
212.5
 21
46.0
  0
LINE
  8
10
  6
CONTINUOUS
 10
206.75
 20
21.0
 11
211.5
 21
21.0
  0
LINE
  8
10
  6
CONTINUOUS
 10
212.5
 20
21.0
 11
217.25
 21
21.0
  0
LINE
  8
10
  6
CONTINUOUS
 10
206.75
 20
31.75
 11
211.5
 21
31.75
  0
LINE
  8
10
  6
CONTINUOUS
 10
212.5
 20
31.75
 11
217.25
 21
31.75
  0
LINE
  8
10
  6
CONTINUOUS
 10
206.75
 20
43.5
 11
211.5
 21
43.5
  0
LINE
  8
10
  6
CONTINUOUS
 10
212.5
 20
43.5
 11
217.25
 21
43.5
  0
CIRCLE
  8
10
  6
CONTINUOUS
 10
214.875
 20
35.75
 40
1.5
  0
CIRCLE
  8
10
  6
CONTINUOUS
 10
209.125
 20
35.75
 40
1.5
  0
CIRCLE
  8
10
  6
CONTINUOUS
 10
209.125
 20
24.0
 40
1.5
  0
CIRCLE
  8
10
  6
CONTINUOUS
 10
214.875
 20
24.0
 40
1.5
  0
LINE
  8
10
  6
CONTINUOUS
 10
217.0
 20
43.5
 11
217.0
 21
46.99999999999999
  0
LINE
  8
10
  6
CONTINUOUS
 10
207.0
 20
43.5
 11
207.0
 21
46.99999999999999
  0
LINE
  8
10
  6
CONTINUOUS
 10
207.0
 20
57.5
 11
217.0
 21
57.5
  0
LINE
  8
10
  6
CONTINUOUS
 10
207.0
 20
46.99999999999999
 11
217.0
 21
46.99999999999999
  0
LINE
  8
10
  6
CONTINUOUS
 10
217.0
 20
48.0
 11
217.0
 21
57.5
  0
LINE
  8
10
  6
CONTINUOUS
 10
217.0
 20
48.0
 11
218.25
 21
46.99999999999999
  0
LINE
  8
10
  6
CONTINUOUS
 10
216.5
 20
51.0
 11
216.5
 21
57.0
  0
LINE
  8
10
  6
CONTINUOUS
 10
215.5
 20
48.0
 11
215.5
 21
51.0
  0
LINE
  8
10
  6
CONTINUOUS
 10
215.5
 20
57.0
 11
215.5
 21
57.5
  0
LINE
  8
10
  6
CONTINUOUS
 10
207.5
 20
57.0
 11
216.5
 21
57.0
  0
LINE
  8
10
  6
CONTINUOUS
 10
207.5
 20
51.0
 11
216.5
 21
51.0
  0
CIRCLE
  8
10
  6
CONTINUOUS
 10
212.0
 20
54.0
 40
2.600000000000001
  0
CIRCLE
  8
10
  6
CONTINUOUS
 10
212.0
 20
54.0
 40
3.0
  0
LINE
  8
10
  6
CONTINUOUS
 10
211.5
 20
51.44852983556535
 11
211.5
 21
56.55147016443465
  0
LINE
  8
10
  6
CONTINUOUS
 10
212.5
 20
51.44852983556535
 11
212.5
 21
56.55147016443465
  0
LINE
  8
10
  6
CONTINUOUS
 10
217.0
 20
46.99999999999999
 11
215.5
 21
48.0
  0
LINE
  8
10
  6
CONTINUOUS
 10
207.0
 20
48.0
 11
207.0
 21
57.5
  0
LINE
  8
10
  6
CONTINUOUS
 10
205.75
 20
46.99999999999999
 11
207.0
 21
48.0
  0
LINE
  8
10
  6
CONTINUOUS
 10
207.5
 20
51.0
 11
207.5
 21
57.0
  0
LINE
  8
10
  6
CONTINUOUS
 10
208.5
 20
48.0
 11
208.5
 21
51.0
  0
LINE
  8
10
  6
CONTINUOUS
 10
208.5
 20
57.0
 11
208.5
 21
57.5
  0
LINE
  8
10
  6
CONTINUOUS
 10
207.0
 20
46.99999999999999
 11
208.5
 21
48.0
  0
LINE
  8
1
  6
CENTER
 10
202.0
 20
0.0
 11
222.0
 21
0.0
  0
ENDSEC
  0
EOF
