  0
SECTION
  2
HEADER
  9
$ACADVER
  1
AC1006
  9
$INSBASE
 10
0.0
 20
0.0
 30
0.0
  9
$EXTMIN
 10
-82.5
 20
-212.9022827148438
  9
$EXTMAX
 10
237.0219116210938
 20
67.0
  9
$LIMMIN
 10
-82.5
 20
-212.9022827148438
  9
$LIMMAX
 10
237.0219116210938
 20
67.0
  9
$ORTHOMODE
 70
     0
  9
$REGENMODE
 70
     1
  9
$FILLMODE
 70
     1
  9
$QTEXTMODE
 70
     0
  9
$MIRRTEXT
 70
     1
  9
$DRAGMODE
 70
     2
  9
$LTSCALE
 40
1.0
  9
$OSMODE
 70
     0
  9
$ATTMODE
 70
     1
  9
$TEXTSIZE
 40
3.0
  9
$TRACEWID
 40
0.5
  9
$TEXTSTYLE
  7
STANDARD
  9
$CLAYER
  8
0
  9
$CELTYPE
  6
BYLAYER
  9
$CECOLOR
 62
   256
  9
$DIMSCALE
 40
1.0
  9
$DIMASZ
 40
3.0
  9
$DIMEXO
 40
1.0
  9
$DIMDLI
 40
5.0
  9
$DIMRND
 40
0.0
  9
$DIMDLE
 40
5.0
  9
$DIMEXE
 40
2.0
  9
$DIMTP
 40
0.0
  9
$DIMTM
 40
0.0
  9
$DIMTXT
 40
3.0
  9
$DIMCEN
 40
2.0
  9
$DIMTSZ
 40
0.0
  9
$DIMTOL
 70
     0
  9
$DIMLIM
 70
     0
  9
$DIMTIH
 70
     0
  9
$DIMTOH
 70
     0
  9
$DIMSE1
 70
     0
  9
$DIMSE2
 70
     0
  9
$DIMTAD
 70
     1
  9
$DIMZIN
 70
     8
  9
$DIMBLK
  1

  9
$DIMASO
 70
     1
  9
$DIMSHO
 70
     0
  9
$DIMPOST
  1

  9
$DIMAPOST
  1

  9
$DIMALT
 70
     0
  9
$DIMALTD
 70
     4
  9
$DIMALTF
 40
25.4
  9
$DIMLFAC
 40
1.0
  9
$DIMTOFL
 70
     1
  9
$DIMTVP
 40
1.0
  9
$DIMTIX
 70
     0
  9
$DIMSOXD
 70
     0
  9
$DIMSAH
 70
     0
  9
$DIMBLK1
  1

  9
$DIMBLK2
  1

  9
$LUNITS
 70
     2
  9
$LUPREC
 70
     4
  9
$AXISMODE
 70
     0
  9
$AXISUNIT
 10
0.0
 20
0.0
  9
$SKETCHINC
 40
1.0
  9
$FILLETRAD
 40
0.0
  9
$AUNITS
 70
     0
  9
$AUPREC
 70
     0
  9
$MENU
  1
acad
  9
$ELEVATION
 40
0.0
  9
$THICKNESS
 40
0.0
  9
$LIMCHECK
 70
     0
  9
$BLIPMODE
 70
     1
  9
$CHAMFERA
 40
0.0
  9
$CHAMFERB
 40
0.0
  9
$SKPOLY
 70
     0
  9
$TDCREATE
 40
2455211.743101852
  9
$TDUPDATE
 40
2455211.743101852
  9
$TDINDWG
 40
0.0
  9
$TDUSRTIMER
 40
0.0
  9
$USRTIMER
 70
     1
  9
$ANGBASE
 50
0.0
  9
$ANGDIR
 70
     0
  9
$PDMODE
 70
     0
  9
$PDSIZE
 40
0.0
  9
$PLINEWID
 40
0.0
  9
$COORDS
 70
     0
  9
$SPLFRAME
 70
     0
  9
$SPLINETYPE
 70
     6
  9
$SPLINESEGS
 70
     8
  9
$ATTDIA
 70
     0
  9
$ATTREQ
 70
     1
  9
$HANDLING
 70
     0
  9
$HANDSEED
  5
0
  9
$SURFTAB1
 70
     6
  9
$SURFTAB2
 70
     6
  9
$SURFTYPE
 70
     6
  9
$SURFU
 70
     6
  9
$SURFV
 70
     6
  9
$FLATLAND
 70
     0
  9
$UCSNAME
  2

  9
$UCSORG
 10
0.0
 20
0.0
 30
0.0
  9
$UCSXDIR
 10
1.0
 20
0.0
 30
0.0
  9
$UCSYDIR
 10
0.0
 20
1.0
 30
0.0
  9
$USERI1
 70
     0
  9
$USERI2
 70
     0
  9
$USERI3
 70
     0
  9
$USERI4
 70
     0
  9
$USERI5
 70
     0
  9
$USERR1
 40
0.0
  9
$USERR2
 40
0.0
  9
$USERR3
 40
0.0
  9
$USERR4
 40
0.0
  9
$USERR5
 40
0.0
  9
$WORLDVIEW
 70
     1
  0
ENDSEC
  0
SECTION
  2
TABLES
  0
TABLE
  2
VPORT
 70
     1
  0
VPORT
  2
*ACTIVE
 70
     0
 10
0.0
 20
0.0
 11
1.0
 21
1.0
 12
77.2609558105469
 22
-72.9511413574219
 13
0.0
 23
0.0
 14
0.0
 24
0.0
 15
0.0
 25
0.0
 16
0.0
 26
0.0
 36
1.0
 17
0.0
 27
0.0
 37
0.0
 40
279.9022827148438
 41
1.5
 42
50.0
 43
0.0
 44
0.0
 50
0.0
 51
0.0
 71
     0
 72
   100
 73
     1
 74
     1
 75
     0
 76
     0
 77
     0
 78
     0
  0
ENDTAB
  0
TABLE
  2
LTYPE
 70
    20
  0
LTYPE
  2
CONTINUOUS
 70
    64
  3
solid line
 72
    65
 73
     0
 40
0.0
  0
LTYPE
  2
CENTER
 70
    64
  3
--- - --- - --- - --- - --- - 
 72
    65
 73
     4
 40
6.0
 49
3.0
 49
-1.0
 49
1.0
 49
-1.0
  0
ENDTAB
  0
TABLE
  2
LAYER
 70
    20
  0
LAYER
  2
0
 70
    64
 62
     7
  6
CONTINUOUS
  0
LAYER
  2
2
 70
    64
 62
     7
  6
CONTINUOUS
  0
LAYER
  2
3
 70
    64
 62
     7
  6
CONTINUOUS
  0
ENDTAB
  0
TABLE
  2
STYLE
 70
     4
  0
ENDTAB
  0
TABLE
  2
VIEW
 70
     0
  0
ENDTAB
  0
TABLE
  2
UCS
 70
     0
  0
ENDTAB
  0
TABLE
  2
DWGMGR
 70
     0
  0
ENDTAB
  0
ENDSEC
  0
SECTION
  2
BLOCKS
  0
BLOCK
  8
2
  2
COMP1
 70
    64
 10
0.0
 20
0.0
  0
LINE
  8
2
  6
CONTINUOUS
 10
-41.0
 20
-71.5
 11
-64.0
 21
-71.5
  0
LINE
  8
2
  6
CONTINUOUS
 10
-64.5
 20
-71.0
 11
-64.5
 21
-67.0
  0
LINE
  8
2
  6
CONTINUOUS
 10
-63.01666259765625
 20
-71.0
 11
-63.01666259765625
 21
-67.0
  0
LINE
  8
2
  6
CONTINUOUS
 10
-53.98334121704102
 20
-71.0
 11
-53.98334121704102
 21
-67.0
  0
LINE
  8
2
  6
CONTINUOUS
 10
-51.01665878295898
 20
-71.0
 11
-51.01665878295898
 21
-67.0
  0
LINE
  8
2
  6
CONTINUOUS
 10
-41.98333740234375
 20
-71.0
 11
-41.98333740234375
 21
-67.0
  0
LINE
  8
2
  6
CONTINUOUS
 10
-40.5
 20
-71.0
 11
-40.5
 21
-67.0
  0
LINE
  8
2
  6
CONTINUOUS
 10
-64.5
 20
-71.0
 11
-64.0
 21
-71.5
  0
LINE
  8
2
  6
CONTINUOUS
 10
-41.0
 20
-71.5
 11
-40.5
 21
-71.0
  0
LINE
  8
2
  6
CONTINUOUS
 10
-40.5
 20
-71.0
 11
-64.5
 21
-71.0
  0
LINE
  8
2
  6
CONTINUOUS
 10
-63.01666259765625
 20
-71.0
 11
-62.650634765625
 21
-71.5
  0
LINE
  8
2
  6
CONTINUOUS
 10
-41.98333740234375
 20
-71.0
 11
-42.349365234375
 21
-71.5
  0
LINE
  8
2
  6
CONTINUOUS
 10
-53.98334121704102
 20
-71.0
 11
-53.849365234375
 21
-71.5
  0
LINE
  8
2
  6
CONTINUOUS
 10
-51.150634765625
 20
-71.5
 11
-51.01665878295898
 21
-71.0
  0
LINE
  8
2
  6
CONTINUOUS
 10
-39.5
 20
-73.5
 11
-65.5
 21
-73.5
  0
LINE
  8
2
  6
CONTINUOUS
 10
-43.0
 20
-86.5
 11
-62.0
 21
-86.5
  0
LINE
  8
2
  6
CONTINUOUS
 10
-65.5
 20
-83.0
 11
-65.5
 21
-73.5
  0
LINE
  8
2
  6
CONTINUOUS
 10
-60.28461074829102
 20
-83.0
 11
-60.28461074829102
 21
-73.5
  0
LINE
  8
2
  6
CONTINUOUS
 10
-57.71538925170898
 20
-83.0
 11
-57.71538925170898
 21
-73.5
  0
LINE
  8
2
  6
CONTINUOUS
 10
-47.28461074829102
 20
-83.0
 11
-47.28461074829102
 21
-73.5
  0
LINE
  8
2
  6
CONTINUOUS
 10
-44.71538925170898
 20
-83.0
 11
-44.71538925170898
 21
-73.5
  0
LINE
  8
2
  6
CONTINUOUS
 10
-39.5
 20
-83.0
 11
-39.5
 21
-73.5
  0
LINE
  8
2
  6
CONTINUOUS
 10
-44.71538925170898
 20
-83.0
 11
-47.28461074829102
 21
-83.0
  0
LINE
  8
2
  6
CONTINUOUS
 10
-57.71538925170898
 20
-83.0
 11
-60.28461074829102
 21
-83.0
  0
ARC
  8
2
  6
CONTINUOUS
 10
-61.99999999999999
 20
-82.99999999999999
 40
3.500000000000007
 50
180.0000000000002
 51
270.0
  0
ARC
  8
2
  6
CONTINUOUS
 10
-43.00000000000002
 20
-82.99999999999999
 40
3.500000000000014
 50
270.0
 51
359.9999999999998
  0
ARC
  8
2
  6
CONTINUOUS
 10
-62.89230346679688
 20
-82.83668518066406
 40
2.612804174423224
 50
183.5836396588025
 51
356.416355112485
  0
ARC
  8
2
  6
CONTINUOUS
 10
-52.5
 20
-78.67250823974608
 40
6.776981830596931
 50
219.6843374606219
 51
320.3156625393781
  0
ARC
  8
2
  6
CONTINUOUS
 10
-42.10769653320312
 20
-82.83668518066406
 40
2.612804174423219
 50
183.5836448875151
 51
356.4163603411975
  0
LINE
  8
2
  6
CONTINUOUS
 10
-63.0
 20
-73.5
 11
-63.0
 21
-71.5
  0
LINE
  8
2
  6
CONTINUOUS
 10
-42.0
 20
-73.5
 11
-42.0
 21
-71.5
  0
LINE
  8
2
  6
CONTINUOUS
 10
-62.0
 20
-73.5
 11
-62.0
 21
-71.5
  0
LINE
  8
2
  6
CONTINUOUS
 10
-43.0
 20
-73.5
 11
-43.0
 21
-71.5
  0
ENDBLK
  8
2
  0
BLOCK
  8
2
  2
COMP2
 70
    64
 10
0.0
 20
0.0
  0
LINE
  8
2
  6
CONTINUOUS
 10
-6.0
 20
-71.5
 11
-29.0
 21
-71.5
  0
LINE
  8
2
  6
CONTINUOUS
 10
-29.5
 20
-71.0
 11
-29.5
 21
-67.0
  0
LINE
  8
2
  6
CONTINUOUS
 10
-28.01666069030762
 20
-71.0
 11
-28.01666069030762
 21
-67.0
  0
LINE
  8
2
  6
CONTINUOUS
 10
-18.98333930969238
 20
-71.0
 11
-18.98333930969238
 21
-67.0
  0
LINE
  8
2
  6
CONTINUOUS
 10
-16.01666069030762
 20
-71.0
 11
-16.01666069030762
 21
-67.0
  0
LINE
  8
2
  6
CONTINUOUS
 10
-6.983339309692379
 20
-71.0
 11
-6.983339309692379
 21
-67.0
  0
LINE
  8
2
  6
CONTINUOUS
 10
-5.5
 20
-71.0
 11
-5.5
 21
-67.0
  0
LINE
  8
2
  6
CONTINUOUS
 10
-29.5
 20
-71.0
 11
-29.0
 21
-71.5
  0
LINE
  8
2
  6
CONTINUOUS
 10
-6.0
 20
-71.5
 11
-5.5
 21
-71.0
  0
LINE
  8
2
  6
CONTINUOUS
 10
-5.5
 20
-71.0
 11
-29.5
 21
-71.0
  0
LINE
  8
2
  6
CONTINUOUS
 10
-28.01666069030762
 20
-71.0
 11
-27.650634765625
 21
-71.5
  0
LINE
  8
2
  6
CONTINUOUS
 10
-6.983339309692379
 20
-71.0
 11
-7.349365234375
 21
-71.5
  0
LINE
  8
2
  6
CONTINUOUS
 10
-18.98333930969238
 20
-71.0
 11
-18.849365234375
 21
-71.5
  0
LINE
  8
2
  6
CONTINUOUS
 10
-16.150634765625
 20
-71.5
 11
-16.01666069030762
 21
-71.0
  0
LINE
  8
2
  6
CONTINUOUS
 10
-4.5
 20
-73.5
 11
-30.5
 21
-73.5
  0
LINE
  8
2
  6
CONTINUOUS
 10
-8.0
 20
-86.5
 11
-27.0
 21
-86.5
  0
LINE
  8
2
  6
CONTINUOUS
 10
-30.5
 20
-83.0
 11
-30.5
 21
-73.5
  0
LINE
  8
2
  6
CONTINUOUS
 10
-25.28461074829102
 20
-83.0
 11
-25.28461074829102
 21
-73.5
  0
LINE
  8
2
  6
CONTINUOUS
 10
-22.71538925170898
 20
-83.0
 11
-22.71538925170898
 21
-73.5
  0
LINE
  8
2
  6
CONTINUOUS
 10
-12.2846097946167
 20
-83.0
 11
-12.2846097946167
 21
-73.5
  0
LINE
  8
2
  6
CONTINUOUS
 10
-9.715390205383301
 20
-83.0
 11
-9.715390205383301
 21
-73.5
  0
LINE
  8
2
  6
CONTINUOUS
 10
-4.5
 20
-83.0
 11
-4.5
 21
-73.5
  0
LINE
  8
2
  6
CONTINUOUS
 10
-9.715390205383301
 20
-83.0
 11
-12.2846097946167
 21
-83.0
  0
LINE
  8
2
  6
CONTINUOUS
 10
-22.71538925170898
 20
-83.0
 11
-25.28461074829102
 21
-83.0
  0
ARC
  8
2
  6
CONTINUOUS
 10
-26.99999999999998
 20
-82.99999999999999
 40
3.500000000000018
 50
180.0000000000002
 51
270.0
  0
ARC
  8
2
  6
CONTINUOUS
 10
-8.000000000000016
 20
-82.99999999999999
 40
3.500000000000014
 50
270.0
 51
359.9999999999998
  0
ARC
  8
2
  6
CONTINUOUS
 10
-27.89230346679688
 20
-82.83668518066406
 40
2.612804174423216
 50
183.5836396588025
 51
356.416355112485
  0
ARC
  8
2
  6
CONTINUOUS
 10
-17.5
 20
-78.67250823974609
 40
6.776981830596919
 50
219.6843374606218
 51
320.3156676879457
  0
ARC
  8
2
  6
CONTINUOUS
 10
-7.10769557952881
 20
-82.83668518066406
 40
2.612804174423218
 50
183.5836422731569
 51
356.4163590340208
  0
LINE
  8
2
  6
CONTINUOUS
 10
-28.0
 20
-73.5
 11
-28.0
 21
-71.5
  0
LINE
  8
2
  6
CONTINUOUS
 10
-7.0
 20
-73.5
 11
-7.0
 21
-71.5
  0
LINE
  8
2
  6
CONTINUOUS
 10
-27.0
 20
-73.5
 11
-27.0
 21
-71.5
  0
LINE
  8
2
  6
CONTINUOUS
 10
-8.0
 20
-73.5
 11
-8.0
 21
-71.5
  0
ENDBLK
  8
2
  0
BLOCK
  8
2
  2
COMP3
 70
    64
 10
0.0
 20
0.0
  0
LINE
  8
2
  6
CONTINUOUS
 10
29.0
 20
-71.5
 11
6.0
 21
-71.5
  0
LINE
  8
2
  6
CONTINUOUS
 10
5.5
 20
-71.0
 11
5.5
 21
-67.0
  0
LINE
  8
2
  6
CONTINUOUS
 10
6.983339309692379
 20
-71.0
 11
6.983339309692379
 21
-67.0
  0
LINE
  8
2
  6
CONTINUOUS
 10
16.01666069030762
 20
-71.0
 11
16.01666069030762
 21
-67.0
  0
LINE
  8
2
  6
CONTINUOUS
 10
18.98333930969238
 20
-71.0
 11
18.98333930969238
 21
-67.0
  0
LINE
  8
2
  6
CONTINUOUS
 10
28.01666069030762
 20
-71.0
 11
28.01666069030762
 21
-67.0
  0
LINE
  8
2
  6
CONTINUOUS
 10
29.5
 20
-71.0
 11
29.5
 21
-67.0
  0
LINE
  8
2
  6
CONTINUOUS
 10
5.5
 20
-71.0
 11
6.0
 21
-71.5
  0
LINE
  8
2
  6
CONTINUOUS
 10
29.0
 20
-71.5
 11
29.5
 21
-71.0
  0
LINE
  8
2
  6
CONTINUOUS
 10
29.5
 20
-71.0
 11
5.5
 21
-71.0
  0
LINE
  8
2
  6
CONTINUOUS
 10
6.983339309692379
 20
-71.0
 11
7.349365234375
 21
-71.5
  0
LINE
  8
2
  6
CONTINUOUS
 10
28.01666069030762
 20
-71.0
 11
27.650634765625
 21
-71.5
  0
LINE
  8
2
  6
CONTINUOUS
 10
16.01666069030762
 20
-71.0
 11
16.150634765625
 21
-71.5
  0
LINE
  8
2
  6
CONTINUOUS
 10
18.849365234375
 20
-71.5
 11
18.98333930969238
 21
-71.0
  0
LINE
  8
2
  6
CONTINUOUS
 10
30.5
 20
-73.5
 11
4.5
 21
-73.5
  0
LINE
  8
2
  6
CONTINUOUS
 10
27.0
 20
-86.5
 11
8.0
 21
-86.5
  0
LINE
  8
2
  6
CONTINUOUS
 10
4.5
 20
-83.0
 11
4.5
 21
-73.5
  0
LINE
  8
2
  6
CONTINUOUS
 10
9.715390205383301
 20
-83.0
 11
9.715390205383301
 21
-73.5
  0
LINE
  8
2
  6
CONTINUOUS
 10
12.2846097946167
 20
-83.0
 11
12.2846097946167
 21
-73.5
  0
LINE
  8
2
  6
CONTINUOUS
 10
22.71538925170898
 20
-83.0
 11
22.71538925170898
 21
-73.5
  0
LINE
  8
2
  6
CONTINUOUS
 10
25.28461074829102
 20
-83.0
 11
25.28461074829102
 21
-73.5
  0
LINE
  8
2
  6
CONTINUOUS
 10
30.5
 20
-83.0
 11
30.5
 21
-73.5
  0
LINE
  8
2
  6
CONTINUOUS
 10
25.28461074829102
 20
-83.0
 11
22.71538925170898
 21
-83.0
  0
LINE
  8
2
  6
CONTINUOUS
 10
12.2846097946167
 20
-83.0
 11
9.715390205383301
 21
-83.0
  0
ARC
  8
2
  6
CONTINUOUS
 10
8.000000000000014
 20
-82.99999999999999
 40
3.500000000000014
 50
180.0000000000002
 51
270.0
  0
ARC
  8
2
  6
CONTINUOUS
 10
26.99999999999998
 20
-82.99999999999999
 40
3.500000000000014
 50
270.0
 51
359.9999999999998
  0
ARC
  8
2
  6
CONTINUOUS
 10
7.10769557952881
 20
-82.83668518066405
 40
2.612804174423219
 50
183.5836409659795
 51
356.4163577268428
  0
ARC
  8
2
  6
CONTINUOUS
 10
17.5
 20
-78.67250823974611
 40
6.776981830596916
 50
219.6843323120543
 51
320.3156625393783
  0
ARC
  8
2
  6
CONTINUOUS
 10
27.89230346679688
 20
-82.83668518066406
 40
2.612804174423219
 50
183.5836448875151
 51
356.4163603411975
  0
LINE
  8
2
  6
CONTINUOUS
 10
7.0
 20
-73.5
 11
7.0
 21
-71.5
  0
LINE
  8
2
  6
CONTINUOUS
 10
28.0
 20
-73.5
 11
28.0
 21
-71.5
  0
LINE
  8
2
  6
CONTINUOUS
 10
8.0
 20
-73.5
 11
8.0
 21
-71.5
  0
LINE
  8
2
  6
CONTINUOUS
 10
27.0
 20
-73.5
 11
27.0
 21
-71.5
  0
ENDBLK
  8
2
  0
BLOCK
  8
2
  2
COMP4
 70
    64
 10
0.0
 20
0.0
  0
LINE
  8
2
  6
CONTINUOUS
 10
64.0
 20
-71.5
 11
41.0
 21
-71.5
  0
LINE
  8
2
  6
CONTINUOUS
 10
40.5
 20
-71.0
 11
40.5
 21
-67.0
  0
LINE
  8
2
  6
CONTINUOUS
 10
41.98333740234375
 20
-71.0
 11
41.98333740234375
 21
-67.0
  0
LINE
  8
2
  6
CONTINUOUS
 10
51.01665878295898
 20
-71.0
 11
51.01665878295898
 21
-67.0
  0
LINE
  8
2
  6
CONTINUOUS
 10
53.98334121704102
 20
-71.0
 11
53.98334121704102
 21
-67.0
  0
LINE
  8
2
  6
CONTINUOUS
 10
63.01666259765625
 20
-71.0
 11
63.01666259765625
 21
-67.0
  0
LINE
  8
2
  6
CONTINUOUS
 10
64.5
 20
-71.0
 11
64.5
 21
-67.0
  0
LINE
  8
2
  6
CONTINUOUS
 10
40.5
 20
-71.0
 11
41.0
 21
-71.5
  0
LINE
  8
2
  6
CONTINUOUS
 10
64.0
 20
-71.5
 11
64.5
 21
-71.0
  0
LINE
  8
2
  6
CONTINUOUS
 10
64.5
 20
-71.0
 11
40.5
 21
-71.0
  0
LINE
  8
2
  6
CONTINUOUS
 10
41.98333740234375
 20
-71.0
 11
42.349365234375
 21
-71.5
  0
LINE
  8
2
  6
CONTINUOUS
 10
63.01666259765625
 20
-71.0
 11
62.650634765625
 21
-71.5
  0
LINE
  8
2
  6
CONTINUOUS
 10
51.01665878295898
 20
-71.0
 11
51.150634765625
 21
-71.5
  0
LINE
  8
2
  6
CONTINUOUS
 10
53.849365234375
 20
-71.5
 11
53.98334121704102
 21
-71.0
  0
LINE
  8
2
  6
CONTINUOUS
 10
65.5
 20
-73.5
 11
39.5
 21
-73.5
  0
LINE
  8
2
  6
CONTINUOUS
 10
62.0
 20
-86.5
 11
43.0
 21
-86.5
  0
LINE
  8
2
  6
CONTINUOUS
 10
39.5
 20
-83.0
 11
39.5
 21
-73.5
  0
LINE
  8
2
  6
CONTINUOUS
 10
44.71538925170898
 20
-83.0
 11
44.71538925170898
 21
-73.5
  0
LINE
  8
2
  6
CONTINUOUS
 10
47.28461074829102
 20
-83.0
 11
47.28461074829102
 21
-73.5
  0
LINE
  8
2
  6
CONTINUOUS
 10
57.71538925170898
 20
-83.0
 11
57.71538925170898
 21
-73.5
  0
LINE
  8
2
  6
CONTINUOUS
 10
60.28461074829102
 20
-83.0
 11
60.28461074829102
 21
-73.5
  0
LINE
  8
2
  6
CONTINUOUS
 10
65.5
 20
-83.0
 11
65.5
 21
-73.5
  0
LINE
  8
2
  6
CONTINUOUS
 10
60.28461074829102
 20
-83.0
 11
57.71538925170898
 21
-83.0
  0
LINE
  8
2
  6
CONTINUOUS
 10
47.28461074829102
 20
-83.0
 11
44.71538925170898
 21
-83.0
  0
ARC
  8
2
  6
CONTINUOUS
 10
43.00000000000002
 20
-82.99999999999999
 40
3.500000000000021
 50
180.0000000000002
 51
270.0
  0
ARC
  8
2
  6
CONTINUOUS
 10
61.99999999999997
 20
-82.99999999999997
 40
3.500000000000028
 50
270.0
 51
359.9999999999996
  0
ARC
  8
2
  6
CONTINUOUS
 10
42.10769653320312
 20
-82.83668518066406
 40
2.612804174423216
 50
183.5836396588025
 51
356.416355112485
  0
ARC
  8
2
  6
CONTINUOUS
 10
52.5
 20
-78.67250823974608
 40
6.776981830596931
 50
219.6843374606219
 51
320.3156625393781
  0
ARC
  8
2
  6
CONTINUOUS
 10
62.89230346679688
 20
-82.83668518066406
 40
2.612804174423219
 50
183.5836448875151
 51
356.4163603411975
  0
LINE
  8
2
  6
CONTINUOUS
 10
42.0
 20
-73.5
 11
42.0
 21
-71.5
  0
LINE
  8
2
  6
CONTINUOUS
 10
63.0
 20
-73.5
 11
63.0
 21
-71.5
  0
LINE
  8
2
  6
CONTINUOUS
 10
43.0
 20
-73.5
 11
43.0
 21
-71.5
  0
LINE
  8
2
  6
CONTINUOUS
 10
62.0
 20
-73.5
 11
62.0
 21
-71.5
  0
ENDBLK
  8
2
  0
BLOCK
  8
2
  2
COMP5
 70
    64
 10
0.0
 20
0.0
  0
LINE
  8
2
  6
CONTINUOUS
 10
74.0
 20
45.0
 11
74.0
 21
36.5
  0
LINE
  8
2
  6
CONTINUOUS
 10
73.5
 20
36.0
 11
69.5
 21
36.0
  0
LINE
  8
2
  6
CONTINUOUS
 10
73.5
 20
37.48333740234375
 11
69.5
 21
37.48333740234375
  0
LINE
  8
2
  6
CONTINUOUS
 10
73.5
 20
36.0
 11
74.0
 21
36.5
  0
LINE
  8
2
  6
CONTINUOUS
 10
73.5
 20
45.0
 11
73.5
 21
36.0
  0
LINE
  8
2
  6
CONTINUOUS
 10
73.5
 20
37.48333740234375
 11
74.0
 21
37.849365234375
  0
LINE
  8
2
  6
CONTINUOUS
 10
76.0
 20
45.0
 11
76.0
 21
35.0
  0
LINE
  8
2
  6
CONTINUOUS
 10
89.0
 20
57.5
 11
89.0
 21
38.5
  0
LINE
  8
2
  6
CONTINUOUS
 10
85.5
 20
35.0
 11
76.0
 21
35.0
  0
LINE
  8
2
  6
CONTINUOUS
 10
85.5
 20
40.21538925170898
 11
76.0
 21
40.21538925170898
  0
LINE
  8
2
  6
CONTINUOUS
 10
85.5
 20
42.78461074829102
 11
76.0
 21
42.78461074829102
  0
LINE
  8
2
  6
CONTINUOUS
 10
85.5
 20
53.21538925170898
 11
82.5
 21
53.21538925170898
  0
LINE
  8
2
  6
CONTINUOUS
 10
85.5
 20
55.78461074829102
 11
82.5
 21
55.78461074829102
  0
LINE
  8
2
  6
CONTINUOUS
 10
85.5
 20
61.0
 11
82.5
 21
61.0
  0
LINE
  8
2
  6
CONTINUOUS
 10
85.5
 20
55.78461074829102
 11
85.5
 21
53.21538925170898
  0
LINE
  8
2
  6
CONTINUOUS
 10
85.5
 20
42.78461074829102
 11
85.5
 21
40.21538925170898
  0
ARC
  8
2
  6
CONTINUOUS
 10
85.49999999999999
 20
38.50000000000002
 40
3.500000000000021
 50
270.0
 51
359.9999999999997
  0
ARC
  8
2
  6
CONTINUOUS
 10
85.49999999999999
 20
57.49999999999998
 40
3.500000000000014
 50
3.489522850519958E-013
 51
90.0
  0
ARC
  8
2
  6
CONTINUOUS
 10
85.33668518066406
 20
37.60769653320312
 40
2.612804174423216
 50
273.5836396588025
 51
86.41635511248495
  0
ARC
  8
2
  6
CONTINUOUS
 10
81.17250823974608
 20
48.0
 40
6.776981830596931
 50
309.6843374606219
 51
50.31566253937814
  0
ARC
  8
2
  6
CONTINUOUS
 10
85.33668518066406
 20
58.39230346679688
 40
2.612804174423219
 50
273.5836448875151
 51
86.41636034119752
  0
LINE
  8
2
  6
CONTINUOUS
 10
76.0
 20
37.5
 11
74.0
 21
37.5
  0
LINE
  8
2
  6
CONTINUOUS
 10
76.0
 20
38.5
 11
74.0
 21
38.5
  0
ENDBLK
  8
2
  0
BLOCK
  8
2
  2
COMP6
 70
    64
 10
0.0
 20
0.0
  0
LINE
  8
2
  6
CONTINUOUS
 10
9.715390309173486
 20
-181.4833395016046
 11
4.5
 21
-190.5166604983954
  0
LINE
  8
2
  6
CONTINUOUS
 10
4.5
 20
-193.4833395016046
 11
4.5
 21
-190.5166604983954
  0
CIRCLE
  8
2
  6
CONTINUOUS
 10
17.5
 20
-192.0
 40
9.5
  0
CIRCLE
  8
2
  6
CONTINUOUS
 10
17.5
 20
-192.0
 40
5.5
  0
CIRCLE
  8
2
  6
CONTINUOUS
 10
17.5
 20
-192.0
 40
4.5
  0
LINE
  8
2
  6
CONTINUOUS
 10
12.28460969082651
 20
-180.0
 11
9.715390309173486
 21
-181.4833395016046
  0
LINE
  8
2
  6
CONTINUOUS
 10
22.71539030917349
 20
-180.0
 11
12.28460969082651
 21
-180.0
  0
LINE
  8
2
  6
CONTINUOUS
 10
30.5
 20
-190.5166604983954
 11
25.28460969082653
 21
-181.4833395016046
  0
LINE
  8
2
  6
CONTINUOUS
 10
22.71539030917349
 20
-180.0
 11
25.28460969082653
 21
-181.4833395016046
  0
LINE
  8
2
  6
CONTINUOUS
 10
30.5
 20
-193.4833395016046
 11
30.5
 21
-190.5166604983954
  0
LINE
  8
2
  6
CONTINUOUS
 10
25.28460969082651
 20
-202.5166604983954
 11
30.5
 21
-193.4833395016046
  0
LINE
  8
2
  6
CONTINUOUS
 10
25.28460969082651
 20
-202.5166604983954
 11
22.71539030917349
 21
-204.0
  0
LINE
  8
2
  6
CONTINUOUS
 10
12.28460969082651
 20
-204.0
 11
22.71539030917349
 21
-204.0
  0
LINE
  8
2
  6
CONTINUOUS
 10
9.715390309173481
 20
-202.5166604983954
 11
12.28460969082651
 21
-204.0
  0
LINE
  8
2
  6
CONTINUOUS
 10
4.499999999999994
 20
-193.4833395016046
 11
9.715390309173481
 21
-202.5166604983954
  0
ENDBLK
  8
2
  0
BLOCK
  8
2
  2
COMP7
 70
    64
 10
0.0
 20
0.0
  0
LINE
  8
2
  6
CONTINUOUS
 10
-25.28460969082651
 20
-181.4833395016046
 11
-30.5
 21
-190.5166604983954
  0
LINE
  8
2
  6
CONTINUOUS
 10
-30.5
 20
-193.4833395016046
 11
-30.5
 21
-190.5166604983954
  0
CIRCLE
  8
2
  6
CONTINUOUS
 10
-17.5
 20
-192.0
 40
9.5
  0
CIRCLE
  8
2
  6
CONTINUOUS
 10
-17.5
 20
-192.0
 40
5.5
  0
CIRCLE
  8
2
  6
CONTINUOUS
 10
-17.5
 20
-192.0
 40
4.5
  0
LINE
  8
2
  6
CONTINUOUS
 10
-22.71539030917349
 20
-180.0
 11
-25.28460969082651
 21
-181.4833395016046
  0
LINE
  8
2
  6
CONTINUOUS
 10
-12.28460969082651
 20
-180.0
 11
-22.71539030917349
 21
-180.0
  0
LINE
  8
2
  6
CONTINUOUS
 10
-4.5
 20
-190.5166604983954
 11
-9.715390309173472
 21
-181.4833395016046
  0
LINE
  8
2
  6
CONTINUOUS
 10
-12.28460969082651
 20
-180.0
 11
-9.715390309173472
 21
-181.4833395016046
  0
LINE
  8
2
  6
CONTINUOUS
 10
-4.5
 20
-193.4833395016046
 11
-4.5
 21
-190.5166604983954
  0
LINE
  8
2
  6
CONTINUOUS
 10
-9.715390309173493
 20
-202.5166604983954
 11
-4.5
 21
-193.4833395016046
  0
LINE
  8
2
  6
CONTINUOUS
 10
-9.715390309173493
 20
-202.5166604983954
 11
-12.28460969082651
 21
-204.0
  0
LINE
  8
2
  6
CONTINUOUS
 10
-22.71539030917349
 20
-204.0
 11
-12.28460969082651
 21
-204.0
  0
LINE
  8
2
  6
CONTINUOUS
 10
-25.28460969082652
 20
-202.5166604983954
 11
-22.71539030917349
 21
-204.0
  0
LINE
  8
2
  6
CONTINUOUS
 10
-30.50000000000001
 20
-193.4833395016046
 11
-25.28460969082652
 21
-202.5166604983954
  0
ENDBLK
  8
2
  0
BLOCK
  8
2
  2
COMP8
 70
    64
 10
0.0
 20
0.0
  0
LINE
  8
2
  6
CONTINUOUS
 10
-60.28460969082651
 20
-181.4833395016046
 11
-65.5
 21
-190.5166604983954
  0
LINE
  8
2
  6
CONTINUOUS
 10
-65.5
 20
-193.4833395016046
 11
-65.5
 21
-190.5166604983954
  0
CIRCLE
  8
2
  6
CONTINUOUS
 10
-52.5
 20
-192.0
 40
9.5
  0
CIRCLE
  8
2
  6
CONTINUOUS
 10
-52.5
 20
-192.0
 40
5.5
  0
CIRCLE
  8
2
  6
CONTINUOUS
 10
-52.5
 20
-192.0
 40
4.5
  0
LINE
  8
2
  6
CONTINUOUS
 10
-57.71539030917349
 20
-180.0
 11
-60.28460969082651
 21
-181.4833395016046
  0
LINE
  8
2
  6
CONTINUOUS
 10
-47.28460969082651
 20
-180.0
 11
-57.71539030917349
 21
-180.0
  0
LINE
  8
2
  6
CONTINUOUS
 10
-39.5
 20
-190.5166604983954
 11
-44.71539030917347
 21
-181.4833395016046
  0
LINE
  8
2
  6
CONTINUOUS
 10
-47.28460969082651
 20
-180.0
 11
-44.71539030917347
 21
-181.4833395016046
  0
LINE
  8
2
  6
CONTINUOUS
 10
-39.5
 20
-193.4833395016046
 11
-39.5
 21
-190.5166604983954
  0
LINE
  8
2
  6
CONTINUOUS
 10
-44.71539030917349
 20
-202.5166604983954
 11
-39.5
 21
-193.4833395016046
  0
LINE
  8
2
  6
CONTINUOUS
 10
-44.71539030917349
 20
-202.5166604983954
 11
-47.28460969082651
 21
-204.0
  0
LINE
  8
2
  6
CONTINUOUS
 10
-57.71539030917349
 20
-204.0
 11
-47.28460969082651
 21
-204.0
  0
LINE
  8
2
  6
CONTINUOUS
 10
-60.28460969082652
 20
-202.5166604983954
 11
-57.71539030917349
 21
-204.0
  0
LINE
  8
2
  6
CONTINUOUS
 10
-65.5
 20
-193.4833395016046
 11
-60.28460969082652
 21
-202.5166604983954
  0
ENDBLK
  8
2
  0
BLOCK
  8
2
  2
COMP9
 70
    64
 10
0.0
 20
0.0
  0
LINE
  8
2
  6
CONTINUOUS
 10
67.5
 20
-182.5
 11
67.5
 21
-202.0
  0
LINE
  8
2
  6
CONTINUOUS
 10
69.0
 20
-182.5
 11
67.5
 21
-182.5
  0
LINE
  8
2
  6
CONTINUOUS
 10
89.0
 20
-185.5
 11
89.0
 21
-204.5
  0
LINE
  8
2
  6
CONTINUOUS
 10
76.0
 20
-205.5
 11
74.0
 21
-205.5
  0
LINE
  8
2
  6
CONTINUOUS
 10
76.0
 20
-184.5
 11
74.0
 21
-184.5
  0
LINE
  8
2
  6
CONTINUOUS
 10
76.0
 20
-204.5
 11
74.0
 21
-204.5
  0
LINE
  8
2
  6
CONTINUOUS
 10
76.0
 20
-185.5
 11
74.0
 21
-185.5
  0
LINE
  8
2
  6
CONTINUOUS
 10
69.0
 20
-182.0
 11
69.0
 21
-202.0
  0
LINE
  8
2
  6
CONTINUOUS
 10
69.0
 20
-187.2153930664063
 11
73.5
 21
-187.2153930664063
  0
LINE
  8
2
  6
CONTINUOUS
 10
69.0
 20
-189.7846069335938
 11
73.5
 21
-189.7846069335938
  0
LINE
  8
2
  6
CONTINUOUS
 10
69.0
 20
-200.2153930664063
 11
73.5
 21
-200.2153930664063
  0
LINE
  8
2
  6
CONTINUOUS
 10
69.09999999999999
 20
-202.7846069335938
 11
73.5
 21
-202.7846069335938
  0
LINE
  8
2
  6
CONTINUOUS
 10
73.5
 20
-182.0
 11
73.5
 21
-208.0
  0
LINE
  8
2
  6
CONTINUOUS
 10
69.0
 20
-182.0
 11
73.5
 21
-182.0
  0
LINE
  8
2
  6
CONTINUOUS
 10
74.0
 20
-182.5
 11
73.5
 21
-182.0
  0
LINE
  8
2
  6
CONTINUOUS
 10
74.0
 20
-182.5
 11
74.0
 21
-207.5
  0
LINE
  8
2
  6
CONTINUOUS
 10
69.09999999999999
 20
-208.0
 11
73.5
 21
-208.0
  0
LINE
  8
2
  6
CONTINUOUS
 10
74.0
 20
-207.5
 11
73.5
 21
-208.0
  0
LINE
  8
2
  6
CONTINUOUS
 10
73.5
 20
-187.2153930664063
 11
74.0
 21
-187.5814157129579
  0
LINE
  8
2
  6
CONTINUOUS
 10
73.5
 20
-189.7846069335938
 11
74.0
 21
-189.9185842870421
  0
LINE
  8
2
  6
CONTINUOUS
 10
73.5
 20
-200.2153930664063
 11
74.0
 21
-200.0814157129579
  0
LINE
  8
2
  6
CONTINUOUS
 10
73.5
 20
-202.7846069335938
 11
74.0
 21
-202.4185842870421
  0
LINE
  8
2
  6
CONTINUOUS
 10
85.5
 20
-184.4833374023438
 11
76.0
 21
-184.4833374023438
  0
LINE
  8
2
  6
CONTINUOUS
 10
85.5
 20
-193.5166625976563
 11
76.0
 21
-193.5166625976563
  0
LINE
  8
2
  6
CONTINUOUS
 10
85.5
 20
-196.4833374023438
 11
76.0
 21
-196.4833374023438
  0
LINE
  8
2
  6
CONTINUOUS
 10
87.94949340820313
 20
-207.0
 11
76.0
 21
-207.0
  0
ARC
  8
2
  6
CONTINUOUS
 10
85.50000000000003
 20
-204.5
 40
3.499999999999986
 50
314.4153514569761
 51
0.0
  0
LINE
  8
2
  6
CONTINUOUS
 10
87.94949340820313
 20
-183.0
 11
76.0
 21
-183.0
  0
ARC
  8
2
  6
CONTINUOUS
 10
85.49999999999989
 20
-185.5000000000001
 40
3.500000000000114
 50
9.305394268052959E-013
 51
45.58464854302311
  0
LINE
  8
2
  6
CONTINUOUS
 10
85.5
 20
-205.5166625976563
 11
76.0
 21
-205.5166625976563
  0
LINE
  8
2
  6
CONTINUOUS
 10
85.5
 20
-183.0
 11
85.5
 21
-184.4833374023438
  0
LINE
  8
2
  6
CONTINUOUS
 10
85.5
 20
-193.5166625976563
 11
85.5
 21
-196.4833374023438
  0
LINE
  8
2
  6
CONTINUOUS
 10
85.5
 20
-205.5166625976563
 11
85.5
 21
-207.0
  0
ARC
  8
2
  6
CONTINUOUS
 10
82.56056225750206
 20
-189.0
 40
5.388927097585224
 50
303.0560224330358
 51
56.94397756696421
  0
ARC
  8
2
  6
CONTINUOUS
 10
82.56056225750206
 20
-201.0
 40
5.388927097585224
 50
303.0560224330358
 51
56.94397756696421
  0
LINE
  8
2
  6
CONTINUOUS
 10
76.0
 20
-183.0
 11
76.0
 21
-207.0
  0
ENDBLK
  8
2
  0
BLOCK
  8
2
  2
COMP10
 70
    64
 10
0.0
 20
0.0
  0
LINE
  8
2
  6
CONTINUOUS
 10
206.4833395016046
 20
40.21539030917347
 11
215.5166604983954
 21
35.0
  0
LINE
  8
2
  6
CONTINUOUS
 10
218.4833395016046
 20
34.99999999999997
 11
215.5166604983954
 21
35.0
  0
CIRCLE
  8
2
  6
CONTINUOUS
 10
217.0
 20
48.0
 40
9.5
  0
CIRCLE
  8
2
  6
CONTINUOUS
 10
217.0
 20
48.0
 40
5.5
  0
CIRCLE
  8
2
  6
CONTINUOUS
 10
217.0
 20
48.0
 40
4.5
  0
LINE
  8
2
  6
CONTINUOUS
 10
204.9999999999999
 20
42.78460969082647
 11
206.4833395016046
 21
40.21539030917347
  0
LINE
  8
2
  6
CONTINUOUS
 10
205.0
 20
53.2153903091735
 11
204.9999999999999
 21
42.78460969082647
  0
LINE
  8
2
  6
CONTINUOUS
 10
215.5166604983955
 20
61.00000000000003
 11
206.4833395016045
 21
55.78460969082653
  0
LINE
  8
2
  6
CONTINUOUS
 10
205.0
 20
53.2153903091735
 11
206.4833395016045
 21
55.78460969082653
  0
LINE
  8
2
  6
CONTINUOUS
 10
218.4833395016046
 20
61.0
 11
215.5166604983955
 21
61.00000000000003
  0
LINE
  8
2
  6
CONTINUOUS
 10
227.5166604983954
 20
55.78460969082653
 11
218.4833395016046
 21
61.0
  0
LINE
  8
2
  6
CONTINUOUS
 10
227.5166604983954
 20
55.78460969082653
 11
229.0000000000001
 21
53.21539030917353
  0
LINE
  8
2
  6
CONTINUOUS
 10
229.0
 20
42.7846096908265
 11
229.0000000000001
 21
53.21539030917353
  0
LINE
  8
2
  6
CONTINUOUS
 10
227.5166604983955
 20
40.21539030917347
 11
229.0
 21
42.7846096908265
  0
LINE
  8
2
  6
CONTINUOUS
 10
218.4833395016046
 20
34.99999999999997
 11
227.5166604983955
 21
40.21539030917347
  0
ENDBLK
  8
2
  0
BLOCK
  8
2
  2
COMP11
 70
    64
 10
0.0
 20
0.0
  0
LINE
  8
2
  6
CONTINUOUS
 10
57.71539030917349
 20
-180.0
 11
47.28460969082651
 21
-180.0
  0
LINE
  8
2
  6
CONTINUOUS
 10
57.71539030917349
 20
-180.0
 11
60.28460969082653
 21
-181.4833395016046
  0
LINE
  8
2
  6
CONTINUOUS
 10
47.28460969082651
 20
-180.0
 11
44.71539030917349
 21
-181.4833395016046
  0
LINE
  8
2
  6
CONTINUOUS
 10
44.71539030917349
 20
-181.4833395016046
 11
39.5
 21
-190.5166604983954
  0
LINE
  8
2
  6
CONTINUOUS
 10
39.5
 20
-193.4833395016046
 11
39.5
 21
-190.5166604983954
  0
LINE
  8
2
  6
CONTINUOUS
 10
39.49999999999999
 20
-193.4833395016046
 11
44.71539030917348
 21
-202.5166604983954
  0
LINE
  8
2
  6
CONTINUOUS
 10
44.71539030917348
 20
-202.5166604983954
 11
47.28460969082651
 21
-204.0
  0
LINE
  8
2
  6
CONTINUOUS
 10
47.28460969082651
 20
-204.0
 11
57.71539030917349
 21
-204.0
  0
LINE
  8
2
  6
CONTINUOUS
 10
60.28460969082651
 20
-202.5166604983954
 11
57.71539030917349
 21
-204.0
  0
LINE
  8
2
  6
CONTINUOUS
 10
60.28460969082651
 20
-202.5166604983954
 11
65.5
 21
-193.4833395016046
  0
LINE
  8
2
  6
CONTINUOUS
 10
65.5
 20
-193.4833395016046
 11
65.5
 21
-190.5166604983954
  0
LINE
  8
2
  6
CONTINUOUS
 10
65.5
 20
-190.5166604983954
 11
60.28460969082653
 21
-181.4833395016046
  0
ENDBLK
  8
2
  0
BLOCK
  8
2
  2
COMP12
 70
    64
 10
0.0
 20
0.0
  0
LINE
  8
2
  6
CONTINUOUS
 10
40.5
 20
-186.7846096908265
 11
40.5
 21
-188.7846096908266
  0
LINE
  8
2
  6
CONTINUOUS
 10
40.5
 20
-195.2153903091735
 11
40.5
 21
-197.2153903091735
  0
LINE
  8
2
  6
CONTINUOUS
 10
40.5
 20
-186.7846096908265
 11
41.98333950160458
 21
-184.2153903091735
  0
LINE
  8
2
  6
CONTINUOUS
 10
40.5
 20
-197.2153903091735
 11
41.98333950160458
 21
-199.7846096908265
  0
LINE
  8
2
  6
CONTINUOUS
 10
41.98333950160458
 20
-199.7846096908265
 11
43.71539030917348
 21
-200.7846096908265
  0
LINE
  8
2
  6
CONTINUOUS
 10
49.28460969082654
 20
-204.0
 11
51.01666049839542
 21
-205.0
  0
LINE
  8
2
  6
CONTINUOUS
 10
53.98333950160458
 20
-205.0
 11
51.01666049839542
 21
-205.0
  0
LINE
  8
2
  6
CONTINUOUS
 10
53.98333950160458
 20
-205.0
 11
55.71539030917346
 21
-204.0
  0
LINE
  8
2
  6
CONTINUOUS
 10
61.28460969082651
 20
-200.7846096908266
 11
63.01666049839542
 21
-199.7846096908265
  0
LINE
  8
2
  6
CONTINUOUS
 10
63.01666049839542
 20
-199.7846096908265
 11
64.5
 21
-197.2153903091735
  0
LINE
  8
2
  6
CONTINUOUS
 10
64.5
 20
-197.2153903091735
 11
64.5
 21
-195.2153903091734
  0
LINE
  8
2
  6
CONTINUOUS
 10
64.5
 20
-188.7846096908265
 11
64.5
 21
-186.7846096908265
  0
LINE
  8
2
  6
CONTINUOUS
 10
63.01666049839542
 20
-184.2153903091735
 11
64.5
 21
-186.7846096908265
  0
LINE
  8
2
  6
CONTINUOUS
 10
63.01666049839542
 20
-184.2153903091735
 11
61.28460969082655
 21
-183.2153903091735
  0
LINE
  8
2
  6
CONTINUOUS
 10
55.71539030917345
 20
-180.0
 11
53.98333950160458
 21
-179.0
  0
LINE
  8
2
  6
CONTINUOUS
 10
53.98333950160458
 20
-179.0
 11
51.01666049839542
 21
-179.0
  0
LINE
  8
2
  6
CONTINUOUS
 10
51.01666049839542
 20
-179.0
 11
49.28460969082654
 21
-180.0
  0
LINE
  8
2
  6
CONTINUOUS
 10
43.71539030917349
 20
-183.2153903091734
 11
41.98333950160458
 21
-184.2153903091735
  0
ENDBLK
  8
2
  0
BLOCK
  8
2
  2
COMP13
 70
    64
 10
0.0
 20
0.0
  0
LINE
  8
2
  6
CONTINUOUS
 10
5.5
 20
-186.7846096908265
 11
5.5
 21
-188.7846096908266
  0
LINE
  8
2
  6
CONTINUOUS
 10
5.5
 20
-195.2153903091735
 11
5.5
 21
-197.2153903091735
  0
LINE
  8
2
  6
CONTINUOUS
 10
5.5
 20
-186.7846096908265
 11
6.983339501604577
 21
-184.2153903091735
  0
LINE
  8
2
  6
CONTINUOUS
 10
5.5
 20
-197.2153903091735
 11
6.983339501604577
 21
-199.7846096908265
  0
LINE
  8
2
  6
CONTINUOUS
 10
6.983339501604577
 20
-199.7846096908265
 11
8.715390309173479
 21
-200.7846096908265
  0
LINE
  8
2
  6
CONTINUOUS
 10
14.28460969082654
 20
-204.0
 11
16.01666049839542
 21
-205.0
  0
LINE
  8
2
  6
CONTINUOUS
 10
18.98333950160458
 20
-205.0
 11
16.01666049839542
 21
-205.0
  0
LINE
  8
2
  6
CONTINUOUS
 10
18.98333950160458
 20
-205.0
 11
20.71539030917346
 21
-204.0
  0
LINE
  8
2
  6
CONTINUOUS
 10
26.28460969082651
 20
-200.7846096908266
 11
28.01666049839542
 21
-199.7846096908265
  0
LINE
  8
2
  6
CONTINUOUS
 10
28.01666049839542
 20
-199.7846096908265
 11
29.5
 21
-197.2153903091735
  0
LINE
  8
2
  6
CONTINUOUS
 10
29.5
 20
-197.2153903091735
 11
29.5
 21
-195.2153903091734
  0
LINE
  8
2
  6
CONTINUOUS
 10
29.5
 20
-188.7846096908265
 11
29.5
 21
-186.7846096908265
  0
LINE
  8
2
  6
CONTINUOUS
 10
28.01666049839542
 20
-184.2153903091735
 11
29.5
 21
-186.7846096908265
  0
LINE
  8
2
  6
CONTINUOUS
 10
28.01666049839542
 20
-184.2153903091735
 11
26.28460969082655
 21
-183.2153903091735
  0
LINE
  8
2
  6
CONTINUOUS
 10
20.71539030917345
 20
-180.0
 11
18.98333950160458
 21
-179.0
  0
LINE
  8
2
  6
CONTINUOUS
 10
18.98333950160458
 20
-179.0
 11
16.01666049839542
 21
-179.0
  0
LINE
  8
2
  6
CONTINUOUS
 10
16.01666049839542
 20
-179.0
 11
14.28460969082654
 21
-180.0
  0
LINE
  8
2
  6
CONTINUOUS
 10
8.715390309173486
 20
-183.2153903091734
 11
6.983339501604577
 21
-184.2153903091735
  0
ENDBLK
  8
2
  0
BLOCK
  8
2
  2
COMP14
 70
    64
 10
0.0
 20
0.0
  0
LINE
  8
2
  6
CONTINUOUS
 10
-29.5
 20
-186.7846096908265
 11
-29.5
 21
-188.7846096908266
  0
LINE
  8
2
  6
CONTINUOUS
 10
-29.5
 20
-195.2153903091735
 11
-29.5
 21
-197.2153903091735
  0
LINE
  8
2
  6
CONTINUOUS
 10
-29.5
 20
-186.7846096908265
 11
-28.01666049839542
 21
-184.2153903091735
  0
LINE
  8
2
  6
CONTINUOUS
 10
-29.5
 20
-197.2153903091735
 11
-28.01666049839542
 21
-199.7846096908265
  0
LINE
  8
2
  6
CONTINUOUS
 10
-28.01666049839542
 20
-199.7846096908265
 11
-26.28460969082652
 21
-200.7846096908265
  0
LINE
  8
2
  6
CONTINUOUS
 10
-20.71539030917346
 20
-204.0
 11
-18.98333950160458
 21
-205.0
  0
LINE
  8
2
  6
CONTINUOUS
 10
-16.01666049839542
 20
-205.0
 11
-18.98333950160458
 21
-205.0
  0
LINE
  8
2
  6
CONTINUOUS
 10
-16.01666049839542
 20
-205.0
 11
-14.28460969082654
 21
-204.0
  0
LINE
  8
2
  6
CONTINUOUS
 10
-8.715390309173493
 20
-200.7846096908266
 11
-6.983339501604577
 21
-199.7846096908265
  0
LINE
  8
2
  6
CONTINUOUS
 10
-6.983339501604577
 20
-199.7846096908265
 11
-5.5
 21
-197.2153903091735
  0
LINE
  8
2
  6
CONTINUOUS
 10
-5.5
 20
-197.2153903091735
 11
-5.5
 21
-195.2153903091734
  0
LINE
  8
2
  6
CONTINUOUS
 10
-5.5
 20
-188.7846096908265
 11
-5.5
 21
-186.7846096908265
  0
LINE
  8
2
  6
CONTINUOUS
 10
-6.983339501604577
 20
-184.2153903091735
 11
-5.5
 21
-186.7846096908265
  0
LINE
  8
2
  6
CONTINUOUS
 10
-6.983339501604577
 20
-184.2153903091735
 11
-8.715390309173452
 21
-183.2153903091735
  0
LINE
  8
2
  6
CONTINUOUS
 10
-14.28460969082655
 20
-180.0
 11
-16.01666049839542
 21
-179.0
  0
LINE
  8
2
  6
CONTINUOUS
 10
-16.01666049839542
 20
-179.0
 11
-18.98333950160458
 21
-179.0
  0
LINE
  8
2
  6
CONTINUOUS
 10
-18.98333950160458
 20
-179.0
 11
-20.71539030917346
 21
-180.0
  0
LINE
  8
2
  6
CONTINUOUS
 10
-26.28460969082651
 20
-183.2153903091734
 11
-28.01666049839542
 21
-184.2153903091735
  0
ENDBLK
  8
2
  0
BLOCK
  8
2
  2
COMP15
 70
    64
 10
0.0
 20
0.0
  0
LINE
  8
2
  6
CONTINUOUS
 10
-64.5
 20
-186.7846096908265
 11
-64.5
 21
-188.7846096908266
  0
LINE
  8
2
  6
CONTINUOUS
 10
-64.5
 20
-195.2153903091735
 11
-64.5
 21
-197.2153903091735
  0
LINE
  8
2
  6
CONTINUOUS
 10
-64.5
 20
-186.7846096908265
 11
-63.01666049839542
 21
-184.2153903091735
  0
LINE
  8
2
  6
CONTINUOUS
 10
-64.5
 20
-197.2153903091735
 11
-63.01666049839542
 21
-199.7846096908265
  0
LINE
  8
2
  6
CONTINUOUS
 10
-63.01666049839542
 20
-199.7846096908265
 11
-61.28460969082652
 21
-200.7846096908265
  0
LINE
  8
2
  6
CONTINUOUS
 10
-55.71539030917346
 20
-204.0
 11
-53.98333950160458
 21
-205.0
  0
LINE
  8
2
  6
CONTINUOUS
 10
-51.01666049839542
 20
-205.0
 11
-53.98333950160458
 21
-205.0
  0
LINE
  8
2
  6
CONTINUOUS
 10
-51.01666049839542
 20
-205.0
 11
-49.28460969082654
 21
-204.0
  0
LINE
  8
2
  6
CONTINUOUS
 10
-43.71539030917349
 20
-200.7846096908266
 11
-41.98333950160458
 21
-199.7846096908265
  0
LINE
  8
2
  6
CONTINUOUS
 10
-41.98333950160458
 20
-199.7846096908265
 11
-40.5
 21
-197.2153903091735
  0
LINE
  8
2
  6
CONTINUOUS
 10
-40.5
 20
-197.2153903091735
 11
-40.5
 21
-195.2153903091734
  0
LINE
  8
2
  6
CONTINUOUS
 10
-40.5
 20
-188.7846096908265
 11
-40.5
 21
-186.7846096908265
  0
LINE
  8
2
  6
CONTINUOUS
 10
-41.98333950160458
 20
-184.2153903091735
 11
-40.5
 21
-186.7846096908265
  0
LINE
  8
2
  6
CONTINUOUS
 10
-41.98333950160458
 20
-184.2153903091735
 11
-43.71539030917345
 21
-183.2153903091735
  0
LINE
  8
2
  6
CONTINUOUS
 10
-49.28460969082655
 20
-180.0
 11
-51.01666049839542
 21
-179.0
  0
LINE
  8
2
  6
CONTINUOUS
 10
-51.01666049839542
 20
-179.0
 11
-53.98333950160458
 21
-179.0
  0
LINE
  8
2
  6
CONTINUOUS
 10
-53.98333950160458
 20
-179.0
 11
-55.71539030917346
 21
-180.0
  0
LINE
  8
2
  6
CONTINUOUS
 10
-61.28460969082651
 20
-183.2153903091734
 11
-63.01666049839542
 21
-184.2153903091735
  0
ENDBLK
  8
2
  0
BLOCK
  8
2
  2
COMP16
 70
    64
 10
0.0
 20
0.0
  0
LINE
  8
2
  6
CONTINUOUS
 10
211.7846096908265
 20
36.0
 11
213.7846096908266
 21
36.0
  0
LINE
  8
2
  6
CONTINUOUS
 10
220.2153903091735
 20
36.0
 11
222.2153903091735
 21
36.0
  0
LINE
  8
2
  6
CONTINUOUS
 10
211.7846096908265
 20
36.0
 11
209.2153903091735
 21
37.48333950160458
  0
LINE
  8
2
  6
CONTINUOUS
 10
222.2153903091735
 20
36.0
 11
224.7846096908265
 21
37.48333950160458
  0
LINE
  8
2
  6
CONTINUOUS
 10
224.7846096908265
 20
37.48333950160458
 11
225.7846096908265
 21
39.21539030917348
  0
LINE
  8
2
  6
CONTINUOUS
 10
229.0
 20
44.78460969082654
 11
230.0
 21
46.51666049839542
  0
LINE
  8
2
  6
CONTINUOUS
 10
230.0
 20
49.48333950160458
 11
230.0
 21
46.51666049839542
  0
LINE
  8
2
  6
CONTINUOUS
 10
230.0
 20
49.48333950160458
 11
229.0
 21
51.21539030917346
  0
LINE
  8
2
  6
CONTINUOUS
 10
225.7846096908266
 20
56.78460969082651
 11
224.7846096908265
 21
58.51666049839542
  0
LINE
  8
2
  6
CONTINUOUS
 10
224.7846096908265
 20
58.51666049839542
 11
222.2153903091735
 21
60.0
  0
LINE
  8
2
  6
CONTINUOUS
 10
222.2153903091735
 20
60.0
 11
220.2153903091734
 21
60.0
  0
LINE
  8
2
  6
CONTINUOUS
 10
213.7846096908265
 20
60.0
 11
211.7846096908265
 21
60.0
  0
LINE
  8
2
  6
CONTINUOUS
 10
209.2153903091735
 20
58.51666049839542
 11
211.7846096908265
 21
60.0
  0
LINE
  8
2
  6
CONTINUOUS
 10
209.2153903091735
 20
58.51666049839542
 11
208.2153903091735
 21
56.78460969082655
  0
LINE
  8
2
  6
CONTINUOUS
 10
205.0
 20
51.21539030917345
 11
204.0
 21
49.48333950160458
  0
LINE
  8
2
  6
CONTINUOUS
 10
204.0
 20
49.48333950160458
 11
204.0
 21
46.51666049839542
  0
LINE
  8
2
  6
CONTINUOUS
 10
204.0
 20
46.51666049839542
 11
205.0
 21
44.78460969082654
  0
LINE
  8
2
  6
CONTINUOUS
 10
208.2153903091734
 20
39.21539030917349
 11
209.2153903091735
 21
37.48333950160458
  0
ENDBLK
  8
2
  0
ENDSEC
  0
SECTION
  2
ENTITIES
  0
LINE
  8
2
  6
CONTINUOUS
 10
-69.5
 20
67.0
 11
69.5
 21
67.0
  0
LINE
  8
2
  6
CONTINUOUS
 10
-69.5
 20
-67.0
 11
69.5
 21
-67.0
  0
LINE
  8
2
  6
CONTINUOUS
 10
-69.5
 20
-67.0
 11
-69.5
 21
67.0
  0
LINE
  8
2
  6
CONTINUOUS
 10
69.5
 20
-67.0
 11
69.5
 21
67.0
  0
LINE
  8
2
  6
CONTINUOUS
 10
-82.5
 20
-63.0
 11
-82.5
 21
-47.0
  0
LINE
  8
2
  6
CONTINUOUS
 10
82.5
 20
-63.0
 11
82.5
 21
-47.0
  0
LINE
  8
2
  6
CONTINUOUS
 10
-80.5
 20
-45.0
 11
-69.5
 21
-45.0
  0
LINE
  8
2
  6
CONTINUOUS
 10
69.5
 20
-45.0
 11
80.5
 21
-45.0
  0
LINE
  8
2
  6
CONTINUOUS
 10
-80.5
 20
-65.0
 11
-69.5
 21
-65.0
  0
LINE
  8
2
  6
CONTINUOUS
 10
69.5
 20
-65.0
 11
80.5
 21
-65.0
  0
LINE
  8
2
  6
CONTINUOUS
 10
-80.5
 20
65.0
 11
-69.5
 21
65.0
  0
LINE
  8
2
  6
CONTINUOUS
 10
69.5
 20
65.0
 11
80.5
 21
65.0
  0
LINE
  8
2
  6
CONTINUOUS
 10
-80.5
 20
45.0
 11
-69.5
 21
45.0
  0
LINE
  8
2
  6
CONTINUOUS
 10
69.5
 20
45.0
 11
80.5
 21
45.0
  0
LINE
  8
2
  6
CONTINUOUS
 10
82.5
 20
47.0
 11
82.5
 21
63.0
  0
LINE
  8
2
  6
CONTINUOUS
 10
-82.5
 20
47.0
 11
-82.5
 21
63.0
  0
LINE
  8
2
  6
CONTINUOUS
 10
80.5
 20
45.0
 11
82.5
 21
47.0
  0
LINE
  8
2
  6
CONTINUOUS
 10
80.5
 20
65.0
 11
82.5
 21
63.0
  0
LINE
  8
2
  6
CONTINUOUS
 10
-80.5
 20
65.0
 11
-82.5
 21
63.0
  0
LINE
  8
2
  6
CONTINUOUS
 10
-82.5
 20
47.0
 11
-80.5
 21
45.0
  0
LINE
  8
2
  6
CONTINUOUS
 10
-80.5
 20
-45.0
 11
-82.5
 21
-47.0
  0
LINE
  8
2
  6
CONTINUOUS
 10
-82.5
 20
-63.0
 11
-80.5
 21
-65.0
  0
LINE
  8
2
  6
CONTINUOUS
 10
82.5
 20
-63.0
 11
80.5
 21
-65.0
  0
LINE
  8
2
  6
CONTINUOUS
 10
82.5
 20
-47.0
 11
80.5
 21
-45.0
  0
CIRCLE
  8
2
  6
CONTINUOUS
 10
76.5
 20
55.0
 40
4.150000000000006
  0
ARC
  8
2
  6
CONTINUOUS
 10
76.4999999999998
 20
54.99999999999999
 40
2.050000000000196
 50
1.985907313303859E-013
 51
8.414968084722338
  0
ARC
  8
2
  6
CONTINUOUS
 10
76.5
 20
54.99999999999979
 40
2.050000000000209
 50
81.58503191527792
 51
98.41496808472209
  0
ARC
  8
2
  6
CONTINUOUS
 10
76.50000000000011
 20
55.0
 40
2.050000000000111
 50
171.5850319152775
 51
188.4149680847225
  0
ARC
  8
2
  6
CONTINUOUS
 10
76.5
 20
55.00000000000021
 40
2.050000000000209
 50
261.5850319152779
 51
278.4149680847221
  0
ARC
  8
2
  6
CONTINUOUS
 10
76.4999999999998
 20
55.00000000000001
 40
2.050000000000196
 50
351.5850319152777
 51
359.9999999999998
  0
LINE
  8
2
  6
CONTINUOUS
 10
74.47207002093268
 20
55.3
 11
75.40000000000001
 21
55.3
  0
LINE
  8
2
  6
CONTINUOUS
 10
77.59999999999999
 20
55.3
 11
78.52792997906732
 21
55.3
  0
LINE
  8
2
  6
CONTINUOUS
 10
74.47207002093268
 20
54.7
 11
75.40000000000001
 21
54.7
  0
LINE
  8
2
  6
CONTINUOUS
 10
77.59999999999999
 20
54.7
 11
78.52792997906732
 21
54.7
  0
LINE
  8
2
  6
CONTINUOUS
 10
76.80000000000001
 20
52.97207002093268
 11
76.80000000000001
 21
53.90000000000001
  0
LINE
  8
2
  6
CONTINUOUS
 10
76.80000000000001
 20
56.1
 11
76.80000000000001
 21
57.02792997906732
  0
LINE
  8
2
  6
CONTINUOUS
 10
76.2
 20
52.97207002093268
 11
76.2
 21
53.90000000000001
  0
LINE
  8
2
  6
CONTINUOUS
 10
76.2
 20
56.1
 11
76.2
 21
57.02792997906732
  0
ARC
  8
2
  6
CONTINUOUS
 10
77.59999999999999
 20
56.09999999999999
 40
0.7999999999999972
 50
179.9999999999995
 51
270.0
  0
ARC
  8
2
  6
CONTINUOUS
 10
75.40000000000001
 20
56.09999999999999
 40
0.7999999999999901
 50
270.0
 51
5.088887490341735E-013
  0
ARC
  8
2
  6
CONTINUOUS
 10
75.40000000000001
 20
53.90000000000001
 40
0.7999999999999972
 50
359.9999999999995
 51
90.0
  0
ARC
  8
2
  6
CONTINUOUS
 10
77.59999999999999
 20
53.90000000000001
 40
0.7999999999999901
 50
90.0
 51
180.0000000000005
  0
CIRCLE
  8
2
  6
CONTINUOUS
 10
76.5
 20
-55.0
 40
4.150000000000006
  0
ARC
  8
2
  6
CONTINUOUS
 10
76.4999999999998
 20
-55.00000000000001
 40
2.050000000000196
 50
1.985907313303859E-013
 51
8.414968084722338
  0
ARC
  8
2
  6
CONTINUOUS
 10
76.5
 20
-55.00000000000021
 40
2.050000000000209
 50
81.58503191527792
 51
98.41496808472209
  0
ARC
  8
2
  6
CONTINUOUS
 10
76.50000000000011
 20
-55.0
 40
2.050000000000111
 50
171.5850319152775
 51
188.4149680847225
  0
ARC
  8
2
  6
CONTINUOUS
 10
76.5
 20
-54.99999999999979
 40
2.050000000000209
 50
261.5850319152779
 51
278.4149680847221
  0
ARC
  8
2
  6
CONTINUOUS
 10
76.4999999999998
 20
-54.99999999999999
 40
2.050000000000196
 50
351.5850319152777
 51
359.9999999999998
  0
LINE
  8
2
  6
CONTINUOUS
 10
74.47207002093268
 20
-54.7
 11
75.40000000000001
 21
-54.7
  0
LINE
  8
2
  6
CONTINUOUS
 10
77.59999999999999
 20
-54.7
 11
78.52792997906732
 21
-54.7
  0
LINE
  8
2
  6
CONTINUOUS
 10
74.47207002093268
 20
-55.3
 11
75.40000000000001
 21
-55.3
  0
LINE
  8
2
  6
CONTINUOUS
 10
77.59999999999999
 20
-55.3
 11
78.52792997906732
 21
-55.3
  0
LINE
  8
2
  6
CONTINUOUS
 10
76.80000000000001
 20
-57.02792997906732
 11
76.80000000000001
 21
-56.1
  0
LINE
  8
2
  6
CONTINUOUS
 10
76.80000000000001
 20
-53.90000000000001
 11
76.80000000000001
 21
-52.97207002093268
  0
LINE
  8
2
  6
CONTINUOUS
 10
76.2
 20
-57.02792997906732
 11
76.2
 21
-56.1
  0
LINE
  8
2
  6
CONTINUOUS
 10
76.2
 20
-53.90000000000001
 11
76.2
 21
-52.97207002093268
  0
ARC
  8
2
  6
CONTINUOUS
 10
77.59999999999999
 20
-53.90000000000001
 40
0.7999999999999972
 50
179.9999999999995
 51
270.0
  0
ARC
  8
2
  6
CONTINUOUS
 10
75.40000000000001
 20
-53.90000000000001
 40
0.7999999999999901
 50
270.0
 51
5.088887490341735E-013
  0
ARC
  8
2
  6
CONTINUOUS
 10
75.40000000000001
 20
-56.09999999999999
 40
0.7999999999999972
 50
359.9999999999995
 51
90.0
  0
ARC
  8
2
  6
CONTINUOUS
 10
77.59999999999999
 20
-56.09999999999999
 40
0.7999999999999901
 50
90.0
 51
180.0000000000005
  0
CIRCLE
  8
2
  6
CONTINUOUS
 10
-76.5
 20
-55.0
 40
4.150000000000006
  0
ARC
  8
2
  6
CONTINUOUS
 10
-76.5000000000002
 20
-55.00000000000001
 40
2.050000000000196
 50
1.985907313303859E-013
 51
8.414968084722338
  0
ARC
  8
2
  6
CONTINUOUS
 10
-76.5
 20
-55.00000000000021
 40
2.050000000000209
 50
81.58503191527792
 51
98.41496808472209
  0
ARC
  8
2
  6
CONTINUOUS
 10
-76.49999999999989
 20
-55.0
 40
2.050000000000111
 50
171.5850319152775
 51
188.4149680847225
  0
ARC
  8
2
  6
CONTINUOUS
 10
-76.5
 20
-54.99999999999979
 40
2.050000000000209
 50
261.5850319152779
 51
278.4149680847221
  0
ARC
  8
2
  6
CONTINUOUS
 10
-76.5000000000002
 20
-54.99999999999999
 40
2.050000000000196
 50
351.5850319152777
 51
359.9999999999998
  0
LINE
  8
2
  6
CONTINUOUS
 10
-78.52792997906732
 20
-54.7
 11
-77.59999999999999
 21
-54.7
  0
LINE
  8
2
  6
CONTINUOUS
 10
-75.40000000000001
 20
-54.7
 11
-74.47207002093268
 21
-54.7
  0
LINE
  8
2
  6
CONTINUOUS
 10
-78.52792997906732
 20
-55.3
 11
-77.59999999999999
 21
-55.3
  0
LINE
  8
2
  6
CONTINUOUS
 10
-75.40000000000001
 20
-55.3
 11
-74.47207002093268
 21
-55.3
  0
LINE
  8
2
  6
CONTINUOUS
 10
-76.2
 20
-57.02792997906732
 11
-76.2
 21
-56.1
  0
LINE
  8
2
  6
CONTINUOUS
 10
-76.2
 20
-53.90000000000001
 11
-76.2
 21
-52.97207002093268
  0
LINE
  8
2
  6
CONTINUOUS
 10
-76.80000000000001
 20
-57.02792997906732
 11
-76.80000000000001
 21
-56.1
  0
LINE
  8
2
  6
CONTINUOUS
 10
-76.80000000000001
 20
-53.90000000000001
 11
-76.80000000000001
 21
-52.97207002093268
  0
ARC
  8
2
  6
CONTINUOUS
 10
-75.40000000000001
 20
-53.90000000000001
 40
0.7999999999999972
 50
179.9999999999995
 51
270.0
  0
ARC
  8
2
  6
CONTINUOUS
 10
-77.59999999999999
 20
-53.90000000000001
 40
0.7999999999999901
 50
270.0
 51
5.088887490341735E-013
  0
ARC
  8
2
  6
CONTINUOUS
 10
-77.59999999999999
 20
-56.09999999999999
 40
0.7999999999999972
 50
359.9999999999995
 51
90.0
  0
ARC
  8
2
  6
CONTINUOUS
 10
-75.40000000000001
 20
-56.09999999999999
 40
0.7999999999999901
 50
90.0
 51
180.0000000000005
  0
CIRCLE
  8
2
  6
CONTINUOUS
 10
-76.5
 20
55.0
 40
4.150000000000006
  0
ARC
  8
2
  6
CONTINUOUS
 10
-76.5000000000002
 20
54.99999999999999
 40
2.050000000000196
 50
1.985907313303859E-013
 51
8.414968084722338
  0
ARC
  8
2
  6
CONTINUOUS
 10
-76.5
 20
54.99999999999979
 40
2.050000000000209
 50
81.58503191527792
 51
98.41496808472209
  0
ARC
  8
2
  6
CONTINUOUS
 10
-76.49999999999989
 20
55.0
 40
2.050000000000111
 50
171.5850319152775
 51
188.4149680847225
  0
ARC
  8
2
  6
CONTINUOUS
 10
-76.5
 20
55.00000000000021
 40
2.050000000000209
 50
261.5850319152779
 51
278.4149680847221
  0
ARC
  8
2
  6
CONTINUOUS
 10
-76.5000000000002
 20
55.00000000000001
 40
2.050000000000196
 50
351.5850319152777
 51
359.9999999999998
  0
LINE
  8
2
  6
CONTINUOUS
 10
-78.52792997906732
 20
55.3
 11
-77.59999999999999
 21
55.3
  0
LINE
  8
2
  6
CONTINUOUS
 10
-75.40000000000001
 20
55.3
 11
-74.47207002093268
 21
55.3
  0
LINE
  8
2
  6
CONTINUOUS
 10
-78.52792997906732
 20
54.7
 11
-77.59999999999999
 21
54.7
  0
LINE
  8
2
  6
CONTINUOUS
 10
-75.40000000000001
 20
54.7
 11
-74.47207002093268
 21
54.7
  0
LINE
  8
2
  6
CONTINUOUS
 10
-76.2
 20
52.97207002093268
 11
-76.2
 21
53.90000000000001
  0
LINE
  8
2
  6
CONTINUOUS
 10
-76.2
 20
56.1
 11
-76.2
 21
57.02792997906732
  0
LINE
  8
2
  6
CONTINUOUS
 10
-76.80000000000001
 20
52.97207002093268
 11
-76.80000000000001
 21
53.90000000000001
  0
LINE
  8
2
  6
CONTINUOUS
 10
-76.80000000000001
 20
56.1
 11
-76.80000000000001
 21
57.02792997906732
  0
ARC
  8
2
  6
CONTINUOUS
 10
-75.40000000000001
 20
56.09999999999999
 40
0.7999999999999972
 50
179.9999999999995
 51
270.0
  0
ARC
  8
2
  6
CONTINUOUS
 10
-77.59999999999999
 20
56.09999999999999
 40
0.7999999999999901
 50
270.0
 51
5.088887490341735E-013
  0
ARC
  8
2
  6
CONTINUOUS
 10
-77.59999999999999
 20
53.90000000000001
 40
0.7999999999999972
 50
359.9999999999995
 51
90.0
  0
ARC
  8
2
  6
CONTINUOUS
 10
-75.40000000000001
 20
53.90000000000001
 40
0.7999999999999901
 50
90.0
 51
180.0000000000005
  0
LINE
  8
2
  6
CONTINUOUS
 10
82.5
 20
-28.0
 11
82.5
 21
28.0
  0
LINE
  8
2
  6
CONTINUOUS
 10
-82.5
 20
-28.0
 11
-82.5
 21
28.0
  0
LINE
  8
2
  6
CONTINUOUS
 10
-80.5
 20
30.0
 11
-69.5
 21
30.0
  0
LINE
  8
2
  6
CONTINUOUS
 10
69.5
 20
30.0
 11
80.5
 21
30.0
  0
LINE
  8
2
  6
CONTINUOUS
 10
-80.5
 20
-30.0
 11
-69.5
 21
-30.0
  0
LINE
  8
2
  6
CONTINUOUS
 10
69.5
 20
-30.0
 11
80.5
 21
-30.0
  0
LINE
  8
2
  6
CONTINUOUS
 10
82.5
 20
28.0
 11
80.5
 21
30.0
  0
LINE
  8
2
  6
CONTINUOUS
 10
-80.5
 20
30.0
 11
-82.5
 21
28.0
  0
LINE
  8
2
  6
CONTINUOUS
 10
-82.5
 20
-28.0
 11
-80.5
 21
-30.0
  0
LINE
  8
2
  6
CONTINUOUS
 10
80.5
 20
-30.0
 11
82.5
 21
-28.0
  0
CIRCLE
  8
2
  6
CONTINUOUS
 10
76.5
 20
24.0
 40
2.799999999999997
  0
CIRCLE
  8
2
  6
CONTINUOUS
 10
76.5
 20
-24.0
 40
2.799999999999997
  0
CIRCLE
  8
2
  6
CONTINUOUS
 10
-76.5
 20
-24.0
 40
2.799999999999997
  0
CIRCLE
  8
2
  6
CONTINUOUS
 10
-76.5
 20
24.0
 40
2.799999999999997
  0
INSERT
  8
2
  6
CONTINUOUS
  2
COMP1
 10
0.0
 20
0.0
 41
1.0
 42
1.0
 50
0.0
  0
INSERT
  8
2
  6
CONTINUOUS
  2
COMP2
 10
0.0
 20
0.0
 41
1.0
 42
1.0
 50
0.0
  0
INSERT
  8
2
  6
CONTINUOUS
  2
COMP3
 10
0.0
 20
0.0
 41
1.0
 42
1.0
 50
0.0
  0
INSERT
  8
2
  6
CONTINUOUS
  2
COMP4
 10
0.0
 20
0.0
 41
1.0
 42
1.0
 50
0.0
  0
INSERT
  8
2
  6
CONTINUOUS
  2
COMP5
 10
0.0
 20
0.0
 41
1.0
 42
1.0
 50
0.0
  0
LINE
  8
2
  6
CONTINUOUS
 10
-82.5
 20
-212.0
 11
82.5
 21
-212.0
  0
LINE
  8
2
  6
CONTINUOUS
 10
-82.5
 20
-172.0
 11
82.5
 21
-172.0
  0
LINE
  8
2
  6
CONTINUOUS
 10
69.5
 20
-172.0
 11
69.5
 21
-159.0
  0
LINE
  8
2
  6
CONTINUOUS
 10
82.5
 20
-212.0
 11
82.5
 21
-210.4
  0
LINE
  8
2
  6
CONTINUOUS
 10
-82.5
 20
-212.0
 11
-82.5
 21
-210.4
  0
LINE
  8
2
  6
CONTINUOUS
 10
-69.5
 20
-172.0
 11
-69.5
 21
-159.0
  0
LINE
  8
2
  6
CONTINUOUS
 10
67.5
 20
-212.0
 11
67.5
 21
-172.0
  0
LINE
  8
2
  6
CONTINUOUS
 10
-67.5
 20
-212.0
 11
-67.5
 21
-172.0
  0
LINE
  8
2
  6
CONTINUOUS
 10
-69.5
 20
-159.0
 11
69.5
 21
-159.0
  0
LINE
  8
2
  6
CONTINUOUS
 10
-82.5
 20
-210.4
 11
-69.09999999999999
 21
-210.4
  0
LINE
  8
2
  6
CONTINUOUS
 10
69.09999999999999
 20
-210.4
 11
82.5
 21
-210.4
  0
LINE
  8
2
  6
CONTINUOUS
 10
-69.09999999999999
 20
-210.4
 11
-69.09999999999999
 21
-202.0
  0
LINE
  8
2
  6
CONTINUOUS
 10
69.09999999999999
 20
-210.4
 11
69.09999999999999
 21
-202.0
  0
LINE
  8
2
  6
CONTINUOUS
 10
-69.09999999999999
 20
-202.0
 11
-67.5
 21
-202.0
  0
LINE
  8
2
  6
CONTINUOUS
 10
67.5
 20
-202.0
 11
69.09999999999999
 21
-202.0
  0
LINE
  8
2
  6
CONTINUOUS
 10
82.5
 20
-170.4
 11
82.5
 21
-172.0
  0
LINE
  8
2
  6
CONTINUOUS
 10
82.5
 20
-174.0
 11
82.5
 21
-176.3
  0
LINE
  8
2
  6
CONTINUOUS
 10
-82.49999999999999
 20
-176.3
 11
-82.49999999999999
 21
-174.0
  0
LINE
  8
2
  6
CONTINUOUS
 10
-82.5
 20
-172.0
 11
-82.5
 21
-170.4
  0
LINE
  8
2
  6
CONTINUOUS
 10
-82.5
 20
-176.3
 11
-69.8
 21
-176.3
  0
LINE
  8
2
  6
CONTINUOUS
 10
69.80000000000003
 20
-176.3
 11
82.5
 21
-176.3
  0
LINE
  8
2
  6
CONTINUOUS
 10
69.8
 20
-182.0
 11
69.80000000000001
 21
-176.3
  0
LINE
  8
2
  6
CONTINUOUS
 10
-69.8
 20
-182.0
 11
-69.8
 21
-176.3
  0
LINE
  8
2
  6
CONTINUOUS
 10
-69.8
 20
-182.0
 11
-67.5
 21
-182.0
  0
LINE
  8
2
  6
CONTINUOUS
 10
67.5
 20
-182.0
 11
69.8
 21
-182.0
  0
LINE
  8
2
  6
CONTINUOUS
 10
-82.5
 20
-170.4
 11
-69.5
 21
-170.4
  0
LINE
  8
2
  6
CONTINUOUS
 10
69.5
 20
-170.4
 11
82.5
 21
-170.4
  0
LINE
  8
3
  6
CENTER
 10
76.5
 20
-212.9022827148438
 11
76.5
 21
-207.7854009281425
  0
LINE
  8
3
  6
CENTER
 10
-76.5
 20
-212.9022827148438
 11
-76.5
 21
-207.7854009281425
  0
INSERT
  8
2
  6
CONTINUOUS
  2
COMP6
 10
0.0
 20
0.0
 41
1.0
 42
1.0
 50
0.0
  0
INSERT
  8
2
  6
CONTINUOUS
  2
COMP7
 10
0.0
 20
0.0
 41
1.0
 42
1.0
 50
0.0
  0
INSERT
  8
2
  6
CONTINUOUS
  2
COMP8
 10
0.0
 20
0.0
 41
1.0
 42
1.0
 50
0.0
  0
INSERT
  8
2
  6
CONTINUOUS
  2
COMP9
 10
0.0
 20
0.0
 41
1.0
 42
1.0
 50
0.0
  0
LINE
  8
2
  6
CONTINUOUS
 10
72.0
 20
-170.4
 11
81.0
 21
-170.4
  0
LINE
  8
2
  6
CONTINUOUS
 10
72.0
 20
-169.6
 11
81.0
 21
-169.6
  0
LINE
  8
2
  6
CONTINUOUS
 10
72.0
 20
-170.4
 11
72.0
 21
-169.6
  0
LINE
  8
2
  6
CONTINUOUS
 10
81.0
 20
-170.4
 11
81.0
 21
-169.6
  0
LINE
  8
2
  6
CONTINUOUS
 10
75.92264973081038
 20
-169.6
 11
76.5
 21
-168.6
  0
LINE
  8
2
  6
CONTINUOUS
 10
76.5
 20
-169.6
 11
77.07735026918962
 21
-168.6
  0
LINE
  8
2
  6
CONTINUOUS
 10
80.30000000000001
 20
-169.6
 11
80.30000000000001
 21
-168.6
  0
LINE
  8
2
  6
CONTINUOUS
 10
72.7
 20
-169.6
 11
72.7
 21
-168.6
  0
LINE
  8
2
  6
CONTINUOUS
 10
72.7
 20
-168.6
 11
80.30000000000001
 21
-168.6
  0
LINE
  8
2
  6
CONTINUOUS
 10
72.7
 20
-169.6
 11
80.30000000000001
 21
-169.6
  0
LINE
  8
2
  6
CONTINUOUS
 10
72.34999999999999
 20
-168.6
 11
80.65000000000001
 21
-168.6
  0
LINE
  8
2
  6
CONTINUOUS
 10
78.5
 20
-172.0
 11
78.5
 21
-174.0
  0
LINE
  8
2
  6
CONTINUOUS
 10
78.5
 20
-176.3
 11
78.5
 21
-180.1
  0
LINE
  8
2
  6
CONTINUOUS
 10
74.5
 20
-172.0
 11
74.5
 21
-174.0
  0
LINE
  8
2
  6
CONTINUOUS
 10
74.5
 20
-176.3
 11
74.5
 21
-180.1
  0
LINE
  8
2
  6
CONTINUOUS
 10
75.0
 20
-180.6
 11
78.0
 21
-180.6
  0
LINE
  8
2
  6
CONTINUOUS
 10
78.0
 20
-172.0
 11
78.0
 21
-174.0
  0
LINE
  8
2
  6
CONTINUOUS
 10
78.0
 20
-176.3
 11
78.0
 21
-180.6
  0
LINE
  8
2
  6
CONTINUOUS
 10
75.0
 20
-172.0
 11
75.0
 21
-174.0
  0
LINE
  8
2
  6
CONTINUOUS
 10
75.0
 20
-176.3
 11
75.0
 21
-180.6
  0
LINE
  8
2
  6
CONTINUOUS
 10
78.5
 20
-180.1
 11
78.0
 21
-180.6
  0
LINE
  8
2
  6
CONTINUOUS
 10
75.0
 20
-180.6
 11
74.5
 21
-180.1
  0
LINE
  8
2
  6
CONTINUOUS
 10
78.5
 20
-180.1
 11
74.5
 21
-180.1
  0
LINE
  8
2
  6
CONTINUOUS
 10
80.50126927200593
 20
-166.9
 11
80.65000000000001
 21
-168.6
  0
LINE
  8
2
  6
CONTINUOUS
 10
72.49873072799407
 20
-166.9
 11
80.50126927200593
 21
-166.9
  0
LINE
  8
2
  6
CONTINUOUS
 10
72.49873072799407
 20
-166.9
 11
72.34999999999999
 21
-168.6
  0
ARC
  8
2
  6
CONTINUOUS
 10
76.5
 20
-176.5063473669367
 40
10.4063473669367
 50
67.38712560451911
 51
112.6128743954809
  0
LINE
  8
2
  6
CONTINUOUS
 10
-80.65000000000001
 20
-168.6
 11
-72.34999999999999
 21
-168.6
  0
LINE
  8
2
  6
CONTINUOUS
 10
-74.5
 20
-172.0
 11
-74.5
 21
-174.0
  0
LINE
  8
2
  6
CONTINUOUS
 10
-74.5
 20
-176.3
 11
-74.5
 21
-180.1
  0
LINE
  8
2
  6
CONTINUOUS
 10
-78.5
 20
-172.0
 11
-78.5
 21
-174.0
  0
LINE
  8
2
  6
CONTINUOUS
 10
-78.5
 20
-176.3
 11
-78.5
 21
-180.1
  0
LINE
  8
2
  6
CONTINUOUS
 10
-78.0
 20
-180.6
 11
-75.0
 21
-180.6
  0
LINE
  8
2
  6
CONTINUOUS
 10
-75.0
 20
-172.0
 11
-75.0
 21
-174.0
  0
LINE
  8
2
  6
CONTINUOUS
 10
-75.0
 20
-176.3
 11
-75.0
 21
-180.6
  0
LINE
  8
2
  6
CONTINUOUS
 10
-78.0
 20
-172.0
 11
-78.0
 21
-174.0
  0
LINE
  8
2
  6
CONTINUOUS
 10
-78.0
 20
-176.3
 11
-78.0
 21
-180.6
  0
LINE
  8
2
  6
CONTINUOUS
 10
-74.5
 20
-180.1
 11
-75.0
 21
-180.6
  0
LINE
  8
2
  6
CONTINUOUS
 10
-78.0
 20
-180.6
 11
-78.5
 21
-180.1
  0
LINE
  8
2
  6
CONTINUOUS
 10
-74.5
 20
-180.1
 11
-78.5
 21
-180.1
  0
LINE
  8
2
  6
CONTINUOUS
 10
-72.49873072799407
 20
-166.9
 11
-72.34999999999999
 21
-168.6
  0
LINE
  8
2
  6
CONTINUOUS
 10
-80.50126927200593
 20
-166.9
 11
-72.49873072799407
 21
-166.9
  0
LINE
  8
2
  6
CONTINUOUS
 10
-80.50126927200593
 20
-166.9
 11
-80.65000000000001
 21
-168.6
  0
ARC
  8
2
  6
CONTINUOUS
 10
-76.5
 20
-176.5063473669367
 40
10.4063473669367
 50
67.38712560451911
 51
112.6128743954809
  0
LINE
  8
2
  6
CONTINUOUS
 10
-77.07735026918962
 20
-169.6
 11
-76.5
 21
-168.6
  0
LINE
  8
2
  6
CONTINUOUS
 10
-76.5
 20
-169.6
 11
-75.92264973081038
 21
-168.6
  0
LINE
  8
2
  6
CONTINUOUS
 10
-72.7
 20
-169.6
 11
-72.7
 21
-168.6
  0
LINE
  8
2
  6
CONTINUOUS
 10
-80.30000000000001
 20
-169.6
 11
-80.30000000000001
 21
-168.6
  0
LINE
  8
2
  6
CONTINUOUS
 10
-80.30000000000001
 20
-168.6
 11
-72.7
 21
-168.6
  0
LINE
  8
2
  6
CONTINUOUS
 10
-80.30000000000001
 20
-169.6
 11
-72.7
 21
-169.6
  0
LINE
  8
2
  6
CONTINUOUS
 10
-81.0
 20
-170.4
 11
-72.0
 21
-170.4
  0
LINE
  8
2
  6
CONTINUOUS
 10
-81.0
 20
-169.6
 11
-72.0
 21
-169.6
  0
LINE
  8
2
  6
CONTINUOUS
 10
-81.0
 20
-170.4
 11
-81.0
 21
-169.6
  0
LINE
  8
2
  6
CONTINUOUS
 10
-72.0
 20
-170.4
 11
-72.0
 21
-169.6
  0
LINE
  8
2
  6
CONTINUOUS
 10
181.0
 20
-67.0
 11
181.0
 21
67.0
  0
LINE
  8
2
  6
CONTINUOUS
 10
194.0
 20
0.0
 11
194.0
 21
67.0
  0
LINE
  8
2
  6
CONTINUOUS
 10
234.0
 20
-65.0
 11
234.0
 21
65.0
  0
INSERT
  8
2
  6
CONTINUOUS
  2
COMP10
 10
0.0
 20
0.0
 41
1.0
 42
1.0
 50
0.0
  0
LINE
  8
2
  6
CONTINUOUS
 10
224.0
 20
30.0
 11
234.0
 21
30.0
  0
LINE
  8
2
  6
CONTINUOUS
 10
224.0
 20
-30.0
 11
234.0
 21
-30.0
  0
LINE
  8
2
  6
CONTINUOUS
 10
232.4
 20
28.0
 11
234.0
 21
28.0
  0
LINE
  8
2
  6
CONTINUOUS
 10
232.4
 20
-28.0
 11
234.0
 21
-28.0
  0
LINE
  8
2
  6
CONTINUOUS
 10
232.4
 20
-30.0
 11
232.4
 21
30.0
  0
LINE
  8
2
  6
CONTINUOUS
 10
224.0
 20
-30.0
 11
224.0
 21
30.0
  0
LINE
  8
2
  6
CONTINUOUS
 10
181.0
 20
67.0
 11
194.0
 21
67.0
  0
LINE
  8
2
  6
CONTINUOUS
 10
181.0
 20
-67.0
 11
194.0
 21
-67.0
  0
LINE
  8
2
  6
CONTINUOUS
 10
192.4
 20
-65.0
 11
234.0
 21
-65.0
  0
LINE
  8
2
  6
CONTINUOUS
 10
192.4
 20
65.0
 11
234.0
 21
65.0
  0
LINE
  8
2
  6
CONTINUOUS
 10
192.4
 20
45.0
 11
194.0
 21
45.0
  0
LINE
  8
2
  6
CONTINUOUS
 10
196.0
 20
45.0
 11
204.0
 21
45.0
  0
LINE
  8
3
  6
CENTER
 10
230.3347625732422
 20
24.0
 11
237.0219116210938
 21
24.0
  0
LINE
  8
3
  6
CENTER
 10
230.3347625732422
 20
-24.0
 11
237.0219116210938
 21
-24.0
  0
LINE
  8
2
  6
CONTINUOUS
 10
190.6
 20
50.84999999999999
 11
190.6
 21
59.15000000000001
  0
LINE
  8
2
  6
CONTINUOUS
 10
194.0
 20
57.0
 11
196.0
 21
57.0
  0
LINE
  8
2
  6
CONTINUOUS
 10
198.3
 20
57.0
 11
202.1
 21
57.0
  0
LINE
  8
2
  6
CONTINUOUS
 10
194.0
 20
53.0
 11
196.0
 21
53.0
  0
LINE
  8
2
  6
CONTINUOUS
 10
198.3
 20
53.0
 11
202.1
 21
53.0
  0
LINE
  8
2
  6
CONTINUOUS
 10
202.6
 20
53.5
 11
202.6
 21
56.5
  0
LINE
  8
2
  6
CONTINUOUS
 10
194.0
 20
56.5
 11
196.0
 21
56.5
  0
LINE
  8
2
  6
CONTINUOUS
 10
198.3
 20
56.5
 11
202.6
 21
56.5
  0
LINE
  8
2
  6
CONTINUOUS
 10
194.0
 20
53.5
 11
196.0
 21
53.5
  0
LINE
  8
2
  6
CONTINUOUS
 10
198.3
 20
53.5
 11
202.6
 21
53.5
  0
LINE
  8
2
  6
CONTINUOUS
 10
202.1
 20
57.0
 11
202.6
 21
56.5
  0
LINE
  8
2
  6
CONTINUOUS
 10
202.6
 20
53.5
 11
202.1
 21
53.0
  0
LINE
  8
2
  6
CONTINUOUS
 10
202.1
 20
57.0
 11
202.1
 21
53.0
  0
LINE
  8
2
  6
CONTINUOUS
 10
188.9
 20
59.00126927200593
 11
190.6
 21
59.15000000000001
  0
LINE
  8
2
  6
CONTINUOUS
 10
188.9
 20
50.99873072799407
 11
188.9
 21
59.00126927200593
  0
LINE
  8
2
  6
CONTINUOUS
 10
188.9
 20
50.99873072799407
 11
190.6
 21
50.84999999999999
  0
ARC
  8
2
  6
CONTINUOUS
 10
198.5063473669367
 20
54.99999999999999
 40
10.4063473669367
 50
157.3871256045191
 51
202.6128743954808
  0
LINE
  8
2
  6
CONTINUOUS
 10
191.6
 20
54.42264973081038
 11
190.6
 21
55.0
  0
LINE
  8
2
  6
CONTINUOUS
 10
191.6
 20
55.0
 11
190.6
 21
55.57735026918962
  0
LINE
  8
2
  6
CONTINUOUS
 10
191.6
 20
58.8
 11
190.6
 21
58.8
  0
LINE
  8
2
  6
CONTINUOUS
 10
191.6
 20
51.2
 11
190.6
 21
51.2
  0
LINE
  8
2
  6
CONTINUOUS
 10
190.6
 20
51.2
 11
190.6
 21
58.8
  0
LINE
  8
2
  6
CONTINUOUS
 10
191.6
 20
51.2
 11
191.6
 21
58.8
  0
LINE
  8
2
  6
CONTINUOUS
 10
192.4
 20
50.5
 11
192.4
 21
59.5
  0
LINE
  8
2
  6
CONTINUOUS
 10
191.6
 20
50.5
 11
191.6
 21
59.5
  0
LINE
  8
2
  6
CONTINUOUS
 10
192.4
 20
50.5
 11
191.6
 21
50.5
  0
LINE
  8
2
  6
CONTINUOUS
 10
192.4
 20
59.5
 11
191.6
 21
59.5
  0
LINE
  8
2
  6
CONTINUOUS
 10
201.5
 20
-65.0
 11
221.0
 21
-65.0
  0
LINE
  8
2
  6
CONTINUOUS
 10
201.5
 20
-66.5
 11
201.5
 21
-65.0
  0
LINE
  8
2
  6
CONTINUOUS
 10
204.5
 20
-86.5
 11
223.5
 21
-86.5
  0
LINE
  8
2
  6
CONTINUOUS
 10
224.5
 20
-73.5
 11
224.5
 21
-71.5
  0
LINE
  8
2
  6
CONTINUOUS
 10
203.5
 20
-73.5
 11
203.5
 21
-71.5
  0
LINE
  8
2
  6
CONTINUOUS
 10
223.5
 20
-73.5
 11
223.5
 21
-71.5
  0
LINE
  8
2
  6
CONTINUOUS
 10
204.5
 20
-73.5
 11
204.5
 21
-71.5
  0
LINE
  8
2
  6
CONTINUOUS
 10
201.0
 20
-66.5
 11
227.0
 21
-66.5
  0
LINE
  8
2
  6
CONTINUOUS
 10
206.2153930664063
 20
-66.5
 11
206.2153930664063
 21
-71.0
  0
LINE
  8
2
  6
CONTINUOUS
 10
208.7846069335938
 20
-66.5
 11
208.7846069335938
 21
-71.0
  0
LINE
  8
2
  6
CONTINUOUS
 10
219.2153930664063
 20
-66.5
 11
219.2153930664063
 21
-71.0
  0
LINE
  8
2
  6
CONTINUOUS
 10
221.7846069335938
 20
-66.5
 11
221.7846069335938
 21
-71.0
  0
LINE
  8
2
  6
CONTINUOUS
 10
201.0
 20
-71.0
 11
227.0
 21
-71.0
  0
LINE
  8
2
  6
CONTINUOUS
 10
201.0
 20
-66.5
 11
201.0
 21
-71.0
  0
LINE
  8
2
  6
CONTINUOUS
 10
201.5
 20
-71.5
 11
201.0
 21
-71.0
  0
LINE
  8
2
  6
CONTINUOUS
 10
201.5
 20
-71.5
 11
226.5
 21
-71.5
  0
LINE
  8
2
  6
CONTINUOUS
 10
227.0
 20
-66.5
 11
227.0
 21
-71.0
  0
LINE
  8
2
  6
CONTINUOUS
 10
226.5
 20
-71.5
 11
227.0
 21
-71.0
  0
LINE
  8
2
  6
CONTINUOUS
 10
206.2153930664063
 20
-71.0
 11
206.5814157129579
 21
-71.5
  0
LINE
  8
2
  6
CONTINUOUS
 10
208.7846069335938
 20
-71.0
 11
208.9185842870421
 21
-71.5
  0
LINE
  8
2
  6
CONTINUOUS
 10
219.2153930664063
 20
-71.0
 11
219.0814157129579
 21
-71.5
  0
LINE
  8
2
  6
CONTINUOUS
 10
221.7846069335938
 20
-71.0
 11
221.4185842870421
 21
-71.5
  0
LINE
  8
2
  6
CONTINUOUS
 10
203.4833374023438
 20
-83.0
 11
203.4833374023438
 21
-73.5
  0
LINE
  8
2
  6
CONTINUOUS
 10
212.5166625976563
 20
-83.0
 11
212.5166625976563
 21
-73.5
  0
LINE
  8
2
  6
CONTINUOUS
 10
215.4833374023438
 20
-83.0
 11
215.4833374023438
 21
-73.5
  0
LINE
  8
2
  6
CONTINUOUS
 10
226.0
 20
-85.44949340820313
 11
226.0
 21
-73.5
  0
ARC
  8
2
  6
CONTINUOUS
 10
223.4999999999999
 20
-82.99999999999989
 40
3.500000000000114
 50
270.0
 51
315.5846485430231
  0
LINE
  8
2
  6
CONTINUOUS
 10
202.0
 20
-85.44949340820313
 11
202.0
 21
-73.5
  0
ARC
  8
2
  6
CONTINUOUS
 10
204.5
 20
-83.00000000000003
 40
3.499999999999986
 50
224.4153514569761
 51
270.0
  0
LINE
  8
2
  6
CONTINUOUS
 10
224.5166625976563
 20
-83.0
 11
224.5166625976563
 21
-73.5
  0
LINE
  8
2
  6
CONTINUOUS
 10
202.0
 20
-83.0
 11
203.4833374023438
 21
-83.0
  0
LINE
  8
2
  6
CONTINUOUS
 10
212.5166625976563
 20
-83.0
 11
215.4833374023438
 21
-83.0
  0
LINE
  8
2
  6
CONTINUOUS
 10
224.5166625976563
 20
-83.0
 11
226.0
 21
-83.0
  0
ARC
  8
2
  6
CONTINUOUS
 10
208.0
 20
-80.06056225750206
 40
5.388927097585224
 50
213.0560224330358
 51
326.9439775669642
  0
ARC
  8
2
  6
CONTINUOUS
 10
220.0
 20
-80.06056225750206
 40
5.388927097585224
 50
213.0560224330358
 51
326.9439775669642
  0
LINE
  8
2
  6
CONTINUOUS
 10
202.0
 20
-73.5
 11
226.0
 21
-73.5
  0
LINE
  8
2
  6
CONTINUOUS
 10
226.5
 20
-66.5
 11
226.5
 21
-65.0
  0
CIRCLE
  8
2
  6
CONTINUOUS
 10
52.5
 20
-192.0
 40
9.5
  0
CIRCLE
  8
2
  6
CONTINUOUS
 10
52.5
 20
-192.0
 40
5.5
  0
CIRCLE
  8
2
  6
CONTINUOUS
 10
52.5
 20
-192.0
 40
4.5
  0
INSERT
  8
2
  6
CONTINUOUS
  2
COMP11
 10
0.0
 20
0.0
 41
1.0
 42
1.0
 50
0.0
  0
INSERT
  8
2
  6
CONTINUOUS
  2
COMP12
 10
0.0
 20
0.0
 41
1.0
 42
1.0
 50
0.0
  0
INSERT
  8
2
  6
CONTINUOUS
  2
COMP13
 10
0.0
 20
0.0
 41
1.0
 42
1.0
 50
0.0
  0
INSERT
  8
2
  6
CONTINUOUS
  2
COMP14
 10
0.0
 20
0.0
 41
1.0
 42
1.0
 50
0.0
  0
INSERT
  8
2
  6
CONTINUOUS
  2
COMP15
 10
0.0
 20
0.0
 41
1.0
 42
1.0
 50
0.0
  0
INSERT
  8
2
  6
CONTINUOUS
  2
COMP16
 10
0.0
 20
0.0
 41
1.0
 42
1.0
 50
0.0
  0
CIRCLE
  8
2
  6
CONTINUOUS
 10
76.5
 20
55.0
 40
4.5
  0
CIRCLE
  8
2
  6
CONTINUOUS
 10
76.5
 20
-55.0
 40
4.5
  0
CIRCLE
  8
2
  6
CONTINUOUS
 10
-76.5
 20
-55.0
 40
4.5
  0
CIRCLE
  8
2
  6
CONTINUOUS
 10
-76.5
 20
55.0
 40
4.5
  0
LINE
  8
2
  6
CONTINUOUS
 10
192.4
 20
47.0
 11
194.0
 21
47.0
  0
LINE
  8
2
  6
CONTINUOUS
 10
196.0
 20
47.0
 11
198.3
 21
47.0
  0
LINE
  8
2
  6
CONTINUOUS
 10
192.4
 20
63.0
 11
194.0
 21
63.0
  0
LINE
  8
2
  6
CONTINUOUS
 10
196.0
 20
63.0
 11
198.3
 21
63.0
  0
LINE
  8
2
  6
CONTINUOUS
 10
80.5
 20
-212.0
 11
80.5
 21
-210.4
  0
LINE
  8
2
  6
CONTINUOUS
 10
80.5
 20
-176.3
 11
80.5
 21
-174.0
  0
LINE
  8
2
  6
CONTINUOUS
 10
80.5
 20
-172.0
 11
80.5
 21
-170.4
  0
LINE
  8
2
  6
CONTINUOUS
 10
-80.5
 20
-212.0
 11
-80.5
 21
-210.4
  0
LINE
  8
2
  6
CONTINUOUS
 10
-80.5
 20
-176.3
 11
-80.5
 21
-174.0
  0
LINE
  8
2
  6
CONTINUOUS
 10
-80.5
 20
-172.0
 11
-80.5
 21
-170.4
  0
LINE
  8
2
  6
CONTINUOUS
 10
-82.5
 20
-174.0
 11
-67.5
 21
-174.0
  0
LINE
  8
2
  6
CONTINUOUS
 10
67.5
 20
-174.0
 11
82.5
 21
-174.0
  0
LINE
  8
3
  6
CENTER
 10
71.7
 20
24.0
 11
81.30000000000001
 21
24.0
  0
LINE
  8
3
  6
CENTER
 10
76.5
 20
19.2
 11
76.5
 21
28.8
  0
LINE
  8
3
  6
CENTER
 10
71.7
 20
-24.0
 11
81.30000000000001
 21
-24.0
  0
LINE
  8
3
  6
CENTER
 10
76.5
 20
-28.8
 11
76.5
 21
-19.2
  0
LINE
  8
3
  6
CENTER
 10
-81.30000000000001
 20
-24.0
 11
-71.7
 21
-24.0
  0
LINE
  8
3
  6
CENTER
 10
-76.5
 20
-28.8
 11
-76.5
 21
-19.2
  0
LINE
  8
3
  6
CENTER
 10
-81.30000000000001
 20
24.0
 11
-71.7
 21
24.0
  0
LINE
  8
3
  6
CENTER
 10
-76.5
 20
19.2
 11
-76.5
 21
28.8
  0
LINE
  8
2
  6
CONTINUOUS
 10
204.0
 20
45.0
 11
204.0
 21
65.0
  0
LINE
  8
2
  6
CONTINUOUS
 10
196.0
 20
45.0
 11
196.0
 21
65.0
  0
LINE
  8
2
  6
CONTINUOUS
 10
198.3
 20
45.0
 11
198.3
 21
65.0
  0
LINE
  8
2
  6
CONTINUOUS
 10
192.4
 20
45.0
 11
192.4
 21
65.0
  0
LINE
  8
2
  6
CONTINUOUS
 10
194.0
 20
0.0
 11
194.0
 21
-67.0
  0
LINE
  8
2
  6
CONTINUOUS
 10
192.4
 20
-45.0
 11
194.0
 21
-45.0
  0
LINE
  8
2
  6
CONTINUOUS
 10
196.0
 20
-45.0
 11
204.0
 21
-45.0
  0
LINE
  8
2
  6
CONTINUOUS
 10
190.6
 20
-50.84999999999999
 11
190.6
 21
-59.15000000000001
  0
LINE
  8
2
  6
CONTINUOUS
 10
194.0
 20
-57.0
 11
196.0
 21
-57.0
  0
LINE
  8
2
  6
CONTINUOUS
 10
198.3
 20
-57.0
 11
202.1
 21
-57.0
  0
LINE
  8
2
  6
CONTINUOUS
 10
194.0
 20
-53.0
 11
196.0
 21
-53.0
  0
LINE
  8
2
  6
CONTINUOUS
 10
198.3
 20
-53.0
 11
202.1
 21
-53.0
  0
LINE
  8
2
  6
CONTINUOUS
 10
202.6
 20
-53.5
 11
202.6
 21
-56.5
  0
LINE
  8
2
  6
CONTINUOUS
 10
194.0
 20
-56.5
 11
196.0
 21
-56.5
  0
LINE
  8
2
  6
CONTINUOUS
 10
198.3
 20
-56.5
 11
202.6
 21
-56.5
  0
LINE
  8
2
  6
CONTINUOUS
 10
194.0
 20
-53.5
 11
196.0
 21
-53.5
  0
LINE
  8
2
  6
CONTINUOUS
 10
198.3
 20
-53.5
 11
202.6
 21
-53.5
  0
LINE
  8
2
  6
CONTINUOUS
 10
202.1
 20
-57.0
 11
202.6
 21
-56.5
  0
LINE
  8
2
  6
CONTINUOUS
 10
202.6
 20
-53.5
 11
202.1
 21
-53.0
  0
LINE
  8
2
  6
CONTINUOUS
 10
202.1
 20
-57.0
 11
202.1
 21
-53.0
  0
LINE
  8
2
  6
CONTINUOUS
 10
188.9
 20
-59.00126927200593
 11
190.6
 21
-59.15000000000001
  0
LINE
  8
2
  6
CONTINUOUS
 10
188.9
 20
-50.99873072799407
 11
188.9
 21
-59.00126927200593
  0
LINE
  8
2
  6
CONTINUOUS
 10
188.9
 20
-50.99873072799407
 11
190.6
 21
-50.84999999999999
  0
ARC
  8
2
  6
CONTINUOUS
 10
198.5063473669367
 20
-55.00000000000001
 40
10.4063473669367
 50
157.3871256045191
 51
202.6128743954808
  0
LINE
  8
2
  6
CONTINUOUS
 10
191.6
 20
-54.42264973081038
 11
190.6
 21
-55.0
  0
LINE
  8
2
  6
CONTINUOUS
 10
191.6
 20
-55.0
 11
190.6
 21
-55.57735026918962
  0
LINE
  8
2
  6
CONTINUOUS
 10
191.6
 20
-58.8
 11
190.6
 21
-58.8
  0
LINE
  8
2
  6
CONTINUOUS
 10
191.6
 20
-51.2
 11
190.6
 21
-51.2
  0
LINE
  8
2
  6
CONTINUOUS
 10
190.6
 20
-51.2
 11
190.6
 21
-58.8
  0
LINE
  8
2
  6
CONTINUOUS
 10
191.6
 20
-51.2
 11
191.6
 21
-58.8
  0
LINE
  8
2
  6
CONTINUOUS
 10
192.4
 20
-50.5
 11
192.4
 21
-59.5
  0
LINE
  8
2
  6
CONTINUOUS
 10
191.6
 20
-50.5
 11
191.6
 21
-59.5
  0
LINE
  8
2
  6
CONTINUOUS
 10
192.4
 20
-50.5
 11
191.6
 21
-50.5
  0
LINE
  8
2
  6
CONTINUOUS
 10
192.4
 20
-59.5
 11
191.6
 21
-59.5
  0
LINE
  8
2
  6
CONTINUOUS
 10
192.4
 20
-47.0
 11
194.0
 21
-47.0
  0
LINE
  8
2
  6
CONTINUOUS
 10
196.0
 20
-47.0
 11
198.3
 21
-47.0
  0
LINE
  8
2
  6
CONTINUOUS
 10
192.4
 20
-63.0
 11
194.0
 21
-63.0
  0
LINE
  8
2
  6
CONTINUOUS
 10
196.0
 20
-63.0
 11
198.3
 21
-63.0
  0
LINE
  8
2
  6
CONTINUOUS
 10
196.0
 20
-45.0
 11
196.0
 21
-65.0
  0
LINE
  8
2
  6
CONTINUOUS
 10
198.3
 20
-45.0
 11
198.3
 21
-65.0
  0
LINE
  8
2
  6
CONTINUOUS
 10
192.4
 20
-45.0
 11
192.4
 21
-65.0
  0
LINE
  8
2
  6
CONTINUOUS
 10
204.0
 20
-45.0
 11
204.0
 21
-65.0
  0
ENDSEC
  0
EOF
