  0
SECTION
  2
HEADER
  9
$ACADVER
  1
AC1006
  9
$INSBASE
 10
0.0
 20
0.0
 30
0.0
  9
$EXTMIN
 10
-106.0
 20
-270.0
  9
$EXTMAX
 10
265.6908604697294
 20
141.5
  9
$LIMMIN
 10
-106.0
 20
-270.0
  9
$LIMMAX
 10
265.6908604697294
 20
141.5
  9
$ORTHOMODE
 70
     0
  9
$REGENMODE
 70
     1
  9
$FILLMODE
 70
     1
  9
$QTEXTMODE
 70
     0
  9
$MIRRTEXT
 70
     1
  9
$DRAGMODE
 70
     2
  9
$LTSCALE
 40
1.0
  9
$OSMODE
 70
     0
  9
$ATTMODE
 70
     1
  9
$TEXTSIZE
 40
3.0
  9
$TRACEWID
 40
0.5
  9
$TEXTSTYLE
  7
STANDARD
  9
$CLAYER
  8
0
  9
$CELTYPE
  6
BYLAYER
  9
$CECOLOR
 62
   256
  9
$DIMSCALE
 40
1.0
  9
$DIMASZ
 40
3.0
  9
$DIMEXO
 40
1.0
  9
$DIMDLI
 40
5.0
  9
$DIMRND
 40
0.0
  9
$DIMDLE
 40
5.0
  9
$DIMEXE
 40
2.0
  9
$DIMTP
 40
0.0
  9
$DIMTM
 40
0.0
  9
$DIMTXT
 40
3.0
  9
$DIMCEN
 40
2.0
  9
$DIMTSZ
 40
0.0
  9
$DIMTOL
 70
     0
  9
$DIMLIM
 70
     0
  9
$DIMTIH
 70
     0
  9
$DIMTOH
 70
     0
  9
$DIMSE1
 70
     0
  9
$DIMSE2
 70
     0
  9
$DIMTAD
 70
     1
  9
$DIMZIN
 70
     8
  9
$DIMBLK
  1

  9
$DIMASO
 70
     1
  9
$DIMSHO
 70
     0
  9
$DIMPOST
  1

  9
$DIMAPOST
  1

  9
$DIMALT
 70
     0
  9
$DIMALTD
 70
     4
  9
$DIMALTF
 40
25.4
  9
$DIMLFAC
 40
1.0
  9
$DIMTOFL
 70
     1
  9
$DIMTVP
 40
1.0
  9
$DIMTIX
 70
     0
  9
$DIMSOXD
 70
     0
  9
$DIMSAH
 70
     0
  9
$DIMBLK1
  1

  9
$DIMBLK2
  1

  9
$LUNITS
 70
     2
  9
$LUPREC
 70
     4
  9
$AXISMODE
 70
     0
  9
$AXISUNIT
 10
0.0
 20
0.0
  9
$SKETCHINC
 40
1.0
  9
$FILLETRAD
 40
0.0
  9
$AUNITS
 70
     0
  9
$AUPREC
 70
     0
  9
$MENU
  1
acad
  9
$ELEVATION
 40
0.0
  9
$THICKNESS
 40
0.0
  9
$LIMCHECK
 70
     0
  9
$BLIPMODE
 70
     1
  9
$CHAMFERA
 40
0.0
  9
$CHAMFERB
 40
0.0
  9
$SKPOLY
 70
     0
  9
$TDCREATE
 40
2455210.766979167
  9
$TDUPDATE
 40
2455210.766979167
  9
$TDINDWG
 40
0.0
  9
$TDUSRTIMER
 40
0.0
  9
$USRTIMER
 70
     1
  9
$ANGBASE
 50
0.0
  9
$ANGDIR
 70
     0
  9
$PDMODE
 70
     0
  9
$PDSIZE
 40
0.0
  9
$PLINEWID
 40
0.0
  9
$COORDS
 70
     0
  9
$SPLFRAME
 70
     0
  9
$SPLINETYPE
 70
     6
  9
$SPLINESEGS
 70
     8
  9
$ATTDIA
 70
     0
  9
$ATTREQ
 70
     1
  9
$HANDLING
 70
     0
  9
$HANDSEED
  5
0
  9
$SURFTAB1
 70
     6
  9
$SURFTAB2
 70
     6
  9
$SURFTYPE
 70
     6
  9
$SURFU
 70
     6
  9
$SURFV
 70
     6
  9
$FLATLAND
 70
     0
  9
$UCSNAME
  2

  9
$UCSORG
 10
0.0
 20
0.0
 30
0.0
  9
$UCSXDIR
 10
1.0
 20
0.0
 30
0.0
  9
$UCSYDIR
 10
0.0
 20
1.0
 30
0.0
  9
$USERI1
 70
     0
  9
$USERI2
 70
     0
  9
$USERI3
 70
     0
  9
$USERI4
 70
     0
  9
$USERI5
 70
     0
  9
$USERR1
 40
0.0
  9
$USERR2
 40
0.0
  9
$USERR3
 40
0.0
  9
$USERR4
 40
0.0
  9
$USERR5
 40
0.0
  9
$WORLDVIEW
 70
     1
  0
ENDSEC
  0
SECTION
  2
TABLES
  0
TABLE
  2
VPORT
 70
     1
  0
VPORT
  2
*ACTIVE
 70
     0
 10
0.0
 20
0.0
 11
1.0
 21
1.0
 12
79.84543023486469
 22
-64.25
 13
0.0
 23
0.0
 14
0.0
 24
0.0
 15
0.0
 25
0.0
 16
0.0
 26
0.0
 36
1.0
 17
0.0
 27
0.0
 37
0.0
 40
411.5
 41
1.5
 42
50.0
 43
0.0
 44
0.0
 50
0.0
 51
0.0
 71
     0
 72
   100
 73
     1
 74
     1
 75
     0
 76
     0
 77
     0
 78
     0
  0
ENDTAB
  0
TABLE
  2
LTYPE
 70
    20
  0
LTYPE
  2
CONTINUOUS
 70
    64
  3
solid line
 72
    65
 73
     0
 40
0.0
  0
ENDTAB
  0
TABLE
  2
LAYER
 70
    20
  0
LAYER
  2
0
 70
    64
 62
     7
  6
CONTINUOUS
  0
LAYER
  2
2
 70
    64
 62
     7
  6
CONTINUOUS
  0
LAYER
  2
3
 70
    64
 62
     7
  6
CONTINUOUS
  0
LAYER
  2
5
 70
    64
 62
     7
  6
CONTINUOUS
  0
LAYER
  2
4
 70
    64
 62
     7
  6
CONTINUOUS
  0
ENDTAB
  0
TABLE
  2
STYLE
 70
     4
  0
ENDTAB
  0
TABLE
  2
VIEW
 70
     0
  0
ENDTAB
  0
TABLE
  2
UCS
 70
     0
  0
ENDTAB
  0
TABLE
  2
DWGMGR
 70
     0
  0
ENDTAB
  0
ENDSEC
  0
SECTION
  2
BLOCKS
  0
BLOCK
  8
2
  2
COMP1
 70
    64
 10
0.0
 20
0.0
  0
LINE
  8
2
  6
CONTINUOUS
 10
22.5
 20
-75.0
 11
22.5
 21
-73.40000152587891
  0
LINE
  8
2
  6
CONTINUOUS
 10
28.89999961853027
 20
-73.40000152587891
 11
29.89999961853027
 21
-73.40000152587891
  0
LINE
  8
2
  6
CONTINUOUS
 10
18.70000076293945
 20
-73.40000152587891
 11
18.70000076293945
 21
-66.59999847412109
  0
LINE
  8
2
  6
CONTINUOUS
 10
32.70000076293945
 20
-73.40000152587891
 11
32.70000076293945
 21
-66.59999847412109
  0
LINE
  8
2
  6
CONTINUOUS
 10
21.5
 20
-73.40000152587891
 11
21.5
 21
-66.59837341308594
  0
LINE
  8
2
  6
CONTINUOUS
 10
29.89999961853027
 20
-71.33960723876953
 11
29.89999961853027
 21
-66.59999847412109
  0
LINE
  8
2
  6
CONTINUOUS
 10
28.89999961853027
 20
-65.0
 11
33.70000076293945
 21
-65.0
  0
LINE
  8
2
  6
CONTINUOUS
 10
17.70000076293945
 20
-66.59999847412109
 11
18.70000076293945
 21
-66.59999847412109
  0
LINE
  8
2
  6
CONTINUOUS
 10
28.89999961853027
 20
-75.0
 11
33.70000076293945
 21
-75.0
  0
LINE
  8
2
  6
CONTINUOUS
 10
17.70000076293945
 20
-75.0
 11
22.5
 21
-75.0
  0
LINE
  8
2
  6
CONTINUOUS
 10
17.70000076293945
 20
-65.0
 11
22.06844711303711
 21
-65.0
  0
LINE
  8
2
  6
CONTINUOUS
 10
22.06844711303711
 20
-65.0
 11
29.89999961853027
 21
-71.33960723876953
  0
LINE
  8
2
  6
CONTINUOUS
 10
21.5
 20
-66.59837341308594
 11
29.90231323242187
 21
-73.40000152587891
  0
LINE
  8
2
  6
CONTINUOUS
 10
28.89999961853027
 20
-75.0
 11
28.89999961853027
 21
-73.40000152587891
  0
LINE
  8
2
  6
CONTINUOUS
 10
28.89999961853027
 20
-66.59999847412109
 11
28.89999961853027
 21
-65.0
  0
LINE
  8
2
  6
CONTINUOUS
 10
33.70000076293945
 20
-75.0
 11
33.70000076293945
 21
-73.40000152587891
  0
LINE
  8
2
  6
CONTINUOUS
 10
33.70000076293945
 20
-66.59999847412109
 11
33.70000076293945
 21
-65.0
  0
LINE
  8
2
  6
CONTINUOUS
 10
17.70000076293945
 20
-75.0
 11
17.70000076293945
 21
-73.40000152587891
  0
LINE
  8
2
  6
CONTINUOUS
 10
17.70000076293945
 20
-66.59999847412109
 11
17.70000076293945
 21
-65.0
  0
LINE
  8
2
  6
CONTINUOUS
 10
33.70000076293945
 20
-73.40000152587891
 11
32.70000076293945
 21
-73.40000152587891
  0
LINE
  8
2
  6
CONTINUOUS
 10
34.5
 20
-75.0
 11
34.5
 21
-73.40000152587891
  0
LINE
  8
2
  6
CONTINUOUS
 10
34.5
 20
-66.59999847412109
 11
34.5
 21
-65.0
  0
LINE
  8
2
  6
CONTINUOUS
 10
39.29999923706055
 20
-75.0
 11
39.29999923706055
 21
-73.40000152587891
  0
LINE
  8
2
  6
CONTINUOUS
 10
51.29999923706055
 20
-75.0
 11
51.29999923706055
 21
-73.40000152587891
  0
LINE
  8
2
  6
CONTINUOUS
 10
51.29999923706055
 20
-66.59999847412109
 11
51.29999923706055
 21
-65.0
  0
LINE
  8
2
  6
CONTINUOUS
 10
35.5
 20
-73.40000152587891
 11
35.5
 21
-66.59999847412109
  0
LINE
  8
2
  6
CONTINUOUS
 10
38.29999923706055
 20
-73.40000152587891
 11
38.29999923706055
 21
-66.59988403320313
  0
LINE
  8
2
  6
CONTINUOUS
 10
50.29999923706055
 20
-73.40000152587891
 11
50.29999923706055
 21
-66.59999847412109
  0
LINE
  8
2
  6
CONTINUOUS
 10
46.5
 20
-75.0
 11
46.5
 21
-73.40000152587891
  0
LINE
  8
2
  6
CONTINUOUS
 10
47.5
 20
-73.40000152587891
 11
47.5
 21
-66.59988403320313
  0
LINE
  8
2
  6
CONTINUOUS
 10
34.5
 20
-73.40000152587891
 11
35.5
 21
-73.40000152587891
  0
LINE
  8
2
  6
CONTINUOUS
 10
38.29999923706055
 20
-73.40000152587891
 11
39.29999923706055
 21
-73.40000152587891
  0
LINE
  8
2
  6
CONTINUOUS
 10
46.5
 20
-73.40000152587891
 11
47.5
 21
-73.40000152587891
  0
LINE
  8
2
  6
CONTINUOUS
 10
50.29999923706055
 20
-73.40000152587891
 11
51.29999923706055
 21
-73.40000152587891
  0
LINE
  8
2
  6
CONTINUOUS
 10
51.29999923706055
 20
-66.59999847412109
 11
50.29999923706055
 21
-66.59999847412109
  0
LINE
  8
2
  6
CONTINUOUS
 10
35.5
 20
-66.59999847412109
 11
34.5
 21
-66.59999847412109
  0
LINE
  8
2
  6
CONTINUOUS
 10
39.24800109863281
 20
-65.0
 11
42.90000152587891
 21
-71.66775512695313
  0
LINE
  8
2
  6
CONTINUOUS
 10
42.90000152587891
 20
-71.66775512695313
 11
46.552001953125
 21
-65.0
  0
LINE
  8
2
  6
CONTINUOUS
 10
42.90000152587891
 20
-74.99847412109375
 11
47.5
 21
-66.59988403320313
  0
LINE
  8
2
  6
CONTINUOUS
 10
38.29999923706055
 20
-66.59988403320313
 11
42.90000152587891
 21
-74.99847412109375
  0
LINE
  8
2
  6
CONTINUOUS
 10
34.5
 20
-65.0
 11
39.24800109863281
 21
-65.0
  0
LINE
  8
2
  6
CONTINUOUS
 10
46.552001953125
 20
-65.0
 11
51.29999923706055
 21
-65.0
  0
LINE
  8
2
  6
CONTINUOUS
 10
34.5
 20
-75.0
 11
39.29999923706055
 21
-75.0
  0
LINE
  8
2
  6
CONTINUOUS
 10
46.5
 20
-75.0
 11
51.29999923706055
 21
-75.0
  0
LINE
  8
2
  6
CONTINUOUS
 10
52.09999847412109
 20
-75.0
 11
52.09999847412109
 21
-73.40000152587891
  0
LINE
  8
2
  6
CONTINUOUS
 10
52.09999847412109
 20
-66.59999847412109
 11
52.09999847412109
 21
-65.0
  0
LINE
  8
2
  6
CONTINUOUS
 10
52.09999847412109
 20
-65.0
 11
64.40000152587891
 21
-65.0
  0
LINE
  8
2
  6
CONTINUOUS
 10
52.09999847412109
 20
-75.0
 11
64.40000152587891
 21
-75.0
  0
LINE
  8
2
  6
CONTINUOUS
 10
53.09999847412109
 20
-73.40000152587891
 11
53.09999847412109
 21
-66.59999847412109
  0
LINE
  8
2
  6
CONTINUOUS
 10
52.09999847412109
 20
-66.59999847412109
 11
53.09999847412109
 21
-66.59999847412109
  0
LINE
  8
2
  6
CONTINUOUS
 10
52.09999847412109
 20
-73.40000152587891
 11
53.09999847412109
 21
-73.40000152587891
  0
LINE
  8
2
  6
CONTINUOUS
 10
55.90000152587891
 20
-66.59999847412109
 11
63.20000076293945
 21
-66.59999847412109
  0
LINE
  8
2
  6
CONTINUOUS
 10
55.90000152587891
 20
-69.19999694824219
 11
63.20000076293945
 21
-69.19999694824219
  0
LINE
  8
2
  6
CONTINUOUS
 10
55.90000152587891
 20
-70.80000305175781
 11
63.19921112060547
 21
-70.80000305175781
  0
LINE
  8
2
  6
CONTINUOUS
 10
55.90000152587891
 20
-73.40000152587891
 11
63.20000076293945
 21
-73.40000152587891
  0
LINE
  8
2
  6
CONTINUOUS
 10
55.90000152587891
 20
-73.40000152587891
 11
55.90000152587891
 21
-70.80000305175781
  0
LINE
  8
2
  6
CONTINUOUS
 10
55.90000152587891
 20
-69.19999694824219
 11
55.90000152587891
 21
-66.59999847412109
  0
ARC
  8
2
  6
CONTINUOUS
 10
64.40000152587892
 20
-67.90000152587891
 40
2.900000095367425
 50
313.6028397637749
 51
90.0
  0
ARC
  8
2
  6
CONTINUOUS
 10
64.40000152587892
 20
-72.09999847412109
 40
2.900000095367432
 50
270.0
 51
46.39716023622516
  0
ARC
  8
2
  6
CONTINUOUS
 10
63.20000076293945
 20
-67.90000152587891
 40
1.299999952316284
 50
270.0
 51
90.0
  0
ARC
  8
2
  6
CONTINUOUS
 10
63.20000076293944
 20
-72.09999847412109
 40
1.300000071525574
 50
270.0
 51
90.03480255908512
  0
LINE
  8
2
  6
CONTINUOUS
 10
28.89999961853027
 20
-66.59999847412109
 11
29.89999961853027
 21
-66.59999847412109
  0
LINE
  8
2
  6
CONTINUOUS
 10
32.70000076293945
 20
-66.59999847412109
 11
33.70000076293945
 21
-66.59999847412109
  0
LINE
  8
2
  6
CONTINUOUS
 10
17.70000076293945
 20
-73.40000152587891
 11
18.70000076293945
 21
-73.40000152587891
  0
LINE
  8
2
  6
CONTINUOUS
 10
21.5
 20
-73.40000152587891
 11
22.5
 21
-73.40000152587891
  0
POLYLINE
  8
2
  6
CONTINUOUS
 66
     1
 70
     0
 40
0.0
 41
0.0
  0
VERTEX
  8
2
 10
32.70000076293945
 20
-73.40000152587891
  0
VERTEX
  8
2
 10
32.70000076293945
 20
-66.59999847412109
  0
VERTEX
  8
2
 10
33.70000076293945
 20
-66.59999847412109
  0
VERTEX
  8
2
 10
33.70000076293945
 20
-65.0
  0
VERTEX
  8
2
 10
28.89999961853027
 20
-65.0
  0
VERTEX
  8
2
 10
28.89999961853027
 20
-66.59999847412109
  0
VERTEX
  8
2
 10
29.89999961853027
 20
-66.59999847412109
  0
VERTEX
  8
2
 10
29.89999961853027
 20
-71.33960723876953
  0
VERTEX
  8
2
 10
22.06844711303711
 20
-65.0
  0
VERTEX
  8
2
 10
17.70000076293945
 20
-65.0
  0
VERTEX
  8
2
 10
17.70000076293945
 20
-66.59999847412109
  0
VERTEX
  8
2
 10
18.70000076293945
 20
-66.59999847412109
  0
VERTEX
  8
2
 10
18.70000076293945
 20
-73.40000152587891
  0
VERTEX
  8
2
 10
17.70000076293945
 20
-73.40000152587891
  0
VERTEX
  8
2
 10
17.70000076293945
 20
-75.0
  0
VERTEX
  8
2
 10
22.5
 20
-75.0
  0
VERTEX
  8
2
 10
22.5
 20
-73.40000152587891
  0
VERTEX
  8
2
 10
21.5
 20
-73.40000152587891
  0
VERTEX
  8
2
 10
21.5
 20
-66.59837341308594
  0
VERTEX
  8
2
 10
29.90231323242187
 20
-73.40000152587891
  0
VERTEX
  8
2
 10
28.89999961853027
 20
-73.40000152587891
  0
VERTEX
  8
2
 10
28.89999961853027
 20
-75.0
  0
VERTEX
  8
2
 10
33.70000076293945
 20
-75.0
  0
VERTEX
  8
2
 10
33.70000076293945
 20
-73.40000152587891
  0
VERTEX
  8
2
 10
32.70000076293945
 20
-73.40000152587891
  0
SEQEND
  8
2
  0
POLYLINE
  8
2
  6
CONTINUOUS
 66
     1
 70
     0
 40
0.0
 41
0.0
  0
VERTEX
  8
2
 10
46.5
 20
-75.0
  0
VERTEX
  8
2
 10
51.29999923706055
 20
-75.0
  0
VERTEX
  8
2
 10
51.29999923706055
 20
-73.40000152587891
  0
VERTEX
  8
2
 10
50.29999923706055
 20
-73.40000152587891
  0
VERTEX
  8
2
 10
50.29999923706055
 20
-66.59999847412109
  0
VERTEX
  8
2
 10
51.29999923706055
 20
-66.59999847412109
  0
VERTEX
  8
2
 10
51.29999923706055
 20
-65.0
  0
VERTEX
  8
2
 10
46.552001953125
 20
-65.0
  0
VERTEX
  8
2
 10
42.90000152587891
 20
-71.66775512695313
  0
VERTEX
  8
2
 10
39.24800109863281
 20
-65.0
  0
VERTEX
  8
2
 10
34.5
 20
-65.0
  0
VERTEX
  8
2
 10
34.5
 20
-66.59999847412109
  0
VERTEX
  8
2
 10
35.5
 20
-66.59999847412109
  0
VERTEX
  8
2
 10
35.5
 20
-73.40000152587891
  0
VERTEX
  8
2
 10
34.5
 20
-73.40000152587891
  0
VERTEX
  8
2
 10
34.5
 20
-75.0
  0
VERTEX
  8
2
 10
39.29999923706055
 20
-75.0
  0
VERTEX
  8
2
 10
39.29999923706055
 20
-73.40000152587891
  0
VERTEX
  8
2
 10
38.29999923706055
 20
-73.40000152587891
  0
VERTEX
  8
2
 10
38.29999923706055
 20
-66.59988403320313
  0
VERTEX
  8
2
 10
42.90000152587891
 20
-74.99847412109375
  0
VERTEX
  8
2
 10
47.5
 20
-66.59988403320313
  0
VERTEX
  8
2
 10
47.5
 20
-73.40000152587891
  0
VERTEX
  8
2
 10
46.5
 20
-73.40000152587891
  0
VERTEX
  8
2
 10
46.5
 20
-75.0
  0
SEQEND
  8
2
  0
POLYLINE
  8
2
  6
CONTINUOUS
 66
     1
 70
     0
 40
0.0
 41
0.0
  0
VERTEX
  8
2
 10
64.40000152587891
 20
-75.0
  0
VERTEX
  8
2
 10
52.09999847412109
 20
-75.0
  0
VERTEX
  8
2
 10
52.09999847412109
 20
-73.40000152587891
  0
VERTEX
  8
2
 10
53.09999847412109
 20
-73.40000152587891
  0
VERTEX
  8
2
 10
53.09999847412109
 20
-66.59999847412109
  0
VERTEX
  8
2
 10
52.09999847412109
 20
-66.59999847412109
  0
VERTEX
  8
2
 10
52.09999847412109
 20
-65.0
  0
VERTEX
  8
2
 10
64.40000152587891
 20
-65.0
 42
-0.6770324707031249
  0
VERTEX
  8
2
 10
66.40000152587891
 20
-70.0
  0
SEQEND
  8
2
  0
POLYLINE
  8
2
  6
CONTINUOUS
 66
     1
 70
     0
 40
0.0
 41
0.0
  0
VERTEX
  8
2
 10
63.20000076293945
 20
-73.40000152587891
  0
VERTEX
  8
2
 10
55.90000152587891
 20
-73.40000152587891
  0
VERTEX
  8
2
 10
55.90000152587891
 20
-70.80000305175781
  0
SEQEND
  8
2
  0
POLYLINE
  8
2
  6
CONTINUOUS
 66
     1
 70
     0
 40
0.0
 41
0.0
  0
VERTEX
  8
2
 10
55.90000152587891
 20
-69.19999694824219
  0
VERTEX
  8
2
 10
63.20079040527344
 20
-69.19999694824219
 42
0.414212702390379
  0
VERTEX
  8
2
 10
64.49999618761565
 20
-67.89921570054671
 42
0.4142161391920509
  0
VERTEX
  8
2
 10
63.19921112292398
 20
-66.60000229112846
  0
VERTEX
  8
2
 10
55.90000152587891
 20
-66.59999847412109
  0
VERTEX
  8
2
 10
55.90000152587891
 20
-69.19999694824219
  0
SEQEND
  8
2
  0
POLYLINE
  8
2
  6
CONTINUOUS
 66
     1
 70
     0
 40
0.0
 41
0.0
  0
VERTEX
  8
2
 10
55.90000152587891
 20
-73.40000152587891
  0
VERTEX
  8
2
 10
63.20000076293945
 20
-73.40000152587891
 42
0.4143218586315035
  0
VERTEX
  8
2
 10
64.50000372584073
 20
-72.09951782088807
 42
0.41432104038302
  0
VERTEX
  8
2
 10
63.19903564189922
 20
-70.79999950645782
  0
VERTEX
  8
2
 10
55.90000152587891
 20
-70.80000305175781
  0
VERTEX
  8
2
 10
55.90000152587891
 20
-73.40000152587891
  0
SEQEND
  8
2
  0
POLYLINE
  8
2
  6
CONTINUOUS
 66
     1
 70
     0
 40
0.0
 41
0.0
  0
VERTEX
  8
2
 10
29.90231323242187
 20
-73.40000152587891
  0
VERTEX
  8
2
 10
28.89999961853027
 20
-73.40000152587891
  0
VERTEX
  8
2
 10
28.89999961853027
 20
-75.0
  0
VERTEX
  8
2
 10
33.70000076293945
 20
-75.0
  0
VERTEX
  8
2
 10
33.70000076293945
 20
-73.40000152587891
  0
VERTEX
  8
2
 10
32.70000076293945
 20
-73.40000152587891
  0
VERTEX
  8
2
 10
32.70000076293945
 20
-66.59999847412109
  0
VERTEX
  8
2
 10
33.70000076293945
 20
-66.59999847412109
  0
VERTEX
  8
2
 10
33.70000076293945
 20
-65.0
  0
VERTEX
  8
2
 10
28.89999961853027
 20
-65.0
  0
VERTEX
  8
2
 10
28.89999961853027
 20
-66.59999847412109
  0
VERTEX
  8
2
 10
29.89999961853027
 20
-66.59999847412109
  0
VERTEX
  8
2
 10
29.89999961853027
 20
-71.33960723876953
  0
VERTEX
  8
2
 10
22.06844711303711
 20
-65.0
  0
VERTEX
  8
2
 10
17.70000076293945
 20
-65.0
  0
VERTEX
  8
2
 10
17.70000076293945
 20
-66.59999847412109
  0
VERTEX
  8
2
 10
18.70000076293945
 20
-66.59999847412109
  0
VERTEX
  8
2
 10
18.70000076293945
 20
-73.40000152587891
  0
VERTEX
  8
2
 10
17.70000076293945
 20
-73.40000152587891
  0
VERTEX
  8
2
 10
17.70000076293945
 20
-75.0
  0
VERTEX
  8
2
 10
22.5
 20
-75.0
  0
VERTEX
  8
2
 10
22.5
 20
-73.40000152587891
  0
VERTEX
  8
2
 10
21.5
 20
-73.40000152587891
  0
VERTEX
  8
2
 10
21.5
 20
-66.59837341308594
  0
VERTEX
  8
2
 10
29.90231323242187
 20
-73.40000152587891
  0
SEQEND
  8
2
  0
POLYLINE
  8
2
  6
CONTINUOUS
 66
     1
 70
     0
 40
0.0
 41
0.0
  0
VERTEX
  8
2
 10
47.5
 20
-73.40000152587891
  0
VERTEX
  8
2
 10
47.5
 20
-66.59988403320313
  0
VERTEX
  8
2
 10
42.90000152587891
 20
-74.99847412109375
  0
VERTEX
  8
2
 10
38.29999923706055
 20
-66.59988403320313
  0
VERTEX
  8
2
 10
38.29999923706055
 20
-73.40000152587891
  0
VERTEX
  8
2
 10
39.29999923706055
 20
-73.40000152587891
  0
VERTEX
  8
2
 10
39.29999923706055
 20
-75.0
  0
VERTEX
  8
2
 10
34.5
 20
-75.0
  0
VERTEX
  8
2
 10
34.5
 20
-73.40000152587891
  0
VERTEX
  8
2
 10
35.5
 20
-73.40000152587891
  0
VERTEX
  8
2
 10
35.5
 20
-66.59999847412109
  0
VERTEX
  8
2
 10
34.5
 20
-66.59999847412109
  0
VERTEX
  8
2
 10
34.5
 20
-65.0
  0
VERTEX
  8
2
 10
39.24800109863281
 20
-65.0
  0
VERTEX
  8
2
 10
42.90000152587891
 20
-71.66775512695313
  0
VERTEX
  8
2
 10
46.552001953125
 20
-65.0
  0
VERTEX
  8
2
 10
51.29999923706055
 20
-65.0
  0
VERTEX
  8
2
 10
51.29999923706055
 20
-66.59999847412109
  0
VERTEX
  8
2
 10
50.29999923706055
 20
-66.59999847412109
  0
VERTEX
  8
2
 10
50.29999923706055
 20
-73.40000152587891
  0
VERTEX
  8
2
 10
51.29999923706055
 20
-73.40000152587891
  0
VERTEX
  8
2
 10
51.29999923706055
 20
-75.0
  0
VERTEX
  8
2
 10
46.5
 20
-75.0
  0
VERTEX
  8
2
 10
46.5
 20
-73.40000152587891
  0
VERTEX
  8
2
 10
47.5
 20
-73.40000152587891
  0
SEQEND
  8
2
  0
POLYLINE
  8
2
  6
CONTINUOUS
 66
     1
 70
     0
 40
0.0
 41
0.0
  0
VERTEX
  8
2
 10
55.90000152587891
 20
-66.59999847412109
  0
VERTEX
  8
2
 10
55.90000152587891
 20
-69.19999694824219
  0
VERTEX
  8
2
 10
63.20079040527344
 20
-69.19999694824219
  0
VERTEX
  8
2
 10
63.20000076293945
 20
-69.19999694824219
  0
VERTEX
  8
2
 10
55.90000152587891
 20
-69.19999694824219
  0
VERTEX
  8
2
 10
55.90000152587891
 20
-66.59999847412109
  0
SEQEND
  8
2
  0
POLYLINE
  8
2
  6
CONTINUOUS
 66
     1
 70
     0
 40
0.0
 41
0.0
  0
VERTEX
  8
2
 10
63.20000076293945
 20
-69.19999694824219
  0
VERTEX
  8
2
 10
55.90000152587891
 20
-69.19999694824219
  0
VERTEX
  8
2
 10
55.90000152587891
 20
-66.59999847412109
  0
VERTEX
  8
2
 10
63.20000076293945
 20
-66.59999847412109
  0
VERTEX
  8
2
 10
63.19921112060547
 20
-66.59999847412109
  0
VERTEX
  8
2
 10
55.90000152587891
 20
-66.59999847412109
  0
VERTEX
  8
2
 10
55.90000152587891
 20
-69.19999694824219
  0
VERTEX
  8
2
 10
63.20000076293945
 20
-69.19999694824219
  0
SEQEND
  8
2
  0
POLYLINE
  8
2
  6
CONTINUOUS
 66
     1
 70
     0
 40
0.0
 41
0.0
  0
VERTEX
  8
2
 10
55.90000152587891
 20
-70.80000305175781
  0
VERTEX
  8
2
 10
63.19921112060547
 20
-70.80000305175781
  0
VERTEX
  8
2
 10
55.90000152587891
 20
-70.80000305175781
  0
SEQEND
  8
2
  0
POLYLINE
  8
2
  6
CONTINUOUS
 66
     1
 70
     0
 40
0.0
 41
0.0
  0
VERTEX
  8
2
 10
17.70000076293945
 20
-73.40000152587891
  0
VERTEX
  8
2
 10
17.70000076293945
 20
-75.0
  0
VERTEX
  8
2
 10
22.5
 20
-75.0
  0
VERTEX
  8
2
 10
22.5
 20
-73.40000152587891
  0
VERTEX
  8
2
 10
21.5
 20
-73.40000152587891
  0
VERTEX
  8
2
 10
21.5
 20
-66.59837341308594
  0
VERTEX
  8
2
 10
29.90231323242187
 20
-73.40000152587891
  0
VERTEX
  8
2
 10
28.89999961853027
 20
-73.40000152587891
  0
VERTEX
  8
2
 10
28.89999961853027
 20
-75.0
  0
VERTEX
  8
2
 10
33.70000076293945
 20
-75.0
  0
VERTEX
  8
2
 10
33.70000076293945
 20
-73.40000152587891
  0
VERTEX
  8
2
 10
32.70000076293945
 20
-73.40000152587891
  0
VERTEX
  8
2
 10
32.70000076293945
 20
-66.59999847412109
  0
VERTEX
  8
2
 10
33.70000076293945
 20
-66.59999847412109
  0
VERTEX
  8
2
 10
33.70000076293945
 20
-65.0
  0
VERTEX
  8
2
 10
28.89999961853027
 20
-65.0
  0
VERTEX
  8
2
 10
28.89999961853027
 20
-66.59999847412109
  0
VERTEX
  8
2
 10
29.89999961853027
 20
-66.59999847412109
  0
VERTEX
  8
2
 10
29.89999961853027
 20
-71.33960723876953
  0
VERTEX
  8
2
 10
22.06844711303711
 20
-65.0
  0
VERTEX
  8
2
 10
17.70000076293945
 20
-65.0
  0
VERTEX
  8
2
 10
17.70000076293945
 20
-66.59999847412109
  0
VERTEX
  8
2
 10
18.70000076293945
 20
-66.59999847412109
  0
VERTEX
  8
2
 10
18.70000076293945
 20
-73.40000152587891
  0
VERTEX
  8
2
 10
17.70000076293945
 20
-73.40000152587891
  0
SEQEND
  8
2
  0
ENDBLK
  8
2
  0
ENDSEC
  0
SECTION
  2
ENTITIES
  0
ARC
  8
2
  6
CONTINUOUS
 10
85.0
 20
-85.0
 40
5.0
 50
270.0
 51
0.0
  0
LINE
  8
2
  6
CONTINUOUS
 10
90.0
 20
-85.0
 11
90.0
 21
85.0
  0
ARC
  8
2
  6
CONTINUOUS
 10
85.0
 20
85.0
 40
5.0
 50
0.0
 51
90.0
  0
LINE
  8
2
  6
CONTINUOUS
 10
-85.0
 20
90.0
 11
85.0
 21
90.0
  0
ARC
  8
2
  6
CONTINUOUS
 10
-85.0
 20
85.0
 40
5.0
 50
90.0
 51
180.0
  0
LINE
  8
2
  6
CONTINUOUS
 10
-90.0
 20
-85.0
 11
-90.0
 21
85.0
  0
LINE
  8
2
  6
CONTINUOUS
 10
-85.0
 20
-90.0
 11
85.0
 21
-90.0
  0
ARC
  8
2
  6
CONTINUOUS
 10
-85.0
 20
-85.0
 40
5.0
 50
180.0
 51
270.0
  0
CIRCLE
  8
2
  6
CONTINUOUS
 10
-96.0
 20
0.0
 40
4.0
  0
CIRCLE
  8
2
  6
CONTINUOUS
 10
96.0
 20
0.0
 40
4.0
  0
ARC
  8
2
  6
CONTINUOUS
 10
96.0
 20
0.0
 40
10.0
 50
270.0
 51
90.0
  0
ARC
  8
2
  6
CONTINUOUS
 10
-96.0
 20
0.0
 40
10.0
 50
90.0
 51
270.0
  0
LINE
  8
2
  6
CONTINUOUS
 10
90.0
 20
-10.0
 11
96.0
 21
-10.0
  0
LINE
  8
2
  6
CONTINUOUS
 10
90.0
 20
10.0
 11
96.0
 21
10.0
  0
LINE
  8
2
  6
CONTINUOUS
 10
-96.0
 20
-10.0
 11
-90.0
 21
-10.0
  0
LINE
  8
2
  6
CONTINUOUS
 10
-96.0
 20
10.0
 11
-90.0
 21
10.0
  0
LINE
  8
2
  6
CONTINUOUS
 10
-37.0
 20
96.5
 11
-34.98889300106974
 21
95.33888683279848
  0
LINE
  8
2
  6
CONTINUOUS
 10
-63.00000000000001
 20
96.5
 11
-37.0
 21
96.5
  0
LINE
  8
2
  6
CONTINUOUS
 10
-65.01110699893027
 20
95.33888683279848
 11
-63.00000000000001
 21
96.5
  0
ARC
  8
2
  6
CONTINUOUS
 10
-49.99999999999999
 20
71.66111316720132
 40
24.83888683279868
 50
72.4120462260064
 51
107.5879537739936
  0
LINE
  8
2
  6
CONTINUOUS
 10
-42.49444650053486
 20
95.33888683279848
 11
-42.49444650053486
 21
91.5
  0
LINE
  8
2
  6
CONTINUOUS
 10
-57.50555349946513
 20
95.33888683279848
 11
-57.50555349946513
 21
91.5
  0
ARC
  8
2
  6
CONTINUOUS
 10
-38.74166975080232
 20
89.85486085409976
 40
6.645139145900245
 50
64.38424746804193
 51
124.3842474680417
  0
ARC
  8
2
  6
CONTINUOUS
 10
-61.25833024919768
 20
89.8548608540998
 40
6.645139145900202
 50
55.61575253195825
 51
115.6157525319585
  0
LINE
  8
2
  6
CONTINUOUS
 10
-65.01110699893027
 20
91.5
 11
-34.98889300106974
 21
91.5
  0
LINE
  8
2
  6
CONTINUOUS
 10
-34.98889300106974
 20
95.33888683279848
 11
-34.98889300106974
 21
90.0
  0
LINE
  8
2
  6
CONTINUOUS
 10
-65.01110699893027
 20
95.33888683279848
 11
-65.01110699893027
 21
90.0
  0
LINE
  8
2
  6
CONTINUOUS
 10
-63.0
 20
100.5
 11
-37.0
 21
100.5
  0
LINE
  8
2
  6
CONTINUOUS
 10
-39.0
 20
99.31199999999998
 11
-39.0
 21
100.5
  0
LINE
  8
2
  6
CONTINUOUS
 10
-39.81199999999998
 20
98.5
 11
-39.0
 21
99.312
  0
LINE
  8
2
  6
CONTINUOUS
 10
-60.18800000000001
 20
98.5
 11
-39.81199999999998
 21
98.5
  0
LINE
  8
2
  6
CONTINUOUS
 10
-61.0
 20
99.312
 11
-60.18800000000001
 21
98.5
  0
LINE
  8
2
  6
CONTINUOUS
 10
-61.0
 20
99.312
 11
-61.0
 21
100.5
  0
LINE
  8
2
  6
CONTINUOUS
 10
-39.0
 20
99.312
 11
-61.0
 21
99.312
  0
LINE
  8
2
  6
CONTINUOUS
 10
-39.812
 20
96.5
 11
-39.812
 21
98.5
  0
LINE
  8
2
  6
CONTINUOUS
 10
-60.188
 20
96.5
 11
-60.188
 21
98.5
  0
LINE
  8
2
  6
CONTINUOUS
 10
-39.812
 20
98.5
 11
-39.812
 21
100.5
  0
LINE
  8
2
  6
CONTINUOUS
 10
-60.188
 20
98.5
 11
-60.188
 21
100.5
  0
LINE
  8
3
  6
CONTINUOUS
 10
-50.0
 20
84.0
 11
-50.0
 21
141.5
  0
LINE
  8
3
  6
CONTINUOUS
 10
-105.0
 20
0.0
 11
-87.0
 21
0.0
  0
LINE
  8
3
  6
CONTINUOUS
 10
-96.0
 20
-9.0
 11
-96.0
 21
9.0
  0
LINE
  8
3
  6
CONTINUOUS
 10
87.0
 20
0.0
 11
105.0
 21
0.0
  0
LINE
  8
3
  6
CONTINUOUS
 10
96.0
 20
-9.0
 11
96.0
 21
9.0
  0
INSERT
  8
2
  6
CONTINUOUS
  2
COMP1
 10
0.0
 20
0.0
 41
1.0
 42
1.0
 50
0.0
  0
LINE
  8
2
  6
CONTINUOUS
 10
-90.0
 20
-205.0
 11
90.0
 21
-205.0
  0
LINE
  8
2
  6
CONTINUOUS
 10
-90.0
 20
-213.0
 11
-90.0
 21
-200.0
  0
LINE
  8
2
  6
CONTINUOUS
 10
90.0
 20
-213.0
 11
90.0
 21
-200.0
  0
CIRCLE
  8
2
  6
CONTINUOUS
 10
-50.0
 20
-230.0
 40
15.01110699893027
  0
ARC
  8
2
  6
CONTINUOUS
 10
-50.0
 20
-230.0
 40
16.0
 50
180.0
 51
0.0
  0
LINE
  8
2
  6
CONTINUOUS
 10
-34.0
 20
-213.0
 11
-34.0
 21
-230.0
  0
LINE
  8
2
  6
CONTINUOUS
 10
-66.0
 20
-213.0
 11
-66.0
 21
-230.0
  0
LINE
  8
2
  6
CONTINUOUS
 10
-90.0
 20
-213.0
 11
-66.0
 21
-213.0
  0
LINE
  8
2
  6
CONTINUOUS
 10
-34.0
 20
-213.0
 11
34.0
 21
-213.0
  0
ARC
  8
2
  6
CONTINUOUS
 10
83.0
 20
-216.0
 40
3.0
 50
90.0
 51
180.0
  0
ARC
  8
2
  6
CONTINUOUS
 10
-83.00000000000001
 20
-216.0
 40
3.000000000000014
 50
0.0
 51
90.0
  0
LINE
  8
2
  6
CONTINUOUS
 10
80.0
 20
-261.0
 11
80.0
 21
-216.0
  0
ARC
  8
2
  6
CONTINUOUS
 10
77.00000000000004
 20
-261.0000000000001
 40
2.999999999999943
 50
270.0
 51
1.085629331272901E-012
  0
LINE
  8
2
  6
CONTINUOUS
 10
-77.0
 20
-264.0
 11
77.0
 21
-264.0
  0
LINE
  8
2
  6
CONTINUOUS
 10
-80.0
 20
-261.0
 11
-80.0
 21
-216.0
  0
ARC
  8
2
  6
CONTINUOUS
 10
-77.00000000000004
 20
-261.0000000000001
 40
2.999999999999957
 50
179.9999999999989
 51
270.0
  0
CIRCLE
  8
2
  6
CONTINUOUS
 10
-50.0
 20
-230.0
 40
5.5
  0
ARC
  8
2
  6
CONTINUOUS
 10
105.0
 20
-264.0
 40
1.0
 50
270.0
 51
0.0
  0
LINE
  8
2
  6
CONTINUOUS
 10
52.0
 20
-265.0
 11
105.0
 21
-265.0
  0
ARC
  8
2
  6
CONTINUOUS
 10
51.99999999999999
 20
-264.0
 40
0.9999999999999858
 50
180.0
 51
270.0
  0
ARC
  8
2
  6
CONTINUOUS
 10
85.0
 20
-252.0
 40
5.0
 50
179.9999999999997
 51
270.0
  0
LINE
  8
2
  6
CONTINUOUS
 10
106.0
 20
-264.0
 11
106.0
 21
-257.0
  0
LINE
  8
2
  6
CONTINUOUS
 10
85.0
 20
-257.0
 11
106.0
 21
-257.0
  0
ARC
  8
2
  6
CONTINUOUS
 10
-105.0
 20
-264.0
 40
0.9999999999999858
 50
180.0
 51
270.0
  0
LINE
  8
2
  6
CONTINUOUS
 10
-52.0
 20
-265.0
 11
-105.0
 21
-265.0
  0
ARC
  8
2
  6
CONTINUOUS
 10
-85.0
 20
-252.0
 40
4.999999999999972
 50
270.0
 51
3.256887993818660E-013
  0
LINE
  8
2
  6
CONTINUOUS
 10
-106.0
 20
-264.0
 11
-106.0
 21
-257.0
  0
LINE
  8
2
  6
CONTINUOUS
 10
-85.0
 20
-257.0
 11
-106.0
 21
-257.0
  0
ARC
  8
2
  6
CONTINUOUS
 10
-51.99999999999999
 20
-264.0
 40
1.0
 50
270.0
 51
0.0
  0
LINE
  8
2
  6
CONTINUOUS
 10
-90.0
 20
-200.0
 11
90.0
 21
-200.0
  0
LINE
  8
3
  6
CONTINUOUS
 10
-71.01110699893027
 20
-230.0
 11
-28.98889300106973
 21
-230.0
  0
LINE
  8
3
  6
CONTINUOUS
 10
-50.0
 20
-251.0111069989303
 11
-50.0
 21
-208.9888930010697
  0
LINE
  8
3
  6
CONTINUOUS
 10
0.0
 20
-270.0
 11
0.0
 21
-194.0
  0
LINE
  8
2
  6
CONTINUOUS
 10
-37.0
 20
100.5
 11
-37.0
 21
102.5
  0
LINE
  8
2
  6
CONTINUOUS
 10
-63.0
 20
100.5
 11
-63.0
 21
102.5
  0
LINE
  8
2
  6
CONTINUOUS
 10
-37.0
 20
114.5
 11
-63.0
 21
114.5
  0
LINE
  8
2
  6
CONTINUOUS
 10
-64.5
 20
113.6339745962156
 11
-63.0
 21
114.5
  0
LINE
  8
2
  6
CONTINUOUS
 10
-64.5
 20
103.3660254037844
 11
-64.5
 21
113.6339745962156
  0
LINE
  8
2
  6
CONTINUOUS
 10
-63.0
 20
102.5
 11
-64.5
 21
103.3660254037844
  0
LINE
  8
2
  6
CONTINUOUS
 10
-37.0
 20
102.5
 11
-63.0
 21
102.5
  0
LINE
  8
2
  6
CONTINUOUS
 10
-35.5
 20
113.6339745962156
 11
-37.0
 21
114.5
  0
LINE
  8
2
  6
CONTINUOUS
 10
-35.5
 20
103.3660254037844
 11
-35.5
 21
113.6339745962156
  0
LINE
  8
2
  6
CONTINUOUS
 10
-37.0
 20
102.5
 11
-35.5
 21
103.3660254037844
  0
ARC
  8
2
  6
CONTINUOUS
 10
-38.72648894773429
 20
108.0567707227168
 40
6.443247160898038
 50
59.95002966624148
 51
120.0499703337585
  0
ARC
  8
2
  6
CONTINUOUS
 10
-38.72648894773429
 20
108.9432292772832
 40
6.443247160898038
 50
239.9500296662415
 51
300.0499703337585
  0
ARC
  8
2
  6
CONTINUOUS
 10
-50.00000000000001
 20
126.7487113059645
 40
24.24871130596445
 50
254.6411144191774
 51
285.3588855808226
  0
ARC
  8
2
  6
CONTINUOUS
 10
-61.2735110522657
 20
108.9432292772832
 40
6.443247160898054
 50
239.9500296662415
 51
300.0499703337585
  0
ARC
  8
2
  6
CONTINUOUS
 10
-61.2735110522657
 20
108.0567707227168
 40
6.443247160898054
 50
59.95002966624149
 51
120.0499703337585
  0
ARC
  8
2
  6
CONTINUOUS
 10
-50.00000000000001
 20
90.2512886940354
 40
24.24871130596461
 50
74.64111441917744
 51
105.3588855808226
  0
LINE
  8
2
  6
CONTINUOUS
 10
-41.95297789546858
 20
103.3660254037844
 11
-41.95297789546858
 21
113.6339745962156
  0
LINE
  8
2
  6
CONTINUOUS
 10
-41.95297789546858
 20
103.3660254037844
 11
-43.57738371066742
 21
103.3660254037844
  0
LINE
  8
2
  6
CONTINUOUS
 10
-43.57738371066742
 20
103.3660254037844
 11
-43.57738371066742
 21
113.6339745962156
  0
LINE
  8
2
  6
CONTINUOUS
 10
-41.95297789546858
 20
113.6339745962156
 11
-43.57738371066742
 21
113.6339745962156
  0
LINE
  8
2
  6
CONTINUOUS
 10
-56.42261628933258
 20
103.3660254037844
 11
-56.42261628933258
 21
113.6339745962156
  0
LINE
  8
2
  6
CONTINUOUS
 10
-56.42261628933258
 20
103.3660254037844
 11
-58.04702210453141
 21
103.3660254037844
  0
LINE
  8
2
  6
CONTINUOUS
 10
-58.04702210453141
 20
103.3660254037844
 11
-58.04702210453141
 21
113.6339745962156
  0
LINE
  8
2
  6
CONTINUOUS
 10
-56.42261628933258
 20
113.6339745962156
 11
-58.04702210453141
 21
113.6339745962156
  0
LINE
  8
2
  6
CONTINUOUS
 10
-40.6845
 20
119.5
 11
-40.6845
 21
135.5
  0
LINE
  8
2
  6
CONTINUOUS
 10
-40.6845
 20
135.5
 11
-59.3155
 21
135.5
  0
LINE
  8
2
  6
CONTINUOUS
 10
-39.5225
 20
119.5
 11
-60.47750000000001
 21
119.5
  0
LINE
  8
2
  6
CONTINUOUS
 10
-39.5225
 20
117.487356961605
 11
-40.6845
 21
119.5
  0
LINE
  8
2
  6
CONTINUOUS
 10
-39.5225
 20
134.338
 11
-40.6845
 21
135.5
  0
LINE
  8
2
  6
CONTINUOUS
 10
-60.47750000000001
 20
134.338
 11
-39.5225
 21
134.338
  0
LINE
  8
2
  6
CONTINUOUS
 10
-59.3155
 20
119.5
 11
-59.3155
 21
135.5
  0
LINE
  8
2
  6
CONTINUOUS
 10
-60.47750000000001
 20
117.487356961605
 11
-59.3155
 21
119.5
  0
LINE
  8
2
  6
CONTINUOUS
 10
-60.47750000000001
 20
134.338
 11
-59.3155
 21
135.5
  0
LINE
  8
2
  6
CONTINUOUS
 10
-39.5225
 20
115.5
 11
-39.5225
 21
134.338
  0
ARC
  8
2
  6
CONTINUOUS
 10
-38.52250000000001
 20
115.5
 40
0.9999999999999929
 50
179.9999999999992
 51
270.0
  0
LINE
  8
2
  6
CONTINUOUS
 10
-60.47750000000001
 20
115.5
 11
-60.47750000000001
 21
134.338
  0
ARC
  8
2
  6
CONTINUOUS
 10
-61.47749999999999
 20
115.5
 40
0.9999999999999858
 50
270.0
 51
8.142219984546719E-013
  0
LINE
  8
2
  6
CONTINUOUS
 10
-63.0
 20
-237.5055534994651
 11
-63.0
 21
-222.4944465005349
  0
LINE
  8
2
  6
CONTINUOUS
 10
-50.00000000000001
 20
-245.0111069989303
 11
-63.0
 21
-237.5055534994651
  0
LINE
  8
2
  6
CONTINUOUS
 10
-37.0
 20
-237.5055534994651
 11
-50.00000000000001
 21
-245.0111069989303
  0
ARC
  8
2
  6
CONTINUOUS
 10
-49.9999999999972
 20
-229.9999999999984
 40
14.49999999999676
 50
26.29155527472837
 51
33.70844472527129
  0
LINE
  8
2
  6
CONTINUOUS
 10
-49.99999999999999
 20
-214.9888930010697
 11
-37.0
 21
-222.4944465005349
  0
LINE
  8
2
  6
CONTINUOUS
 10
-63.0
 20
-222.4944465005349
 11
-49.99999999999999
 21
-214.9888930010697
  0
ARC
  8
2
  6
CONTINUOUS
 10
-49.99999999999999
 20
-230.0000000000015
 40
14.50000000000148
 50
86.29155527472977
 51
93.70844472527024
  0
ARC
  8
2
  6
CONTINUOUS
 10
-49.99999999999908
 20
-230.0000000000006
 40
14.50000000000108
 50
146.2915552747296
 51
153.7084447252702
  0
ARC
  8
2
  6
CONTINUOUS
 10
-50.00000000000259
 20
-229.9999999999985
 40
14.500000000003
 50
326.2915552747303
 51
333.7084447252698
  0
ARC
  8
2
  6
CONTINUOUS
 10
-50.00000000000042
 20
-230.0000000000003
 40
14.49999999999952
 50
206.2915552747292
 51
213.7084447252706
  0
CIRCLE
  8
2
  6
CONTINUOUS
 10
-50.0
 20
-230.0
 40
7.0
  0
CIRCLE
  8
2
  6
CONTINUOUS
 10
-50.0
 20
-230.0
 40
9.3155
  0
CIRCLE
  8
2
  6
CONTINUOUS
 10
-50.0
 20
-230.0
 40
10.4775
  0
CIRCLE
  8
2
  6
CONTINUOUS
 10
-50.0
 20
-230.0
 40
13.0
  0
LINE
  8
2
  6
CONTINUOUS
 10
-37.0
 20
-222.4944465005349
 11
-37.0
 21
-237.5055534994651
  0
ARC
  8
2
  6
CONTINUOUS
 10
-49.99999999999999
 20
-229.9999999999986
 40
14.50000000000142
 50
266.2915552747297
 51
273.7084447252702
  0
LINE
  8
2
  6
CONTINUOUS
 10
13.0
 20
96.5
 11
15.01110699893026
 21
95.33888683279848
  0
LINE
  8
2
  6
CONTINUOUS
 10
-13.00000000000001
 20
96.5
 11
13.0
 21
96.5
  0
LINE
  8
2
  6
CONTINUOUS
 10
-15.01110699893027
 20
95.33888683279848
 11
-13.00000000000001
 21
96.5
  0
ARC
  8
2
  6
CONTINUOUS
 10
8.437694987151190E-015
 20
71.66111316720135
 40
24.83888683279865
 50
72.41204622600638
 51
107.5879537739936
  0
LINE
  8
2
  6
CONTINUOUS
 10
7.505553499465138
 20
95.33888683279848
 11
7.505553499465138
 21
91.5
  0
LINE
  8
2
  6
CONTINUOUS
 10
-7.50555349946513
 20
95.33888683279848
 11
-7.50555349946513
 21
91.5
  0
ARC
  8
2
  6
CONTINUOUS
 10
11.25833024919768
 20
89.85486085409987
 40
6.645139145900146
 50
64.38424746804144
 51
124.3842474680422
  0
ARC
  8
2
  6
CONTINUOUS
 10
-11.25833024919769
 20
89.85486085409977
 40
6.645139145900229
 50
55.61575253195835
 51
115.6157525319584
  0
LINE
  8
2
  6
CONTINUOUS
 10
-15.01110699893027
 20
91.5
 11
15.01110699893026
 21
91.5
  0
LINE
  8
2
  6
CONTINUOUS
 10
15.01110699893026
 20
95.33888683279848
 11
15.01110699893026
 21
90.0
  0
LINE
  8
2
  6
CONTINUOUS
 10
-15.01110699893027
 20
95.33888683279848
 11
-15.01110699893027
 21
90.0
  0
LINE
  8
2
  6
CONTINUOUS
 10
11.0
 20
99.31199999999998
 11
11.0
 21
100.5
  0
LINE
  8
2
  6
CONTINUOUS
 10
10.18800000000002
 20
98.5
 11
11.0
 21
99.312
  0
LINE
  8
2
  6
CONTINUOUS
 10
-10.18800000000001
 20
98.5
 11
10.18800000000002
 21
98.5
  0
LINE
  8
2
  6
CONTINUOUS
 10
-11.0
 20
99.312
 11
-10.18800000000001
 21
98.5
  0
LINE
  8
2
  6
CONTINUOUS
 10
-11.0
 20
99.312
 11
-11.0
 21
100.5
  0
LINE
  8
2
  6
CONTINUOUS
 10
11.0
 20
99.312
 11
-11.0
 21
99.312
  0
LINE
  8
2
  6
CONTINUOUS
 10
10.188
 20
96.5
 11
10.188
 21
98.5
  0
LINE
  8
2
  6
CONTINUOUS
 10
-10.188
 20
96.5
 11
-10.188
 21
98.5
  0
LINE
  8
2
  6
CONTINUOUS
 10
10.188
 20
98.5
 11
10.188
 21
100.5
  0
LINE
  8
2
  6
CONTINUOUS
 10
-10.188
 20
98.5
 11
-10.188
 21
100.5
  0
LINE
  8
2
  6
CONTINUOUS
 10
13.0
 20
114.5
 11
-13.0
 21
114.5
  0
LINE
  8
2
  6
CONTINUOUS
 10
13.0
 20
102.5
 11
-13.0
 21
102.5
  0
LINE
  8
2
  6
CONTINUOUS
 10
14.5
 20
113.6339745962156
 11
13.0
 21
114.5
  0
LINE
  8
2
  6
CONTINUOUS
 10
14.5
 20
103.3660254037844
 11
14.5
 21
113.6339745962156
  0
LINE
  8
2
  6
CONTINUOUS
 10
13.0
 20
102.5
 11
14.5
 21
103.3660254037844
  0
ARC
  8
2
  6
CONTINUOUS
 10
11.27351105226571
 20
108.0567707227169
 40
6.443247160898025
 50
59.95002966624142
 51
120.0499703337586
  0
ARC
  8
2
  6
CONTINUOUS
 10
11.27351105226571
 20
108.9432292772832
 40
6.443247160898025
 50
239.9500296662414
 51
300.0499703337586
  0
ARC
  8
2
  6
CONTINUOUS
 10
-3.552713678800501E-015
 20
126.7487113059645
 40
24.24871130596448
 50
254.6411144191774
 51
285.3588855808226
  0
ARC
  8
2
  6
CONTINUOUS
 10
1.953992523340276E-014
 20
90.25128869403561
 40
24.24871130596439
 50
74.64111441917736
 51
105.3588855808228
  0
LINE
  8
2
  6
CONTINUOUS
 10
8.047022104531422
 20
103.3660254037844
 11
8.047022104531422
 21
113.6339745962156
  0
LINE
  8
2
  6
CONTINUOUS
 10
8.047022104531422
 20
103.3660254037844
 11
6.422616289332582
 21
103.3660254037844
  0
LINE
  8
2
  6
CONTINUOUS
 10
6.422616289332582
 20
103.3660254037844
 11
6.422616289332582
 21
113.6339745962156
  0
LINE
  8
2
  6
CONTINUOUS
 10
8.047022104531422
 20
113.6339745962156
 11
6.422616289332582
 21
113.6339745962156
  0
LINE
  8
2
  6
CONTINUOUS
 10
9.3155
 20
119.5
 11
9.3155
 21
135.5
  0
LINE
  8
2
  6
CONTINUOUS
 10
9.3155
 20
135.5
 11
-9.3155
 21
135.5
  0
LINE
  8
2
  6
CONTINUOUS
 10
10.4775
 20
119.5
 11
-10.4775
 21
119.5
  0
LINE
  8
2
  6
CONTINUOUS
 10
10.4775
 20
117.487356961605
 11
9.3155
 21
119.5
  0
LINE
  8
2
  6
CONTINUOUS
 10
10.4775
 20
134.338
 11
9.3155
 21
135.5
  0
LINE
  8
2
  6
CONTINUOUS
 10
-10.4775
 20
134.338
 11
10.4775
 21
134.338
  0
LINE
  8
2
  6
CONTINUOUS
 10
10.4775
 20
115.5
 11
10.4775
 21
134.338
  0
ARC
  8
2
  6
CONTINUOUS
 10
11.47749999999999
 20
115.5
 40
0.9999999999999893
 50
179.9999999999992
 51
270.0
  0
LINE
  8
2
  6
CONTINUOUS
 10
-14.5
 20
113.6339745962156
 11
-13.0
 21
114.5
  0
LINE
  8
2
  6
CONTINUOUS
 10
-14.5
 20
103.3660254037844
 11
-14.5
 21
113.6339745962156
  0
LINE
  8
2
  6
CONTINUOUS
 10
-13.0
 20
102.5
 11
-14.5
 21
103.3660254037844
  0
ARC
  8
2
  6
CONTINUOUS
 10
-11.2735110522657
 20
108.9432292772832
 40
6.443247160898054
 50
239.9500296662415
 51
300.0499703337585
  0
ARC
  8
2
  6
CONTINUOUS
 10
-11.2735110522657
 20
108.0567707227168
 40
6.44324716089804
 50
59.95002966624144
 51
120.0499703337586
  0
LINE
  8
2
  6
CONTINUOUS
 10
-6.422616289332582
 20
103.3660254037844
 11
-6.422616289332582
 21
113.6339745962156
  0
LINE
  8
2
  6
CONTINUOUS
 10
-6.422616289332582
 20
103.3660254037844
 11
-8.047022104531409
 21
103.3660254037844
  0
LINE
  8
2
  6
CONTINUOUS
 10
-8.047022104531409
 20
103.3660254037844
 11
-8.047022104531409
 21
113.6339745962156
  0
LINE
  8
2
  6
CONTINUOUS
 10
-6.422616289332582
 20
113.6339745962156
 11
-8.047022104531409
 21
113.6339745962156
  0
LINE
  8
2
  6
CONTINUOUS
 10
-9.3155
 20
119.5
 11
-9.3155
 21
135.5
  0
LINE
  8
2
  6
CONTINUOUS
 10
-10.4775
 20
117.487356961605
 11
-9.3155
 21
119.5
  0
LINE
  8
2
  6
CONTINUOUS
 10
-10.4775
 20
134.338
 11
-9.3155
 21
135.5
  0
LINE
  8
2
  6
CONTINUOUS
 10
-10.4775
 20
115.5
 11
-10.4775
 21
134.338
  0
ARC
  8
2
  6
CONTINUOUS
 10
-11.47749999999999
 20
115.5
 40
0.9999999999999858
 50
270.0
 51
8.142219984546719E-013
  0
LINE
  8
2
  6
CONTINUOUS
 10
13.0
 20
100.5
 11
13.0
 21
102.5
  0
LINE
  8
2
  6
CONTINUOUS
 10
-13.0
 20
100.5
 11
13.0
 21
100.5
  0
LINE
  8
2
  6
CONTINUOUS
 10
-13.0
 20
100.5
 11
-13.0
 21
102.5
  0
LINE
  8
3
  6
CONTINUOUS
 10
0.0
 20
84.0
 11
0.0
 21
141.5
  0
LINE
  8
2
  6
CONTINUOUS
 10
63.0
 20
96.5
 11
65.01110699893026
 21
95.33888683279848
  0
LINE
  8
2
  6
CONTINUOUS
 10
36.99999999999999
 20
96.5
 11
63.0
 21
96.5
  0
LINE
  8
2
  6
CONTINUOUS
 10
34.98889300106973
 20
95.33888683279848
 11
36.99999999999999
 21
96.5
  0
ARC
  8
2
  6
CONTINUOUS
 10
50.00000000000001
 20
71.66111316720132
 40
24.83888683279868
 50
72.4120462260064
 51
107.5879537739936
  0
LINE
  8
2
  6
CONTINUOUS
 10
57.50555349946514
 20
95.33888683279848
 11
57.50555349946514
 21
91.5
  0
LINE
  8
2
  6
CONTINUOUS
 10
42.49444650053487
 20
95.33888683279848
 11
42.49444650053487
 21
91.5
  0
ARC
  8
2
  6
CONTINUOUS
 10
61.25833024919768
 20
89.85486085409978
 40
6.645139145900219
 50
64.38424746804182
 51
124.3842474680417
  0
ARC
  8
2
  6
CONTINUOUS
 10
38.74166975080231
 20
89.85486085409977
 40
6.64513914590023
 50
55.61575253195834
 51
115.6157525319584
  0
LINE
  8
2
  6
CONTINUOUS
 10
34.98889300106973
 20
91.5
 11
65.01110699893026
 21
91.5
  0
LINE
  8
2
  6
CONTINUOUS
 10
65.01110699893026
 20
95.33888683279848
 11
65.01110699893026
 21
90.0
  0
LINE
  8
2
  6
CONTINUOUS
 10
34.98889300106973
 20
95.33888683279848
 11
34.98889300106973
 21
90.0
  0
LINE
  8
2
  6
CONTINUOUS
 10
61.0
 20
99.31199999999998
 11
61.0
 21
100.5
  0
LINE
  8
2
  6
CONTINUOUS
 10
60.18800000000002
 20
98.5
 11
61.0
 21
99.312
  0
LINE
  8
2
  6
CONTINUOUS
 10
39.81199999999999
 20
98.5
 11
60.18800000000002
 21
98.5
  0
LINE
  8
2
  6
CONTINUOUS
 10
39.0
 20
99.312
 11
39.81199999999999
 21
98.5
  0
LINE
  8
2
  6
CONTINUOUS
 10
39.0
 20
99.312
 11
39.0
 21
100.5
  0
LINE
  8
2
  6
CONTINUOUS
 10
61.0
 20
99.312
 11
39.0
 21
99.312
  0
LINE
  8
2
  6
CONTINUOUS
 10
60.188
 20
96.5
 11
60.188
 21
98.5
  0
LINE
  8
2
  6
CONTINUOUS
 10
39.812
 20
96.5
 11
39.812
 21
98.5
  0
LINE
  8
2
  6
CONTINUOUS
 10
60.188
 20
98.5
 11
60.188
 21
100.5
  0
LINE
  8
2
  6
CONTINUOUS
 10
39.812
 20
98.5
 11
39.812
 21
100.5
  0
LINE
  8
2
  6
CONTINUOUS
 10
63.0
 20
114.5
 11
37.0
 21
114.5
  0
LINE
  8
2
  6
CONTINUOUS
 10
63.0
 20
102.5
 11
37.0
 21
102.5
  0
LINE
  8
2
  6
CONTINUOUS
 10
64.5
 20
113.6339745962156
 11
63.0
 21
114.5
  0
LINE
  8
2
  6
CONTINUOUS
 10
64.5
 20
103.3660254037844
 11
64.5
 21
113.6339745962156
  0
LINE
  8
2
  6
CONTINUOUS
 10
63.0
 20
102.5
 11
64.5
 21
103.3660254037844
  0
ARC
  8
2
  6
CONTINUOUS
 10
61.27351105226571
 20
108.0567707227168
 40
6.443247160898038
 50
59.95002966624148
 51
120.0499703337585
  0
ARC
  8
2
  6
CONTINUOUS
 10
61.27351105226571
 20
108.9432292772832
 40
6.443247160898038
 50
239.9500296662415
 51
300.0499703337585
  0
ARC
  8
2
  6
CONTINUOUS
 10
49.99999999999999
 20
126.7487113059645
 40
24.24871130596445
 50
254.6411144191774
 51
285.3588855808226
  0
ARC
  8
2
  6
CONTINUOUS
 10
49.99999999999999
 20
90.2512886940354
 40
24.24871130596461
 50
74.64111441917744
 51
105.3588855808226
  0
LINE
  8
2
  6
CONTINUOUS
 10
58.04702210453142
 20
103.3660254037844
 11
58.04702210453142
 21
113.6339745962156
  0
LINE
  8
2
  6
CONTINUOUS
 10
58.04702210453142
 20
103.3660254037844
 11
56.42261628933258
 21
103.3660254037844
  0
LINE
  8
2
  6
CONTINUOUS
 10
56.42261628933258
 20
103.3660254037844
 11
56.42261628933258
 21
113.6339745962156
  0
LINE
  8
2
  6
CONTINUOUS
 10
58.04702210453142
 20
113.6339745962156
 11
56.42261628933258
 21
113.6339745962156
  0
LINE
  8
2
  6
CONTINUOUS
 10
59.3155
 20
119.5
 11
59.3155
 21
135.5
  0
LINE
  8
2
  6
CONTINUOUS
 10
59.3155
 20
135.5
 11
40.6845
 21
135.5
  0
LINE
  8
2
  6
CONTINUOUS
 10
60.47750000000001
 20
119.5
 11
39.5225
 21
119.5
  0
LINE
  8
2
  6
CONTINUOUS
 10
60.47750000000001
 20
117.487356961605
 11
59.3155
 21
119.5
  0
LINE
  8
2
  6
CONTINUOUS
 10
60.47750000000001
 20
134.338
 11
59.3155
 21
135.5
  0
LINE
  8
2
  6
CONTINUOUS
 10
39.5225
 20
134.338
 11
60.47750000000001
 21
134.338
  0
LINE
  8
2
  6
CONTINUOUS
 10
60.47750000000001
 20
115.5
 11
60.47750000000001
 21
134.338
  0
ARC
  8
2
  6
CONTINUOUS
 10
61.47749999999999
 20
115.5
 40
0.9999999999999858
 50
179.9999999999992
 51
270.0
  0
LINE
  8
2
  6
CONTINUOUS
 10
35.5
 20
113.6339745962156
 11
37.0
 21
114.5
  0
LINE
  8
2
  6
CONTINUOUS
 10
35.5
 20
103.3660254037844
 11
35.5
 21
113.6339745962156
  0
LINE
  8
2
  6
CONTINUOUS
 10
37.0
 20
102.5
 11
35.5
 21
103.3660254037844
  0
ARC
  8
2
  6
CONTINUOUS
 10
38.7264889477343
 20
108.9432292772832
 40
6.443247160898054
 50
239.9500296662415
 51
300.0499703337585
  0
ARC
  8
2
  6
CONTINUOUS
 10
38.7264889477343
 20
108.0567707227168
 40
6.443247160898038
 50
59.95002966624148
 51
120.0499703337586
  0
LINE
  8
2
  6
CONTINUOUS
 10
43.57738371066742
 20
103.3660254037844
 11
43.57738371066742
 21
113.6339745962156
  0
LINE
  8
2
  6
CONTINUOUS
 10
43.57738371066742
 20
103.3660254037844
 11
41.95297789546859
 21
103.3660254037844
  0
LINE
  8
2
  6
CONTINUOUS
 10
41.95297789546859
 20
103.3660254037844
 11
41.95297789546859
 21
113.6339745962156
  0
LINE
  8
2
  6
CONTINUOUS
 10
43.57738371066742
 20
113.6339745962156
 11
41.95297789546859
 21
113.6339745962156
  0
LINE
  8
2
  6
CONTINUOUS
 10
40.6845
 20
119.5
 11
40.6845
 21
135.5
  0
LINE
  8
2
  6
CONTINUOUS
 10
39.5225
 20
117.487356961605
 11
40.6845
 21
119.5
  0
LINE
  8
2
  6
CONTINUOUS
 10
39.5225
 20
134.338
 11
40.6845
 21
135.5
  0
LINE
  8
2
  6
CONTINUOUS
 10
39.5225
 20
115.5
 11
39.5225
 21
134.338
  0
ARC
  8
2
  6
CONTINUOUS
 10
38.52250000000001
 20
115.5
 40
0.9999999999999858
 50
270.0
 51
8.142219984546719E-013
  0
LINE
  8
2
  6
CONTINUOUS
 10
63.0
 20
100.5
 11
63.0
 21
102.5
  0
LINE
  8
2
  6
CONTINUOUS
 10
37.0
 20
100.5
 11
63.0
 21
100.5
  0
LINE
  8
2
  6
CONTINUOUS
 10
37.0
 20
100.5
 11
37.0
 21
102.5
  0
LINE
  8
3
  6
CONTINUOUS
 10
50.0
 20
84.0
 11
50.0
 21
141.5
  0
LINE
  8
2
  6
CONTINUOUS
 10
63.0
 20
-96.5
 11
65.01110699893026
 21
-95.33888683279848
  0
LINE
  8
2
  6
CONTINUOUS
 10
36.99999999999999
 20
-96.5
 11
63.0
 21
-96.5
  0
LINE
  8
2
  6
CONTINUOUS
 10
34.98889300106973
 20
-95.33888683279848
 11
36.99999999999999
 21
-96.5
  0
ARC
  8
2
  6
CONTINUOUS
 10
49.99999999999999
 20
-71.66111316720151
 40
24.8388868327985
 50
252.4120462260063
 51
287.5879537739938
  0
LINE
  8
2
  6
CONTINUOUS
 10
57.50555349946514
 20
-95.33888683279848
 11
57.50555349946514
 21
-91.5
  0
LINE
  8
2
  6
CONTINUOUS
 10
42.49444650053487
 20
-95.33888683279848
 11
42.49444650053487
 21
-91.5
  0
ARC
  8
2
  6
CONTINUOUS
 10
61.25833024919767
 20
-89.8548608540998
 40
6.645139145900202
 50
235.6157525319582
 51
295.6157525319584
  0
ARC
  8
2
  6
CONTINUOUS
 10
38.74166975080232
 20
-89.8548608540998
 40
6.645139145900203
 50
244.3842474680416
 51
304.3842474680417
  0
LINE
  8
2
  6
CONTINUOUS
 10
34.98889300106973
 20
-91.5
 11
65.01110699893026
 21
-91.5
  0
LINE
  8
2
  6
CONTINUOUS
 10
65.01110699893026
 20
-95.33888683279848
 11
65.01110699893026
 21
-90.0
  0
LINE
  8
2
  6
CONTINUOUS
 10
34.98889300106973
 20
-95.33888683279848
 11
34.98889300106973
 21
-90.0
  0
LINE
  8
2
  6
CONTINUOUS
 10
61.0
 20
-99.31199999999998
 11
61.0
 21
-100.5
  0
LINE
  8
2
  6
CONTINUOUS
 10
60.18800000000002
 20
-98.5
 11
61.0
 21
-99.312
  0
LINE
  8
2
  6
CONTINUOUS
 10
39.81199999999999
 20
-98.5
 11
60.18800000000002
 21
-98.5
  0
LINE
  8
2
  6
CONTINUOUS
 10
39.0
 20
-99.312
 11
39.81199999999999
 21
-98.5
  0
LINE
  8
2
  6
CONTINUOUS
 10
39.0
 20
-99.312
 11
39.0
 21
-100.5
  0
LINE
  8
2
  6
CONTINUOUS
 10
61.0
 20
-99.312
 11
39.0
 21
-99.312
  0
LINE
  8
2
  6
CONTINUOUS
 10
60.188
 20
-96.5
 11
60.188
 21
-98.5
  0
LINE
  8
2
  6
CONTINUOUS
 10
39.812
 20
-96.5
 11
39.812
 21
-98.5
  0
LINE
  8
2
  6
CONTINUOUS
 10
60.188
 20
-98.5
 11
60.188
 21
-100.5
  0
LINE
  8
2
  6
CONTINUOUS
 10
39.812
 20
-98.5
 11
39.812
 21
-100.5
  0
LINE
  8
2
  6
CONTINUOUS
 10
63.0
 20
-114.5
 11
37.0
 21
-114.5
  0
LINE
  8
2
  6
CONTINUOUS
 10
63.0
 20
-102.5
 11
37.0
 21
-102.5
  0
LINE
  8
2
  6
CONTINUOUS
 10
64.5
 20
-113.6339745962156
 11
63.0
 21
-114.5
  0
LINE
  8
2
  6
CONTINUOUS
 10
64.5
 20
-103.3660254037844
 11
64.5
 21
-113.6339745962156
  0
LINE
  8
2
  6
CONTINUOUS
 10
63.0
 20
-102.5
 11
64.5
 21
-103.3660254037844
  0
ARC
  8
2
  6
CONTINUOUS
 10
61.27351105226571
 20
-108.0567707227168
 40
6.443247160898038
 50
239.9500296662415
 51
300.0499703337585
  0
ARC
  8
2
  6
CONTINUOUS
 10
61.27351105226571
 20
-108.9432292772832
 40
6.443247160898038
 50
59.95002966624148
 51
120.0499703337585
  0
ARC
  8
2
  6
CONTINUOUS
 10
50.00000000000001
 20
-126.7487113059645
 40
24.24871130596445
 50
74.64111441917737
 51
105.3588855808226
  0
ARC
  8
2
  6
CONTINUOUS
 10
50.00000000000001
 20
-90.25128869403532
 40
24.24871130596468
 50
254.6411144191774
 51
285.3588855808224
  0
LINE
  8
2
  6
CONTINUOUS
 10
58.04702210453142
 20
-103.3660254037844
 11
58.04702210453142
 21
-113.6339745962156
  0
LINE
  8
2
  6
CONTINUOUS
 10
58.04702210453142
 20
-103.3660254037844
 11
56.42261628933258
 21
-103.3660254037844
  0
LINE
  8
2
  6
CONTINUOUS
 10
56.42261628933258
 20
-103.3660254037844
 11
56.42261628933258
 21
-113.6339745962156
  0
LINE
  8
2
  6
CONTINUOUS
 10
58.04702210453142
 20
-113.6339745962156
 11
56.42261628933258
 21
-113.6339745962156
  0
LINE
  8
2
  6
CONTINUOUS
 10
59.3155
 20
-119.5
 11
59.3155
 21
-135.5
  0
LINE
  8
2
  6
CONTINUOUS
 10
59.3155
 20
-135.5
 11
40.6845
 21
-135.5
  0
LINE
  8
2
  6
CONTINUOUS
 10
60.47750000000001
 20
-119.5
 11
39.5225
 21
-119.5
  0
LINE
  8
2
  6
CONTINUOUS
 10
60.47750000000001
 20
-117.487356961605
 11
59.3155
 21
-119.5
  0
LINE
  8
2
  6
CONTINUOUS
 10
60.47750000000001
 20
-134.338
 11
59.3155
 21
-135.5
  0
LINE
  8
2
  6
CONTINUOUS
 10
39.5225
 20
-134.338
 11
60.47750000000001
 21
-134.338
  0
LINE
  8
2
  6
CONTINUOUS
 10
60.47750000000001
 20
-115.5
 11
60.47750000000001
 21
-134.338
  0
ARC
  8
2
  6
CONTINUOUS
 10
61.47749999999999
 20
-115.5
 40
0.9999999999999858
 50
90.0
 51
180.0000000000008
  0
LINE
  8
2
  6
CONTINUOUS
 10
35.5
 20
-113.6339745962156
 11
37.0
 21
-114.5
  0
LINE
  8
2
  6
CONTINUOUS
 10
35.5
 20
-103.3660254037844
 11
35.5
 21
-113.6339745962156
  0
LINE
  8
2
  6
CONTINUOUS
 10
37.0
 20
-102.5
 11
35.5
 21
-103.3660254037844
  0
ARC
  8
2
  6
CONTINUOUS
 10
38.7264889477343
 20
-108.9432292772832
 40
6.443247160898054
 50
59.95002966624149
 51
120.0499703337585
  0
ARC
  8
2
  6
CONTINUOUS
 10
38.7264889477343
 20
-108.0567707227168
 40
6.443247160898041
 50
239.9500296662414
 51
300.0499703337585
  0
LINE
  8
2
  6
CONTINUOUS
 10
43.57738371066742
 20
-103.3660254037844
 11
43.57738371066742
 21
-113.6339745962156
  0
LINE
  8
2
  6
CONTINUOUS
 10
43.57738371066742
 20
-103.3660254037844
 11
41.95297789546859
 21
-103.3660254037844
  0
LINE
  8
2
  6
CONTINUOUS
 10
41.95297789546859
 20
-103.3660254037844
 11
41.95297789546859
 21
-113.6339745962156
  0
LINE
  8
2
  6
CONTINUOUS
 10
43.57738371066742
 20
-113.6339745962156
 11
41.95297789546859
 21
-113.6339745962156
  0
LINE
  8
2
  6
CONTINUOUS
 10
40.6845
 20
-119.5
 11
40.6845
 21
-135.5
  0
LINE
  8
2
  6
CONTINUOUS
 10
39.5225
 20
-117.487356961605
 11
40.6845
 21
-119.5
  0
LINE
  8
2
  6
CONTINUOUS
 10
39.5225
 20
-134.338
 11
40.6845
 21
-135.5
  0
LINE
  8
2
  6
CONTINUOUS
 10
39.5225
 20
-115.5
 11
39.5225
 21
-134.338
  0
ARC
  8
2
  6
CONTINUOUS
 10
38.52250000000001
 20
-115.5
 40
0.9999999999999929
 50
359.9999999999992
 51
90.0
  0
LINE
  8
2
  6
CONTINUOUS
 10
63.0
 20
-100.5
 11
63.0
 21
-102.5
  0
LINE
  8
2
  6
CONTINUOUS
 10
37.0
 20
-100.5
 11
63.0
 21
-100.5
  0
LINE
  8
2
  6
CONTINUOUS
 10
37.0
 20
-100.5
 11
37.0
 21
-102.5
  0
LINE
  8
3
  6
CONTINUOUS
 10
50.0
 20
-84.0
 11
50.0
 21
-141.5
  0
LINE
  8
2
  6
CONTINUOUS
 10
-37.0
 20
-96.5
 11
-34.98889300106974
 21
-95.33888683279848
  0
LINE
  8
2
  6
CONTINUOUS
 10
-63.0
 20
-96.5
 11
-37.0
 21
-96.5
  0
LINE
  8
2
  6
CONTINUOUS
 10
-65.01110699893027
 20
-95.33888683279848
 11
-63.00000000000001
 21
-96.5
  0
ARC
  8
2
  6
CONTINUOUS
 10
-50.00000000000001
 20
-71.66111316720146
 40
24.83888683279854
 50
252.4120462260063
 51
287.5879537739938
  0
LINE
  8
2
  6
CONTINUOUS
 10
-42.49444650053486
 20
-95.33888683279848
 11
-42.49444650053486
 21
-91.5
  0
LINE
  8
2
  6
CONTINUOUS
 10
-57.50555349946512
 20
-95.33888683279848
 11
-57.50555349946512
 21
-91.5
  0
ARC
  8
2
  6
CONTINUOUS
 10
-38.74166975080233
 20
-89.8548608540998
 40
6.645139145900202
 50
235.6157525319582
 51
295.6157525319584
  0
ARC
  8
2
  6
CONTINUOUS
 10
-61.25833024919767
 20
-89.8548608540998
 40
6.645139145900203
 50
244.3842474680416
 51
304.3842474680417
  0
LINE
  8
2
  6
CONTINUOUS
 10
-65.01110699893027
 20
-91.5
 11
-34.98889300106974
 21
-91.5
  0
LINE
  8
2
  6
CONTINUOUS
 10
-34.98889300106974
 20
-95.33888683279848
 11
-34.98889300106974
 21
-90.0
  0
LINE
  8
2
  6
CONTINUOUS
 10
-65.01110699893027
 20
-95.33888683279848
 11
-65.01110699893027
 21
-90.0
  0
LINE
  8
2
  6
CONTINUOUS
 10
-39.0
 20
-99.31199999999998
 11
-39.0
 21
-100.5
  0
LINE
  8
2
  6
CONTINUOUS
 10
-39.81199999999998
 20
-98.5
 11
-39.0
 21
-99.312
  0
LINE
  8
2
  6
CONTINUOUS
 10
-60.18800000000002
 20
-98.5
 11
-39.81199999999998
 21
-98.5
  0
LINE
  8
2
  6
CONTINUOUS
 10
-61.0
 20
-99.312
 11
-60.18800000000002
 21
-98.5
  0
LINE
  8
2
  6
CONTINUOUS
 10
-61.0
 20
-99.312
 11
-61.0
 21
-100.5
  0
LINE
  8
2
  6
CONTINUOUS
 10
-39.0
 20
-99.312
 11
-61.0
 21
-99.312
  0
LINE
  8
2
  6
CONTINUOUS
 10
-39.812
 20
-96.5
 11
-39.812
 21
-98.5
  0
LINE
  8
2
  6
CONTINUOUS
 10
-60.188
 20
-96.5
 11
-60.188
 21
-98.5
  0
LINE
  8
2
  6
CONTINUOUS
 10
-39.812
 20
-98.5
 11
-39.812
 21
-100.5
  0
LINE
  8
2
  6
CONTINUOUS
 10
-60.188
 20
-98.5
 11
-60.188
 21
-100.5
  0
LINE
  8
2
  6
CONTINUOUS
 10
-37.0
 20
-114.5
 11
-63.0
 21
-114.5
  0
LINE
  8
2
  6
CONTINUOUS
 10
-37.0
 20
-102.5
 11
-63.0
 21
-102.5
  0
LINE
  8
2
  6
CONTINUOUS
 10
-35.5
 20
-113.6339745962156
 11
-37.0
 21
-114.5
  0
LINE
  8
2
  6
CONTINUOUS
 10
-35.5
 20
-103.3660254037844
 11
-35.5
 21
-113.6339745962156
  0
LINE
  8
2
  6
CONTINUOUS
 10
-37.0
 20
-102.5
 11
-35.5
 21
-103.3660254037844
  0
ARC
  8
2
  6
CONTINUOUS
 10
-38.72648894773428
 20
-108.0567707227169
 40
6.443247160898013
 50
239.9500296662413
 51
300.0499703337586
  0
ARC
  8
2
  6
CONTINUOUS
 10
-38.72648894773429
 20
-108.9432292772833
 40
6.443247160898124
 50
59.95002966624193
 51
120.0499703337581
  0
ARC
  8
2
  6
CONTINUOUS
 10
-49.99999999999999
 20
-126.7487113059645
 40
24.24871130596445
 50
74.64111441917737
 51
105.3588855808226
  0
ARC
  8
2
  6
CONTINUOUS
 10
-49.99999999999999
 20
-90.25128869403532
 40
24.24871130596468
 50
254.6411144191774
 51
285.3588855808224
  0
LINE
  8
2
  6
CONTINUOUS
 10
-41.95297789546858
 20
-103.3660254037844
 11
-41.95297789546858
 21
-113.6339745962156
  0
LINE
  8
2
  6
CONTINUOUS
 10
-41.95297789546858
 20
-103.3660254037844
 11
-43.57738371066742
 21
-103.3660254037844
  0
LINE
  8
2
  6
CONTINUOUS
 10
-43.57738371066742
 20
-103.3660254037844
 11
-43.57738371066742
 21
-113.6339745962156
  0
LINE
  8
2
  6
CONTINUOUS
 10
-41.95297789546858
 20
-113.6339745962156
 11
-43.57738371066742
 21
-113.6339745962156
  0
LINE
  8
2
  6
CONTINUOUS
 10
-40.6845
 20
-119.5
 11
-40.6845
 21
-135.5
  0
LINE
  8
2
  6
CONTINUOUS
 10
-40.6845
 20
-135.5
 11
-59.3155
 21
-135.5
  0
LINE
  8
2
  6
CONTINUOUS
 10
-39.52250000000001
 20
-119.5
 11
-60.47749999999999
 21
-119.5
  0
LINE
  8
2
  6
CONTINUOUS
 10
-39.52250000000001
 20
-117.487356961605
 11
-40.6845
 21
-119.5
  0
LINE
  8
2
  6
CONTINUOUS
 10
-39.52250000000001
 20
-134.338
 11
-40.6845
 21
-135.5
  0
LINE
  8
2
  6
CONTINUOUS
 10
-60.47749999999999
 20
-134.338
 11
-39.52250000000001
 21
-134.338
  0
LINE
  8
2
  6
CONTINUOUS
 10
-39.52250000000001
 20
-115.5
 11
-39.52250000000001
 21
-134.338
  0
ARC
  8
2
  6
CONTINUOUS
 10
-38.52250000000002
 20
-115.5
 40
0.9999999999999858
 50
90.0
 51
180.0000000000008
  0
LINE
  8
2
  6
CONTINUOUS
 10
-64.5
 20
-113.6339745962156
 11
-63.0
 21
-114.5
  0
LINE
  8
2
  6
CONTINUOUS
 10
-64.5
 20
-103.3660254037844
 11
-64.5
 21
-113.6339745962156
  0
LINE
  8
2
  6
CONTINUOUS
 10
-63.0
 20
-102.5
 11
-64.5
 21
-103.3660254037844
  0
ARC
  8
2
  6
CONTINUOUS
 10
-61.2735110522657
 20
-108.9432292772832
 40
6.443247160898054
 50
59.95002966624149
 51
120.0499703337585
  0
ARC
  8
2
  6
CONTINUOUS
 10
-61.2735110522657
 20
-108.0567707227168
 40
6.443247160898054
 50
239.9500296662415
 51
300.0499703337585
  0
LINE
  8
2
  6
CONTINUOUS
 10
-56.42261628933258
 20
-103.3660254037844
 11
-56.42261628933258
 21
-113.6339745962156
  0
LINE
  8
2
  6
CONTINUOUS
 10
-56.42261628933258
 20
-103.3660254037844
 11
-58.04702210453141
 21
-103.3660254037844
  0
LINE
  8
2
  6
CONTINUOUS
 10
-58.04702210453141
 20
-103.3660254037844
 11
-58.04702210453141
 21
-113.6339745962156
  0
LINE
  8
2
  6
CONTINUOUS
 10
-56.42261628933258
 20
-113.6339745962156
 11
-58.04702210453141
 21
-113.6339745962156
  0
LINE
  8
2
  6
CONTINUOUS
 10
-59.3155
 20
-119.5
 11
-59.3155
 21
-135.5
  0
LINE
  8
2
  6
CONTINUOUS
 10
-60.47749999999999
 20
-117.487356961605
 11
-59.3155
 21
-119.5
  0
LINE
  8
2
  6
CONTINUOUS
 10
-60.47749999999999
 20
-134.338
 11
-59.3155
 21
-135.5
  0
LINE
  8
2
  6
CONTINUOUS
 10
-60.47749999999999
 20
-115.5
 11
-60.47749999999999
 21
-134.338
  0
ARC
  8
2
  6
CONTINUOUS
 10
-61.47749999999998
 20
-115.5
 40
0.9999999999999858
 50
359.9999999999992
 51
90.0
  0
LINE
  8
2
  6
CONTINUOUS
 10
-37.0
 20
-100.5
 11
-37.0
 21
-102.5
  0
LINE
  8
2
  6
CONTINUOUS
 10
-63.0
 20
-100.5
 11
-37.0
 21
-100.5
  0
LINE
  8
2
  6
CONTINUOUS
 10
-63.0
 20
-100.5
 11
-63.0
 21
-102.5
  0
LINE
  8
3
  6
CONTINUOUS
 10
-50.0
 20
-84.0
 11
-50.0
 21
-141.5
  0
CIRCLE
  8
2
  6
CONTINUOUS
 10
50.0
 20
-230.0
 40
15.01110699893027
  0
ARC
  8
2
  6
CONTINUOUS
 10
50.0
 20
-230.0
 40
16.0
 50
180.0
 51
0.0
  0
LINE
  8
2
  6
CONTINUOUS
 10
66.0
 20
-213.0
 11
66.0
 21
-230.0
  0
LINE
  8
2
  6
CONTINUOUS
 10
34.0
 20
-213.0
 11
34.0
 21
-230.0
  0
LINE
  8
3
  6
CONTINUOUS
 10
28.98889300106973
 20
-230.0
 11
71.01110699893027
 21
-230.0
  0
LINE
  8
3
  6
CONTINUOUS
 10
50.0
 20
-251.0111069989303
 11
50.0
 21
-208.9888930010697
  0
LINE
  8
2
  6
CONTINUOUS
 10
37.0
 20
-237.5055534994651
 11
37.0
 21
-222.4944465005349
  0
LINE
  8
2
  6
CONTINUOUS
 10
49.99999999999999
 20
-245.0111069989303
 11
37.0
 21
-237.5055534994651
  0
LINE
  8
2
  6
CONTINUOUS
 10
63.0
 20
-237.5055534994651
 11
49.99999999999999
 21
-245.0111069989303
  0
ARC
  8
2
  6
CONTINUOUS
 10
50.0000000000028
 20
-229.9999999999984
 40
14.49999999999676
 50
26.29155527472837
 51
33.70844472527129
  0
LINE
  8
2
  6
CONTINUOUS
 10
50.00000000000001
 20
-214.9888930010697
 11
63.0
 21
-222.4944465005349
  0
LINE
  8
2
  6
CONTINUOUS
 10
37.0
 20
-222.4944465005349
 11
50.00000000000001
 21
-214.9888930010697
  0
ARC
  8
2
  6
CONTINUOUS
 10
50.00000000000092
 20
-230.0000000000006
 40
14.50000000000108
 50
146.2915552747296
 51
153.7084447252702
  0
ARC
  8
2
  6
CONTINUOUS
 10
49.99999999999741
 20
-229.9999999999985
 40
14.500000000003
 50
326.2915552747303
 51
333.7084447252698
  0
ARC
  8
2
  6
CONTINUOUS
 10
49.99999999999958
 20
-230.0000000000003
 40
14.49999999999952
 50
206.2915552747292
 51
213.7084447252706
  0
CIRCLE
  8
2
  6
CONTINUOUS
 10
50.0
 20
-230.0
 40
7.0
  0
CIRCLE
  8
2
  6
CONTINUOUS
 10
50.0
 20
-230.0
 40
9.3155
  0
CIRCLE
  8
2
  6
CONTINUOUS
 10
50.0
 20
-230.0
 40
10.4775
  0
CIRCLE
  8
2
  6
CONTINUOUS
 10
50.0
 20
-230.0
 40
13.0
  0
LINE
  8
2
  6
CONTINUOUS
 10
63.0
 20
-222.4944465005349
 11
63.0
 21
-237.5055534994651
  0
ARC
  8
2
  6
CONTINUOUS
 10
50.00000000000001
 20
-229.9999999999986
 40
14.50000000000142
 50
266.2915552747297
 51
273.7084447252702
  0
CIRCLE
  8
2
  6
CONTINUOUS
 10
50.0
 20
-230.0
 40
5.5
  0
ARC
  8
2
  6
CONTINUOUS
 10
50.00000000000001
 20
-230.0000000000015
 40
14.50000000000148
 50
86.29155527472977
 51
93.70844472527024
  0
LINE
  8
2
  6
CONTINUOUS
 10
90.0
 20
-213.0
 11
66.0
 21
-213.0
  0
CIRCLE
  8
2
  6
CONTINUOUS
 10
-83.0
 20
-83.0
 40
4.25
  0
CIRCLE
  8
2
  6
CONTINUOUS
 10
-83.0
 20
-83.0
 40
3.75
  0
CIRCLE
  8
2
  6
CONTINUOUS
 10
83.0
 20
-83.0
 40
3.75
  0
CIRCLE
  8
2
  6
CONTINUOUS
 10
83.0
 20
-83.0
 40
4.25
  0
CIRCLE
  8
2
  6
CONTINUOUS
 10
83.0
 20
83.0
 40
3.75
  0
CIRCLE
  8
2
  6
CONTINUOUS
 10
83.0
 20
83.0
 40
4.25
  0
CIRCLE
  8
2
  6
CONTINUOUS
 10
-83.0
 20
83.0
 40
3.75
  0
CIRCLE
  8
2
  6
CONTINUOUS
 10
-83.0
 20
83.0
 40
4.25
  0
POLYLINE
  8
2
  6
CONTINUOUS
 66
     1
 70
     0
 40
0.0
 41
0.0
  0
VERTEX
  8
2
 10
85.30940107675851
 20
-83.0
  0
VERTEX
  8
2
 10
84.15470053837925
 20
-81.0
  0
VERTEX
  8
2
 10
81.84529946162076
 20
-81.0
  0
VERTEX
  8
2
 10
80.69059892324151
 20
-83.0
  0
VERTEX
  8
2
 10
81.84529946162076
 20
-85.0
  0
VERTEX
  8
2
 10
84.15470053837925
 20
-85.0
  0
VERTEX
  8
2
 10
85.30940107675851
 20
-83.0
  0
SEQEND
  8
2
  0
POLYLINE
  8
2
  6
CONTINUOUS
 66
     1
 70
     0
 40
0.0
 41
0.0
  0
VERTEX
  8
2
 10
85.30940107675851
 20
83.0
  0
VERTEX
  8
2
 10
84.15470053837925
 20
85.0
  0
VERTEX
  8
2
 10
81.84529946162076
 20
85.0
  0
VERTEX
  8
2
 10
80.69059892324151
 20
83.0
  0
VERTEX
  8
2
 10
81.84529946162076
 20
81.0
  0
VERTEX
  8
2
 10
84.15470053837925
 20
81.0
  0
VERTEX
  8
2
 10
85.30940107675851
 20
83.0
  0
SEQEND
  8
2
  0
POLYLINE
  8
2
  6
CONTINUOUS
 66
     1
 70
     0
 40
0.0
 41
0.0
  0
VERTEX
  8
2
 10
-80.69059892324151
 20
83.0
  0
VERTEX
  8
2
 10
-81.84529946162076
 20
85.0
  0
VERTEX
  8
2
 10
-84.15470053837925
 20
85.0
  0
VERTEX
  8
2
 10
-85.30940107675851
 20
83.0
  0
VERTEX
  8
2
 10
-84.15470053837925
 20
81.0
  0
VERTEX
  8
2
 10
-81.84529946162076
 20
81.0
  0
VERTEX
  8
2
 10
-80.69059892324151
 20
83.0
  0
SEQEND
  8
2
  0
POLYLINE
  8
2
  6
CONTINUOUS
 66
     1
 70
     0
 40
0.0
 41
0.0
  0
VERTEX
  8
2
 10
-80.69059892324151
 20
-83.0
  0
VERTEX
  8
2
 10
-81.84529946162076
 20
-81.0
  0
VERTEX
  8
2
 10
-84.15470053837925
 20
-81.0
  0
VERTEX
  8
2
 10
-85.30940107675851
 20
-83.0
  0
VERTEX
  8
2
 10
-84.15470053837925
 20
-85.0
  0
VERTEX
  8
2
 10
-81.84529946162076
 20
-85.0
  0
VERTEX
  8
2
 10
-80.69059892324151
 20
-83.0
  0
SEQEND
  8
2
  0
LINE
  8
2
  6
CONTINUOUS
 10
-87.25
 20
-200.0
 11
-87.25
 21
-195.5
  0
LINE
  8
2
  6
CONTINUOUS
 10
-78.75
 20
-200.0
 11
-78.75
 21
-195.5
  0
LINE
  8
2
  6
CONTINUOUS
 10
-86.75
 20
-195.0
 11
-79.25
 21
-195.0
  0
LINE
  8
2
  6
CONTINUOUS
 10
-78.75
 20
-195.5
 11
-79.25
 21
-195.0
  0
LINE
  8
2
  6
CONTINUOUS
 10
-86.75
 20
-195.0
 11
-87.25
 21
-195.5
  0
LINE
  8
2
  6
CONTINUOUS
 10
-78.75
 20
-195.5
 11
-87.25
 21
-195.5
  0
LINE
  8
2
  6
CONTINUOUS
 10
78.75
 20
-200.0
 11
78.75
 21
-195.5
  0
LINE
  8
2
  6
CONTINUOUS
 10
78.75
 20
-195.5
 11
79.25
 21
-195.0
  0
LINE
  8
2
  6
CONTINUOUS
 10
86.75
 20
-195.0
 11
79.25
 21
-195.0
  0
LINE
  8
2
  6
CONTINUOUS
 10
87.25
 20
-200.0
 11
87.25
 21
-195.5
  0
LINE
  8
2
  6
CONTINUOUS
 10
86.75
 20
-195.0
 11
87.25
 21
-195.5
  0
LINE
  8
2
  6
CONTINUOUS
 10
78.75
 20
-195.5
 11
87.25
 21
-195.5
  0
LINE
  8
2
  6
CONTINUOUS
 10
-78.75
 20
-200.0
 11
-78.75
 21
-195.5
  0
LINE
  8
2
  6
CONTINUOUS
 10
-78.75
 20
-195.5
 11
-79.25
 21
-195.0
  0
LINE
  8
2
  6
CONTINUOUS
 10
-86.75
 20
-195.0
 11
-79.25
 21
-195.0
  0
LINE
  8
2
  6
CONTINUOUS
 10
-87.25
 20
-200.0
 11
-87.25
 21
-195.5
  0
LINE
  8
2
  6
CONTINUOUS
 10
-86.75
 20
-195.0
 11
-87.25
 21
-195.5
  0
LINE
  8
2
  6
CONTINUOUS
 10
-78.75
 20
-195.5
 11
-87.25
 21
-195.5
  0
LINE
  8
2
  6
CONTINUOUS
 10
230.6679396181704
 20
-111.9095151652415
 11
234.5068264509689
 21
-111.9095151652415
  0
LINE
  8
2
  6
CONTINUOUS
 10
230.6679396181704
 20
-111.9095151652415
 11
229.5068264509689
 21
-113.9206221641715
  0
LINE
  8
3
  6
CONTINUOUS
 10
250.5068264509689
 20
-126.9206221641715
 11
227.5068264509689
 21
-126.9206221641715
  0
LINE
  8
2
  6
CONTINUOUS
 10
229.5068264509689
 20
-113.9206221641715
 11
229.5068264509689
 21
-139.9206221641715
  0
LINE
  8
2
  6
CONTINUOUS
 10
234.5068264509689
 20
-111.9095151652415
 11
234.5068264509689
 21
-141.9317291631026
  0
LINE
  8
2
  6
CONTINUOUS
 10
247.3448264509689
 20
-116.4431221641715
 11
236.5068264509689
 21
-116.4431221641715
  0
LINE
  8
2
  6
CONTINUOUS
 10
247.3448264509689
 20
-116.4431221641715
 11
248.5068264509689
 21
-117.6051221641715
  0
LINE
  8
2
  6
CONTINUOUS
 10
248.5068264509689
 20
-117.6051221641715
 11
236.5068264509689
 21
-117.6051221641715
  0
LINE
  8
2
  6
CONTINUOUS
 10
236.5068264509689
 20
-117.6051221641715
 11
234.5068264509689
 21
-117.6051221641715
  0
LINE
  8
2
  6
CONTINUOUS
 10
236.5068264509689
 20
-116.4431221641715
 11
236.5068264509689
 21
-137.3981221641716
  0
LINE
  8
2
  6
CONTINUOUS
 10
248.5068264509689
 20
-117.6051221641715
 11
248.5068264509689
 21
-136.2361221641716
  0
LINE
  8
2
  6
CONTINUOUS
 10
230.6679396181704
 20
-141.9317291631026
 11
229.5068264509689
 21
-139.9206221641715
  0
LINE
  8
2
  6
CONTINUOUS
 10
247.3448264509689
 20
-137.3981221641716
 11
248.5068264509689
 21
-136.2361221641716
  0
LINE
  8
2
  6
CONTINUOUS
 10
247.3448264509689
 20
-137.3981221641716
 11
236.5068264509689
 21
-137.3981221641716
  0
LINE
  8
2
  6
CONTINUOUS
 10
230.6679396181704
 20
-141.9317291631026
 11
234.5068264509689
 21
-141.9317291631026
  0
LINE
  8
2
  6
CONTINUOUS
 10
248.5068264509689
 20
-136.2361221641716
 11
236.5068264509689
 21
-136.2361221641716
  0
LINE
  8
2
  6
CONTINUOUS
 10
236.5068264509689
 20
-136.2361221641716
 11
234.5068264509689
 21
-136.2361221641716
  0
LINE
  8
2
  6
CONTINUOUS
 10
187.0068264509689
 20
-111.9095151652415
 11
174.0068264509689
 21
-119.4150686647065
  0
LINE
  8
2
  6
CONTINUOUS
 10
174.0068264509689
 20
-119.4150686647065
 11
174.0068264509689
 21
-134.4261756636365
  0
LINE
  8
2
  6
CONTINUOUS
 10
174.0068264509689
 20
-134.4261756636365
 11
187.0068264509689
 21
-141.9317291631026
  0
LINE
  8
2
  6
CONTINUOUS
 10
187.0068264509689
 20
-141.9317291631026
 11
200.0068264509689
 21
-134.4261756636365
  0
LINE
  8
2
  6
CONTINUOUS
 10
200.0068264509689
 20
-134.4261756636365
 11
200.0068264509689
 21
-119.4150686647065
  0
LINE
  8
2
  6
CONTINUOUS
 10
200.0068264509689
 20
-119.4150686647065
 11
187.0068264509689
 21
-111.9095151652415
  0
CIRCLE
  8
2
  6
CONTINUOUS
 10
187.0068264509689
 20
-126.9206221641715
 40
13.0
  0
LINE
  8
2
  6
CONTINUOUS
 10
230.6679396181704
 20
-119.4150686647065
 11
234.5068264509689
 21
-119.4150686647065
  0
LINE
  8
2
  6
CONTINUOUS
 10
230.6679396181704
 20
-134.4261756636365
 11
234.5068264509689
 21
-134.4261756636365
  0
ARC
  8
2
  6
CONTINUOUS
 10
236.151965596869
 20
-115.6622919149745
 40
6.645139145900101
 50
154.3842474680383
 51
214.3842474680381
  0
ARC
  8
2
  6
CONTINUOUS
 10
254.3457132837677
 20
-126.9206221641715
 40
24.83888683279875
 50
162.4120462260067
 51
197.5879537739933
  0
ARC
  8
2
  6
CONTINUOUS
 10
236.1519655968691
 20
-138.1789524133695
 40
6.645139145900261
 50
145.6157525319556
 51
205.6157525319616
  0
LINE
  8
2
  6
CONTINUOUS
 10
247.3448264509689
 20
-116.4431221641715
 11
247.3448264509689
 21
-137.3981221641716
  0
LINE
  8
3
  6
CONTINUOUS
 10
172.0068264509689
 20
-126.9206221641715
 11
202.0068264509689
 21
-126.9206221641715
  0
LINE
  8
3
  6
CONTINUOUS
 10
187.0068264509689
 20
-143.9317291631026
 11
187.0068264509689
 21
-109.9095151652415
  0
POLYLINE
  8
5
  6
CONTINUOUS
 66
     1
 70
     0
 40
0.0
 41
0.0
  0
VERTEX
  8
5
 10
155.1284075237539
 20
-96.05421653623353
  0
VERTEX
  8
5
 10
265.6908604697294
 20
-96.05421653623353
  0
VERTEX
  8
5
 10
265.6908604697294
 20
-170.6901973578875
  0
VERTEX
  8
5
 10
155.1284075237539
 20
-170.6901973578875
  0
VERTEX
  8
5
 10
155.1284075237539
 20
-96.05421653623353
  0
SEQEND
  8
5
  0
POLYLINE
  8
4
  6
CONTINUOUS
 66
     1
 70
     0
 40
0.0
 41
0.0
  0
VERTEX
  8
4
 10
193.6546325683594
 20
-154.0892944335938
  0
VERTEX
  8
4
 10
194.9671325683594
 20
-154.5580444335938
  0
SEQEND
  8
4
  0
POLYLINE
  8
4
  6
CONTINUOUS
 66
     1
 70
     0
 40
0.0
 41
0.0
  0
VERTEX
  8
4
 10
193.4671325683594
 20
-155.6830444335938
  0
VERTEX
  8
4
 10
194.7796325683594
 20
-156.0580444335938
  0
SEQEND
  8
4
  0
POLYLINE
  8
4
  6
CONTINUOUS
 66
     1
 70
     0
 40
0.0
 41
0.0
  0
VERTEX
  8
4
 10
193.5608825683594
 20
-158.3080444335938
 42
0.2042364610766488
  0
VERTEX
  8
4
 10
197.5921325683594
 20
-155.7767944335938
  0
SEQEND
  8
4
  0
POLYLINE
  8
4
  6
CONTINUOUS
 66
     1
 70
     0
 40
0.0
 41
0.0
  0
VERTEX
  8
4
 10
199.6546325683594
 20
-156.0580444335938
  0
VERTEX
  8
4
 10
200.1233825683594
 20
-156.1517944335938
  0
VERTEX
  8
4
 10
204.8108825683594
 20
-156.1517944335938
  0
SEQEND
  8
4
  0
POLYLINE
  8
4
  6
CONTINUOUS
 66
     1
 70
     0
 40
0.0
 41
0.0
  0
VERTEX
  8
4
 10
208.1858825683594
 20
-154.3705444335938
  0
VERTEX
  8
4
 10
208.1858825683594
 20
-155.0267944335938
  0
SEQEND
  8
4
  0
POLYLINE
  8
4
  6
CONTINUOUS
 66
     1
 70
     0
 40
0.0
 41
0.0
  0
VERTEX
  8
4
 10
209.6858825683594
 20
-154.0892944335938
  0
VERTEX
  8
4
 10
209.6858825683594
 20
-158.1205444335938
  0
SEQEND
  8
4
  0
POLYLINE
  8
4
  6
CONTINUOUS
 66
     1
 70
     0
 40
0.0
 41
0.0
  0
VERTEX
  8
4
 10
211.9358825683594
 20
-156.1517944335938
 42
-0.2864583333333332
  0
VERTEX
  8
4
 10
209.6858825683594
 20
-158.1205444335938
  0
SEQEND
  8
4
  0
POLYLINE
  8
4
  6
CONTINUOUS
 66
     1
 70
     0
 40
0.0
 41
0.0
  0
VERTEX
  8
4
 10
206.8733825683594
 20
-158.0267944335938
 42
0.2431846149412835
  0
VERTEX
  8
4
 10
208.1858825683594
 20
-155.0267944335938
  0
SEQEND
  8
4
  0
POLYLINE
  8
4
  6
CONTINUOUS
 66
     1
 70
     0
 40
0.0
 41
0.0
  0
VERTEX
  8
4
 10
217.8421325683594
 20
-154.2767944335938
  0
VERTEX
  8
4
 10
213.7171325683594
 20
-154.2767944335938
  0
SEQEND
  8
4
  0
POLYLINE
  8
4
  6
CONTINUOUS
 66
     1
 70
     0
 40
0.0
 41
0.0
  0
VERTEX
  8
4
 10
219.4358825683594
 20
-153.7142944335938
 42
0.9999999999999999
  0
VERTEX
  8
4
 10
218.3108825683594
 20
-153.7142944335938
 42
0.9999999999999999
  0
VERTEX
  8
4
 10
219.4358825683594
 20
-153.7142944335938
  0
SEQEND
  8
4
  0
POLYLINE
  8
4
  6
CONTINUOUS
 66
     1
 70
     0
 40
0.0
 41
0.0
  0
VERTEX
  8
4
 10
214.7483825683594
 20
-158.2142944335938
 42
0.4118697494452291
  0
VERTEX
  8
4
 10
217.8421325683594
 20
-154.2767944335938
  0
SEQEND
  8
4
  0
POLYLINE
  8
4
  6
CONTINUOUS
 66
     1
 70
     0
 40
0.0
 41
0.0
  0
VERTEX
  8
4
 10
221.8733825683594
 20
-153.9955444335938
  0
VERTEX
  8
4
 10
225.2483825683594
 20
-153.9955444335938
  0
SEQEND
  8
4
  0
POLYLINE
  8
4
  6
CONTINUOUS
 66
     1
 70
     0
 40
0.0
 41
0.0
  0
VERTEX
  8
4
 10
221.5921325683594
 20
-155.4017944335938
  0
VERTEX
  8
4
 10
225.7171325683594
 20
-155.4017944335938
  0
SEQEND
  8
4
  0
POLYLINE
  8
4
  6
CONTINUOUS
 66
     1
 70
     0
 40
0.0
 41
0.0
  0
VERTEX
  8
4
 10
222.4358825683594
 20
-158.4017944335938
 42
0.4139408232705142
  0
VERTEX
  8
4
 10
225.7171325683594
 20
-155.4017944335938
  0
SEQEND
  8
4
  0
POLYLINE
  8
4
  6
CONTINUOUS
 66
     1
 70
     0
 40
0.0
 41
0.0
  0
VERTEX
  8
4
 10
229.6546325683594
 20
-153.9017944335938
  0
VERTEX
  8
4
 10
232.2796325683594
 20
-153.9017944335938
  0
SEQEND
  8
4
  0
POLYLINE
  8
4
  6
CONTINUOUS
 66
     1
 70
     0
 40
0.0
 41
0.0
  0
VERTEX
  8
4
 10
233.6858825683594
 20
-153.8080444335938
  0
VERTEX
  8
4
 10
233.1233825683594
 20
-153.0580444335938
  0
SEQEND
  8
4
  0
POLYLINE
  8
4
  6
CONTINUOUS
 66
     1
 70
     0
 40
0.0
 41
0.0
  0
VERTEX
  8
4
 10
232.9358825683594
 20
-153.8080444335938
  0
VERTEX
  8
4
 10
232.4671325683594
 20
-153.0580444335938
  0
SEQEND
  8
4
  0
POLYLINE
  8
4
  6
CONTINUOUS
 66
     1
 70
     0
 40
0.0
 41
0.0
  0
VERTEX
  8
4
 10
229.6546325683594
 20
-153.9017944335938
 42
-0.1058315368958192
  0
VERTEX
  8
4
 10
228.1546325683594
 20
-155.6830444335938
  0
SEQEND
  8
4
  0
POLYLINE
  8
4
  6
CONTINUOUS
 66
     1
 70
     0
 40
0.0
 41
0.0
  0
VERTEX
  8
4
 10
232.2796325683594
 20
-153.9017944335938
 42
-0.3202169049149385
  0
VERTEX
  8
4
 10
228.5296325683594
 20
-158.4955444335938
  0
SEQEND
  8
4
  0
ENDSEC
  0
EOF
