  0
SECTION
  2
HEADER
  9
$ACADVER
  1
AC1015
  9
$ACADMAINTVER
 70
     0
  9
$DWGCODEPAGE
  3
ANSI_932
  9
$INSBASE
 10
0.0
 20
0.0
 30
0.0
  9
$EXTMIN
 10
-55.0
 20
-45.0
  9
$EXTMAX
 10
104.0
 20
45.0
  9
$LIMMIN
 10
-55.0
 20
-45.0
  9
$LIMMAX
 10
104.0
 20
45.0
  9
$ORTHOMODE
 70
     0
  9
$REGENMODE
 70
     1
  9
$FILLMODE
 70
     1
  9
$QTEXTMODE
 70
     0
  9
$MIRRTEXT
 70
     1
  9
$LTSCALE
 40
1.0
  9
$OSMODE
 70
     0
  9
$ATTMODE
 70
     1
  9
$TEXTSIZE
 40
3.0
  9
$TRACEWID
 40
0.5
  9
$TEXTSTYLE
  7
STANDARD
  9
$CLAYER
  8
0
  9
$CELTYPE
  6
BYLAYER
  9
$CECOLOR
 62
   256
  9
$CELTSCALE
 40
1.0
  9
$DISPSILH
 70
     0
  9
$DIMSCALE
 40
1.0
  9
$DIMASZ
 40
3.0
  9
$DIMEXO
 40
1.0
  9
$DIMDLI
 40
5.0
  9
$DIMRND
 40
0.0
  9
$DIMDLE
 40
5.0
  9
$DIMEXE
 40
2.0
  9
$DIMTP
 40
0.0
  9
$DIMTM
 40
0.0
  9
$DIMTXT
 40
3.0
  9
$DIMCEN
 40
2.0
  9
$DIMTSZ
 40
0.0
  9
$DIMTOL
 70
     0
  9
$DIMLIM
 70
     0
  9
$DIMTIH
 70
     0
  9
$DIMTOH
 70
     0
  9
$DIMSE1
 70
     0
  9
$DIMSE2
 70
     0
  9
$DIMTAD
 70
     1
  9
$DIMZIN
 70
     8
  9
$DIMBLK
  1

  9
$DIMASO
 70
     1
  9
$DIMSHO
 70
     1
  9
$DIMPOST
  1

  9
$DIMAPOST
  1

  9
$DIMALT
 70
     0
  9
$DIMALTD
 70
     0
  9
$DIMALTF
 40
25.4
  9
$DIMLFAC
 40
1.0
  9
$DIMTOFL
 70
     1
  9
$DIMTVP
 40
1.0
  9
$DIMTIX
 70
     0
  9
$DIMSOXD
 70
     0
  9
$DIMSAH
 70
     0
  9
$DIMBLK1
  1

  9
$DIMBLK2
  1

  9
$DIMSTYLE
  2
ISO-25
  9
$DIMCLRD
 70
     0
  9
$DIMCLRE
 70
     0
  9
$DIMCLRT
 70
     0
  9
$DIMTFAC
 40
1.0
  9
$DIMGAP
 40
0.5
  9
$DIMJUST
 70
     0
  9
$DIMSD1
 70
     0
  9
$DIMSD2
 70
     0
  9
$DIMTOLJ
 70
     0
  9
$DIMTZIN
 70
     8
  9
$DIMALTZ
 70
     0
  9
$DIMALTTZ
 70
     0
  9
$DIMUPT
 70
     0
  9
$DIMDEC
 70
     2
  9
$DIMTDEC
 70
     2
  9
$DIMALTU
 70
     2
  9
$DIMALTTD
 70
     3
  9
$DIMTXSTY
  7
STANDARD
  9
$DIMAUNIT
 70
     0
  9
$DIMADEC
 70
     0
  9
$DIMALTRND
 40
0.0
  9
$DIMAZIN
 70
     0
  9
$DIMDSEP
 70
    46
  9
$DIMATFIT
 70
     3
  9
$DIMFRAC
 70
     0
  9
$DIMLDRBLK
  1

  9
$DIMLUNIT
 70
     2
  9
$DIMLWD
 70
    -2
  9
$DIMLWE
 70
    -2
  9
$DIMTMOVE
 70
     0
  9
$LUNITS
 70
     2
  9
$LUPREC
 70
     4
  9
$SKETCHINC
 40
1.0
  9
$FILLETRAD
 40
0.0
  9
$AUNITS
 70
     0
  9
$AUPREC
 70
     0
  9
$MENU
  1
.
  9
$ELEVATION
 40
0.0
  9
$PELEVATION
 40
0.0
  9
$THICKNESS
 40
0.0
  9
$LIMCHECK
 70
     0
  9
$CHAMFERA
 40
0.0
  9
$CHAMFERB
 40
0.0
  9
$CHAMFERC
 40
0.0
  9
$CHAMFERD
 40
0.0
  9
$SKPOLY
 70
     0
  9
$TDCREATE
 40
2454089.714652778
  9
$TDUCREATE
 40
2454089.714652778
  9
$TDUPDATE
 40
2454089.714652778
  9
$TDUUPDATE
 40
2454089.714652778
  9
$TDINDWG
 40
0.0
  9
$TDUSRTIMER
 40
0.0
  9
$USRTIMER
 70
     1
  9
$ANGBASE
 50
0.0
  9
$ANGDIR
 70
     0
  9
$PDMODE
 70
     0
  9
$PDSIZE
 40
0.0
  9
$PLINEWID
 40
0.0
  9
$SPLFRAME
 70
     0
  9
$SPLINETYPE
 70
     6
  9
$SPLINESEGS
 70
     8
  9
$HANDSEED
  5
8A
  9
$SURFTAB1
 70
     6
  9
$SURFTAB2
 70
     6
  9
$SURFTYPE
 70
     6
  9
$SURFU
 70
     6
  9
$SURFV
 70
     6
  9
$UCSBASE
  2

  9
$UCSNAME
  2

  9
$UCSORG
 10
0.0
 20
0.0
 30
0.0
  9
$UCSXDIR
 10
1.0
 20
0.0
 30
0.0
  9
$UCSYDIR
 10
0.0
 20
1.0
 30
0.0
  9
$UCSORTHOREF
  2

  9
$UCSORTHOVIEW
 70
     0
  9
$UCSORGTOP
 10
0.0
 20
0.0
 30
0.0
  9
$UCSORGBOTTOM
 10
0.0
 20
0.0
 30
0.0
  9
$UCSORGLEFT
 10
0.0
 20
0.0
 30
0.0
  9
$UCSORGRIGHT
 10
0.0
 20
0.0
 30
0.0
  9
$UCSORGFRONT
 10
0.0
 20
0.0
 30
0.0
  9
$UCSORGBACK
 10
0.0
 20
0.0
 30
0.0
  9
$PUCSBASE
  2

  9
$PUCSNAME
  2

  9
$PUCSORG
 10
0.0
 20
0.0
 30
0.0
  9
$PUCSXDIR
 10
1.0
 20
0.0
 30
0.0
  9
$PUCSYDIR
 10
0.0
 20
1.0
 30
0.0
  9
$PUCSORTHOREF
  2

  9
$PUCSORTHOVIEW
 70
     0
  9
$PUCSORGTOP
 10
0.0
 20
0.0
 30
0.0
  9
$PUCSORGBOTTOM
 10
0.0
 20
0.0
 30
0.0
  9
$PUCSORGLEFT
 10
0.0
 20
0.0
 30
0.0
  9
$PUCSORGRIGHT
 10
0.0
 20
0.0
 30
0.0
  9
$PUCSORGFRONT
 10
0.0
 20
0.0
 30
0.0
  9
$PUCSORGBACK
 10
0.0
 20
0.0
 30
0.0
  9
$USERI1
 70
     0
  9
$USERI2
 70
     0
  9
$USERI3
 70
     0
  9
$USERI4
 70
     0
  9
$USERI5
 70
     0
  9
$USERR1
 40
0.0
  9
$USERR2
 40
0.0
  9
$USERR3
 40
0.0
  9
$USERR4
 40
0.0
  9
$USERR5
 40
0.0
  9
$WORLDVIEW
 70
     1
  9
$SHADEDGE
 70
     3
  9
$SHADEDIF
 70
    70
  9
$MAXACTVP
 70
    16
  9
$PINSBASE
 10
0.0
 20
0.0
 30
0.0
  9
$PLIMCHECK
 70
     0
  9
$PEXTMIN
 10
1.000000E+20
 20
1.000000E+20
 30
1.000000E+20
  9
$PEXTMAX
 10
-1.000000E+20
 20
-1.000000E+20
 30
-1.000000E+20
  9
$PLIMMIN
 10
-55.0
 20
-45.0
  9
$PLIMMAX
 10
104.0
 20
45.0
  9
$UNITMODE
 70
     0
  9
$VISRETAIN
 70
     0
  9
$PLINEGEN
 70
     0
  9
$PSLTSCALE
 70
     0
  9
$TREEDEPTH
 70
  3020
  9
$CMLSTYLE
  2
STANDARD
  9
$CMLJUST
 70
     0
  9
$CMLSCALE
 40
1.0
  9
$PROXYGRAPHICS
 70
     1
  9
$MEASUREMENT
 70
     0
  9
$CELWEIGHT
370
    -3
  9
$ENDCAPS
280
     0
  9
$JOINSTYLE
280
     0
  9
$LWDISPLAY
290
     1
  9
$INSUNITS
 70
     0
  9
$HYPERLINKBASE
  1

  9
$STYLESHEET
  1

  9
$XEDIT
290
     1
  9
$CEPSNTYPE
380
     0
  9
$PSTYLEMODE
290
     1
  9
$FINGERPRINTGUID
  2
{6F25CFC2-5053-11D3-9BE9-00805F4AB38E}
  9
$VERSIONGUID
  2
{6F25CFC5-5053-11D3-9BE9-00805F4AB38E}
  9
$EXTNAMES
290
     1
  9
$PSVPSCALE
 40
0.0
  9
$OLESTARTUP
290
     0
  0
ENDSEC
  0
SECTION
  2
CLASSES
  0
CLASS
  1
LWPOLYLINE
  2
AcDbPolyline
  3
AutoCAD 2000
 90
    32768
280
     0
281
     1
  0
CLASS
  1
DICTIONARYVAR
  2
AcDbDictionaryVar
  3
AutoCAD 2000
 90
        0
280
     0
281
     1
  0
CLASS
  1
ACDBDICTIONARYWDFLT
  2
AcDbDictionaryWithDefault
  3
AutoCAD 2000
 90
        0
280
     0
281
     1
  0
CLASS
  1
ACDBPLACEHOLDER
  2
AcDbPlaceHolder
  3
AutoCAD 2000
 90
        0
280
     0
281
     1
  0
CLASS
  1
LAYOUT
  2
AcDbLayout
  3
AutoCAD 2000
 90
        0
280
     0
281
     1
  0
CLASS
  1
HATCH
  2
AcDbHatch
  3
AutoCAD 2000
 90
        0
280
     0
281
     1
  0
ENDSEC
  0
SECTION
  2
TABLES
  0
TABLE
  2
VPORT
  5
8
100
AcDbSymbolTable
 70
     1
  0
VPORT
  5
80
330
0
100
AcDbSymbolTableRecord
100
AcDbViewportTableRecord
  2
*ACTIVE
 70
     0
 10
0.0
 20
0.0
 11
1.0
 21
1.0
 12
24.5
 22
0.0
 13
0.0
 23
0.0
 14
0.0
 24
0.0
 15
0.0
 25
0.0
 16
0.0
 26
0.0
 36
1.0
 17
0.0
 27
0.0
 37
0.0
 40
159.0
 41
1.5
 42
50.0
 43
0.0
 44
0.0
 50
0.0
 51
0.0
 71
     0
 72
   100
 73
     1
 74
     1
 75
     0
 76
     0
 77
     0
 78
     0
281
     0
 65
     1
110
0.0
120
0.0
130
0.0
111
1.0
121
0.0
131
0.0
112
0.0
122
1.0
132
0.0
 79
     0
146
0.0
  0
ENDTAB
  0
TABLE
  2
LTYPE
  5
5
330
0
100
AcDbSymbolTable
 70
    20
  0
LTYPE
  5
81
330
5
100
AcDbSymbolTableRecord
100
AcDbLinetypeTableRecord
  2
BYBLOCK
 70
     0
  3

 72
    65
 73
     0
 40
0.0
  0
LTYPE
  5
82
330
5
100
AcDbSymbolTableRecord
100
AcDbLinetypeTableRecord
  2
BYLAYER
 70
     0
  3

 72
    65
 73
     0
 40
0.0
  0
LTYPE
  5
83
330
5
100
AcDbSymbolTableRecord
100
AcDbLinetypeTableRecord
  2
CONTINUOUS
 70
    64
  3
solid line
 72
    65
 73
     0
 40
0.0
  0
LTYPE
  5
84
330
0
100
AcDbSymbolTableRecord
100
AcDbLinetypeTableRecord
  2
DASHED
 70
    64
  3
-- -- -- -- -- -- -- -- -- -- 
 72
    65
 73
     2
 40
3.0
 49
2.0
 74
     0
 49
-1.0
 74
     0
  0
LTYPE
  5
85
330
0
100
AcDbSymbolTableRecord
100
AcDbLinetypeTableRecord
  2
CENTER
 70
    64
  3
--- - --- - --- - --- - --- - 
 72
    65
 73
     4
 40
6.0
 49
3.0
 74
     0
 49
-1.0
 74
     0
 49
1.0
 74
     0
 49
-1.0
 74
     0
  0
ENDTAB
  0
TABLE
  2
LAYER
  5
2
330
0
100
AcDbSymbolTable
 70
    20
  0
LAYER
  5
86
330
2
100
AcDbSymbolTableRecord
100
AcDbLayerTableRecord
  2
0
 70
    64
 62
     7
  6
CONTINUOUS
370
    -3
390
7C
  0
LAYER
  5
25
330
2
100
AcDbSymbolTableRecord
100
AcDbLayerTableRecord
  2
100
 70
    64
 62
     7
  6
CONTINUOUS
370
    -3
390
7C
  0
ENDTAB
  0
TABLE
  2
STYLE
  5
3
330
0
100
AcDbSymbolTable
 70
     4
  0
STYLE
  5
87
330
3
100
AcDbSymbolTableRecord
100
AcDbTextStyleTableRecord
  2
STANDARD
 70
    64
 40
0.0
 41
1.052631578947368
 50
0.0
 71
     0
 42
3.0
  3
monotxt
  4

  0
ENDTAB
  0
TABLE
  2
VIEW
  5
6
330
0
100
AcDbSymbolTable
 70
     0
  0
ENDTAB
  0
TABLE
  2
UCS
  5
7
330
0
100
AcDbSymbolTable
 70
     0
  0
ENDTAB
  0
TABLE
  2
APPID
  5
9
330
0
100
AcDbSymbolTable
 70
     1
  0
APPID
  5
88
330
9
100
AcDbSymbolTableRecord
100
AcDbRegAppTableRecord
  2
ACAD
 70
     0
  0
ENDTAB
  0
TABLE
  2
DIMSTYLE
  5
A
330
0
100
AcDbSymbolTable
 70
     8
100
AcDbDimStyleTable
 71
     0
  0
DIMSTYLE
105
89
330
A
100
AcDbSymbolTableRecord
100
AcDbDimStyleTableRecord
  2
ISO-25
 70
     0
  3

  4

  5

  6

  7

 40
1.0
 41
3.0
 42
1.0
 43
5.0
 44
2.0
 45
0.0
 46
5.0
 47
0.0
 48
0.0
140
3.0
141
2.0
142
0.0
143
25.4
144
1.0
145
1.0
146
1.0
147
0.5
 71
     0
 72
     0
 73
     0
 74
     0
 75
     0
 76
     0
 77
     1
 78
     8
170
     0
171
     0
172
     1
173
     0
174
     0
175
     0
176
     0
177
     0
178
     0
270
     0
271
     2
272
     2
273
     2
274
     3
340
87
275
     0
277
     2
280
     0
281
     0
282
     0
283
     0
284
     8
285
     0
286
     0
287
     3
288
     0
  0
ENDTAB
  0
TABLE
  2
BLOCK_RECORD
  5
1
330
0
100
AcDbSymbolTable
 70
     2
  0
BLOCK_RECORD
  5
20
330
1
100
AcDbSymbolTableRecord
100
AcDbBlockTableRecord
  2
*MODEL_SPACE
340
7D
  0
BLOCK_RECORD
  5
22
330
1
100
AcDbSymbolTableRecord
100
AcDbBlockTableRecord
  2
*PAPER_SPACE
340
0
  0
ENDTAB
  0
ENDSEC
  0
SECTION
  2
BLOCKS
  0
BLOCK
  5
21
330
20
100
AcDbEntity
  8
0
100
AcDbBlockBegin
  2
*MODEL_SPACE
 70
     0
 10
0.0
 20
0.0
 30
0.0
  3
*MODEL_SPACE
  1

  0
ENDBLK
  5
7E
330
20
100
AcDbEntity
  8
0
100
AcDbBlockEnd
  0
BLOCK
  5
23
330
22
100
AcDbEntity
 67
     1
  8
0
100
AcDbBlockBegin
  2
*PAPER_SPACE
 70
     0
 10
0.0
 20
0.0
 30
0.0
  3
*PAPER_SPACE
  1

  0
ENDBLK
  5
7F
330
22
100
AcDbEntity
 67
     1
  8
0
100
AcDbBlockEnd
  0
ENDSEC
  0
SECTION
  2
ENTITIES
  0
LINE
  5
24
330
20
100
AcDbEntity
  8
100
  6
CONTINUOUS
100
AcDbLine
 10
30.0
 20
38.0
 11
-30.0
 21
38.0
  0
LINE
  5
26
330
20
100
AcDbEntity
  8
100
  6
CONTINUOUS
100
AcDbLine
 10
30.0
 20
-38.0
 11
-30.0
 21
-38.0
  0
LINE
  5
27
330
20
100
AcDbEntity
  8
100
  6
CONTINUOUS
100
AcDbLine
 10
8.0
 20
10.95
 11
-8.0
 21
10.95
  0
LINE
  5
28
330
20
100
AcDbEntity
  8
100
  6
CONTINUOUS
100
AcDbLine
 10
30.0
 20
20.0
 11
10.93214938227915
 21
20.0
  0
ARC
  5
29
330
20
100
AcDbEntity
  8
100
  6
CONTINUOUS
100
AcDbCircle
 10
7.999999999999993
 20
15.95
 40
5.000000000000005
100
AcDbArc
 50
54.09593141668283
 51
90.0
  0
ARC
  5
2A
330
20
100
AcDbEntity
  8
100
  6
CONTINUOUS
100
AcDbCircle
 10
7.999999999999993
 20
15.95
 40
5.000000000000004
100
AcDbArc
 50
270.0
 51
307.8144885060143
  0
CIRCLE
  5
2B
330
20
100
AcDbEntity
  8
100
  6
CONTINUOUS
100
AcDbCircle
 10
0.0
 20
0.0
 40
11.0
  0
ARC
  5
2C
330
20
100
AcDbEntity
  8
100
  6
CONTINUOUS
100
AcDbCircle
 10
-7.999999999999993
 20
-15.94999999999999
 40
5.000000000000004
100
AcDbArc
 50
90.0
 51
127.8144885060143
  0
LINE
  5
2D
330
20
100
AcDbEntity
  8
100
  6
CONTINUOUS
100
AcDbLine
 10
-8.0
 20
-10.95
 11
8.0
 21
-10.95
  0
LINE
  5
2E
330
20
100
AcDbEntity
  8
100
  6
CONTINUOUS
100
AcDbLine
 10
-8.0
 20
-20.95
 11
8.0
 21
-20.95
  0
ARC
  5
2F
330
20
100
AcDbEntity
  8
100
  6
CONTINUOUS
100
AcDbCircle
 10
-7.999999999999993
 20
-15.94999999999999
 40
5.000000000000005
100
AcDbArc
 50
234.0959314166828
 51
270.0
  0
LINE
  5
30
330
20
100
AcDbEntity
  8
100
  6
CONTINUOUS
100
AcDbLine
 10
-30.0
 20
-20.0
 11
-10.93214938227915
 21
-20.0
  0
LINE
  5
31
330
20
100
AcDbEntity
  8
100
  6
CONTINUOUS
100
AcDbLine
 10
-30.0
 20
-12.0
 11
-30.0
 21
38.0
  0
LINE
  5
32
330
20
100
AcDbEntity
  8
100
  6
CONTINUOUS
100
AcDbLine
 10
-30.0
 20
-38.0
 11
-30.0
 21
-20.0
  0
LINE
  5
33
330
20
100
AcDbEntity
  8
100
  6
CONTINUOUS
100
AcDbLine
 10
30.0
 20
20.0
 11
30.0
 21
38.0
  0
LINE
  5
34
330
20
100
AcDbEntity
  8
100
  6
CONTINUOUS
100
AcDbLine
 10
30.0
 20
-38.0
 11
30.0
 21
12.0
  0
LINE
  5
35
330
20
100
AcDbEntity
  8
100
  6
CONTINUOUS
100
AcDbLine
 10
6.0
 20
20.94999999999999
 11
-6.0
 21
20.94999999999999
  0
LINE
  5
36
330
20
100
AcDbEntity
  8
100
  6
CONTINUOUS
100
AcDbLine
 10
8.0
 20
20.95
 11
-7.999999999999993
 21
20.95
  0
LINE
  5
37
330
20
100
AcDbEntity
  8
100
  6
CONTINUOUS
100
AcDbLine
 10
6.0
 20
-20.95
 11
-6.0
 21
-20.95
  0
LINE
  5
38
330
20
100
AcDbEntity
  8
100
  6
DASHED
100
AcDbLine
 10
6.0
 20
20.94999999999999
 11
6.0
 21
38.0
  0
LINE
  5
39
330
20
100
AcDbEntity
  8
100
  6
DASHED
100
AcDbLine
 10
5.0
 20
20.94999999999999
 11
5.0
 21
38.0
  0
LINE
  5
3A
330
20
100
AcDbEntity
  8
100
  6
DASHED
100
AcDbLine
 10
-5.0
 20
20.94999999999999
 11
-5.0
 21
38.0
  0
LINE
  5
3B
330
20
100
AcDbEntity
  8
100
  6
DASHED
100
AcDbLine
 10
-6.0
 20
20.94999999999999
 11
-6.0
 21
38.0
  0
LINE
  5
3C
330
20
100
AcDbEntity
  8
100
  6
DASHED
100
AcDbLine
 10
-6.0
 20
-20.95
 11
-6.0
 21
-38.0
  0
LINE
  5
3D
330
20
100
AcDbEntity
  8
100
  6
DASHED
100
AcDbLine
 10
-5.0
 20
-20.95
 11
-5.0
 21
-38.0
  0
LINE
  5
3E
330
20
100
AcDbEntity
  8
100
  6
DASHED
100
AcDbLine
 10
5.0
 20
-20.95
 11
5.0
 21
-38.0
  0
LINE
  5
3F
330
20
100
AcDbEntity
  8
100
  6
DASHED
100
AcDbLine
 10
6.0
 20
-20.95
 11
6.0
 21
-38.0
  0
LINE
  5
40
330
20
100
AcDbEntity
  8
100
  6
CONTINUOUS
100
AcDbLine
 10
104.0
 20
38.0
 11
80.0
 21
38.0
  0
LINE
  5
41
330
20
100
AcDbEntity
  8
100
  6
CONTINUOUS
100
AcDbLine
 10
80.0
 20
-38.0
 11
104.0
 21
-38.0
  0
LINE
  5
42
330
20
100
AcDbEntity
  8
100
  6
CONTINUOUS
100
AcDbLine
 10
80.0
 20
20.0
 11
104.0
 21
20.0
  0
LINE
  5
43
330
20
100
AcDbEntity
  8
100
  6
CONTINUOUS
100
AcDbLine
 10
80.0
 20
12.0
 11
104.0
 21
12.0
  0
LINE
  5
44
330
20
100
AcDbEntity
  8
100
  6
CENTER
100
AcDbLine
 10
0.0
 20
-45.0
 11
0.0
 21
45.0
  0
ARC
  5
45
330
20
100
AcDbEntity
  8
100
  6
CONTINUOUS
100
AcDbCircle
 10
7.999999999999993
 20
-15.94999999999999
 40
5.000000000000005
100
AcDbArc
 50
270.0
 51
0.0
  0
ARC
  5
46
330
20
100
AcDbEntity
  8
100
  6
CONTINUOUS
100
AcDbCircle
 10
7.999999999999993
 20
-15.94999999999999
 40
5.000000000000007
100
AcDbArc
 50
0.0
 51
90.0
  0
ARC
  5
47
330
20
100
AcDbEntity
  8
100
  6
CONTINUOUS
100
AcDbCircle
 10
-7.999999999999993
 20
15.95
 40
5.000000000000007
100
AcDbArc
 50
90.0
 51
180.0
  0
ARC
  5
48
330
20
100
AcDbEntity
  8
100
  6
CONTINUOUS
100
AcDbCircle
 10
-7.999999999999993
 20
15.95
 40
5.000000000000007
100
AcDbArc
 50
180.0
 51
270.0
  0
LINE
  5
49
330
20
100
AcDbEntity
  8
100
  6
CONTINUOUS
100
AcDbLine
 10
30.0
 20
12.0
 11
13.0
 21
12.0
  0
LINE
  5
4A
330
20
100
AcDbEntity
  8
100
  6
CONTINUOUS
100
AcDbLine
 10
13.0
 20
12.0
 11
11.06553421119387
 21
12.0
  0
LINE
  5
4B
330
20
100
AcDbEntity
  8
100
  6
CONTINUOUS
100
AcDbLine
 10
-30.0
 20
-12.0
 11
-13.0
 21
-12.0
  0
LINE
  5
4C
330
20
100
AcDbEntity
  8
100
  6
CONTINUOUS
100
AcDbLine
 10
-13.0
 20
-12.0
 11
-11.06553421119387
 21
-12.0
  0
LINE
  5
4D
330
20
100
AcDbEntity
  8
100
  6
CENTER
100
AcDbLine
 10
-55.0
 20
0.0
 11
35.0
 21
0.0
  0
LINE
  5
4E
330
20
100
AcDbEntity
  8
100
  6
CONTINUOUS
100
AcDbLine
 10
80.0
 20
-38.0
 11
80.0
 21
38.0
  0
LINE
  5
4F
330
20
100
AcDbEntity
  8
100
  6
CONTINUOUS
100
AcDbLine
 10
104.0
 20
-38.0
 11
104.0
 21
38.0
  0
LINE
  5
50
330
20
100
AcDbEntity
  8
100
  6
CONTINUOUS
100
AcDbLine
 10
-37.0
 20
5.25
 11
-37.0
 21
-5.25
  0
LINE
  5
51
330
20
100
AcDbEntity
  8
100
  6
CONTINUOUS
100
AcDbLine
 10
-32.0
 20
6.25
 11
-36.0
 21
6.25
  0
LINE
  5
52
330
20
100
AcDbEntity
  8
100
  6
CONTINUOUS
100
AcDbLine
 10
-32.0
 20
-6.25
 11
-36.0
 21
-6.25
  0
ARC
  5
53
330
20
100
AcDbEntity
  8
100
  6
CONTINUOUS
100
AcDbCircle
 10
-36.0
 20
5.25
 40
1.0
100
AcDbArc
 50
90.0
 51
180.0
  0
ARC
  5
54
330
20
100
AcDbEntity
  8
100
  6
CONTINUOUS
100
AcDbCircle
 10
-36.0
 20
-5.25
 40
1.0
100
AcDbArc
 50
180.0
 51
270.0
  0
LINE
  5
55
330
20
100
AcDbEntity
  8
100
  6
CONTINUOUS
100
AcDbLine
 10
-37.0
 20
2.349999999999994
 11
-47.0
 21
2.349999999999994
  0
LINE
  5
56
330
20
100
AcDbEntity
  8
100
  6
CONTINUOUS
100
AcDbLine
 10
-37.0
 20
-2.349999999999994
 11
-47.0
 21
-2.349999999999994
  0
SPLINE
  5
57
330
20
100
AcDbEntity
  8
100
  6
CONTINUOUS
100
AcDbSpline
210
0.0
220
0.0
230
1.0
 70
     8
 71
     3
 72
    10
 73
     6
 74
     0
 42
1.000000000000000E-007
 43
1.000000000000000E-007
 40
0.0
 40
0.0
 40
0.0
 40
0.0
 40
1.84953485682255
 40
4.698274094653632
 40
6.547808951476168
 40
6.547808951476168
 40
6.547808951476168
 40
6.547808951476168
 10
-47.0
 20
2.350000000000051
 30
0.0
 10
-47.42857142857142
 20
2.107142857142776
 30
0.0
 10
-49.14285714285713
 20
1.135714285714307
 30
0.0
 10
-44.85714285714284
 20
-1.13571428571427
 30
0.0
 10
-46.57142857142856
 20
-2.107142857142833
 30
0.0
 10
-47.0
 20
-2.349999999999994
 30
0.0
  0
SPLINE
  5
58
330
20
100
AcDbEntity
  8
100
  6
CONTINUOUS
100
AcDbSpline
210
0.0
220
0.0
230
1.0
 70
     8
 71
     3
 72
    23
 73
    19
 74
     0
 42
1.000000000000000E-007
 43
1.000000000000000E-007
 40
0.0
 40
0.0
 40
0.0
 40
0.0
 40
0.2057576877758948
 40
0.4086688836076441
 40
0.6059370166385861
 40
0.7948765812926899
 40
0.9730010520352451
 40
1.138163965986984
 40
1.288802016870309
 40
1.424369618915564
 40
1.659307396414125
 40
1.875463615683955
 40
2.098421945266207
 40
2.336416356365354
 40
2.585232620043822
 40
2.834066609990156
 40
3.068855673588027
 40
3.273904475469551
 40
3.273904475469551
 40
3.273904475469551
 40
3.273904475469551
 10
-47.0
 20
2.842170943040401E-014
 30
0.0
 10
-47.05357142857143
 20
-0.04308035714283065
 30
0.0
 10
-47.16071428571469
 20
-0.1292410714288686
 30
0.0
 10
-47.31808035714305
 20
-0.2580845424108518
 30
0.0
 10
-47.46875000000014
 20
-0.3861328125000847
 30
0.0
 10
-47.60937500000009
 20
-0.5129882812500582
 30
0.0
 10
-47.73660714285715
 20
-0.6382533482142693
 30
0.0
 10
-47.8470982142858
 20
-0.7615304129465107
 30
0.0
 10
-47.9375
 20
-0.8824218749999915
 30
0.0
 10
-48.02678571428571
 20
-1.0398995535714
 30
0.0
 10
-48.07142857142857
 20
-1.228794642857123
 30
0.0
 10
-48.03627232142857
 20
-1.441489955357137
 30
0.0
 10
-47.93080357142858
 20
-1.638950892857112
 30
0.0
 10
-47.7734375
 20
-1.819921874999988
 30
0.0
 10
-47.58258928571421
 20
-1.98314732142861
 30
0.0
 10
-47.37667410714285
 20
-2.127371651785694
 30
0.0
 10
-47.17410714285714
 20
-2.251339285714274
 30
0.0
 10
-47.05357142857143
 20
-2.319642857142849
 30
0.0
 10
-47.0
 20
-2.349999999999994
 30
0.0
  0
LINE
  5
59
330
20
100
AcDbEntity
  8
100
  6
CONTINUOUS
100
AcDbLine
 10
-32.0
 20
2.968585521759479
 11
-37.0
 21
2.968585521759479
  0
LINE
  5
5A
330
20
100
AcDbEntity
  8
100
  6
CONTINUOUS
100
AcDbLine
 10
-32.0
 20
-2.968585521759479
 11
-37.0
 21
-2.968585521759479
  0
LINE
  5
5B
330
20
100
AcDbEntity
  8
100
  6
DASHED
100
AcDbLine
 10
84.5
 20
-10.50000000000001
 11
84.5
 21
10.5
  0
LINE
  5
5C
330
20
100
AcDbEntity
  8
100
  6
DASHED
100
AcDbLine
 10
85.0
 20
11.0
 11
86.0
 21
11.0
  0
LINE
  5
5D
330
20
100
AcDbEntity
  8
100
  6
DASHED
100
AcDbLine
 10
85.0
 20
-11.00000000000001
 11
86.0
 21
-11.00000000000001
  0
LINE
  5
5E
330
20
100
AcDbEntity
  8
100
  6
DASHED
100
AcDbLine
 10
85.0
 20
-11.00000000000001
 11
84.5
 21
-10.50000000000001
  0
LINE
  5
5F
330
20
100
AcDbEntity
  8
100
  6
DASHED
100
AcDbLine
 10
85.0
 20
11.0
 11
84.5
 21
10.5
  0
LINE
  5
60
330
20
100
AcDbEntity
  8
100
  6
DASHED
100
AcDbLine
 10
85.0
 20
-11.00000000000001
 11
85.0
 21
11.0
  0
LINE
  5
61
330
20
100
AcDbEntity
  8
100
  6
CONTINUOUS
100
AcDbLine
 10
-32.0
 20
6.25
 11
-32.0
 21
-6.25
  0
LINE
  5
62
330
20
100
AcDbEntity
  8
100
  6
CONTINUOUS
100
AcDbLine
 10
-30.0
 20
4.849999999999994
 11
-32.0
 21
4.849999999999994
  0
LINE
  5
63
330
20
100
AcDbEntity
  8
100
  6
CONTINUOUS
100
AcDbLine
 10
-30.0
 20
-4.849999999999994
 11
-32.0
 21
-4.849999999999994
  0
LINE
  5
64
330
20
100
AcDbEntity
  8
100
  6
CONTINUOUS
100
AcDbLine
 10
100.0
 20
-27.25
 11
100.0
 21
-3.25
  0
LINE
  5
65
330
20
100
AcDbEntity
  8
100
  6
CONTINUOUS
100
AcDbLine
 10
84.0
 20
-27.25
 11
84.0
 21
-3.25
  0
ARC
  5
66
330
20
100
AcDbEntity
  8
100
  6
CONTINUOUS
100
AcDbCircle
 10
92.0
 20
-3.25
 40
8.0
100
AcDbArc
 50
0.0
 51
180.0
  0
ARC
  5
67
330
20
100
AcDbEntity
  8
100
  6
CONTINUOUS
100
AcDbCircle
 10
92.0
 20
-27.25
 40
8.0
100
AcDbArc
 50
180.0
 51
0.0
  0
CIRCLE
  5
68
330
20
100
AcDbEntity
  8
100
  6
CONTINUOUS
100
AcDbCircle
 10
0.0
 20
0.0
 40
10.5
  0
LINE
  5
69
330
20
100
AcDbEntity
  8
100
  6
DASHED
100
AcDbLine
 10
99.5
 20
-10.50000000000001
 11
99.5
 21
10.5
  0
LINE
  5
6A
330
20
100
AcDbEntity
  8
100
  6
DASHED
100
AcDbLine
 10
99.0
 20
11.0
 11
98.0
 21
11.0
  0
LINE
  5
6B
330
20
100
AcDbEntity
  8
100
  6
DASHED
100
AcDbLine
 10
99.0
 20
-11.00000000000001
 11
98.0
 21
-11.00000000000001
  0
LINE
  5
6C
330
20
100
AcDbEntity
  8
100
  6
DASHED
100
AcDbLine
 10
99.0
 20
-11.00000000000001
 11
99.5
 21
-10.50000000000001
  0
LINE
  5
6D
330
20
100
AcDbEntity
  8
100
  6
DASHED
100
AcDbLine
 10
99.0
 20
11.0
 11
99.5
 21
10.5
  0
LINE
  5
6E
330
20
100
AcDbEntity
  8
100
  6
DASHED
100
AcDbLine
 10
99.0
 20
-11.00000000000001
 11
99.0
 21
11.0
  0
LINE
  5
6F
330
20
100
AcDbEntity
  8
100
  6
CONTINUOUS
100
AcDbLine
 10
13.0
 20
-15.95
 11
13.0
 21
12.0
  0
LINE
  5
70
330
20
100
AcDbEntity
  8
100
  6
CONTINUOUS
100
AcDbLine
 10
-13.0
 20
-12.0
 11
-13.0
 21
15.95
  0
LINE
  5
71
330
20
100
AcDbEntity
  8
100
  6
CONTINUOUS
100
AcDbLine
 10
80.0
 20
15.95
 11
86.0
 21
15.95
  0
LINE
  5
72
330
20
100
AcDbEntity
  8
100
  6
DASHED
100
AcDbLine
 10
86.0
 20
-12.0
 11
86.0
 21
12.0
  0
LINE
  5
73
330
20
100
AcDbEntity
  8
100
  6
CONTINUOUS
100
AcDbLine
 10
86.0
 20
12.0
 11
86.0
 21
15.95
  0
LINE
  5
74
330
20
100
AcDbEntity
  8
100
  6
CONTINUOUS
100
AcDbLine
 10
98.0
 20
12.0
 11
98.0
 21
15.95
  0
LINE
  5
75
330
20
100
AcDbEntity
  8
100
  6
CONTINUOUS
100
AcDbLine
 10
104.0
 20
15.95
 11
98.0
 21
15.95
  0
LINE
  5
76
330
20
100
AcDbEntity
  8
100
  6
DASHED
100
AcDbLine
 10
98.0
 20
-12.0
 11
98.0
 21
12.0
  0
ENDSEC
  0
SECTION
  2
OBJECTS
  0
DICTIONARY
  5
C
100
AcDbDictionary
281
     1
  3
ACAD_GROUP
350
D
  3
ACAD_MLINESTYLE
350
E
  3
ACDBVARIABLEDICTIONARY
350
77
  3
ACAD_PLOTSTYLENAME
350
78
  3
ACAD_LAYOUT
350
79
  3
ACAD_PLOTSETTINGS
350
7A
  0
DICTIONARY
  5
D
102
{ACAD_REACTORS
330
C
102
}
330
C
100
AcDbDictionary
281
     1
  0
DICTIONARY
  5
E
102
{ACAD_REACTORS
330
C
102
}
330
C
100
AcDbDictionary
281
     1
  3
STANDARD
350
13
  0
DICTIONARY
  5
77
102
{ACAD_REACTORS
330
C
102
}
330
C
100
AcDbDictionary
281
     1
  3
SORTENTS
350
7B
  0
ACDBDICTIONARYWDFLT
  5
78
102
{ACAD_REACTORS
330
C
102
}
330
C
100
AcDbDictionary
281
     1
  3
Normal
350
7C
100
AcDbDictionaryWithDefault
340
7C
  0
DICTIONARY
  5
79
102
{ACAD_REACTORS
330
C
102
}
330
C
100
AcDbDictionary
281
     1
  3
Model
350
7D
  0
DICTIONARY
  5
7A
102
{ACAD_REACTORS
330
C
102
}
330
C
100
AcDbDictionary
281
     1
  0
MLINESTYLE
  5
13
102
{ACAD_REACTORS
330
E
102
}
330
E
100
AcDbMlineStyle
  2
STANDARD
 70
     0
  3

 62
   256
 51
90.0
 52
90.0
 71
     2
 49
0.5
 62
   256
  6
BYLAYER
 49
-0.5
 62
   256
  6
BYLAYER
  0
DICTIONARYVAR
  5
7B
102
{ACAD_REACTORS
330
77
102
}
330
77
100
DictionaryVariables
280
     0
  1
96
  0
ACDBPLACEHOLDER
  5
7C
102
{ACAD_REACTORS
330
78
102
}
330
78
  0
LAYOUT
  5
7D
102
{ACAD_REACTORS
330
79
102
}
330
79
100
AcDbPlotSettings
  1

  2

  4

  6

 40
0.0
 41
0.0
 42
0.0
 43
0.0
 44
0.0
 45
0.0
 46
0.0
 47
0.0
 48
0.0
 49
0.0
140
0.0
141
0.0
142
1.0
143
1.0
 70
  1712
 72
     0
 73
     0
 74
     0
  7

 75
     0
147
1.0
148
0.0
149
0.0
100
AcDbLayout
  1
Model
 70
     1
 71
     0
 10
0.0
 20
0.0
 11
297.0
 21
210.0
 12
0.0
 22
0.0
 32
0.0
 14
0.0
 24
0.0
 34
0.0
 15
0.0
 25
0.0
 35
0.0
146
0.0
 13
0.0
 23
0.0
 33
0.0
 16
1.0
 26
0.0
 36
0.0
 17
0.0
 27
1.0
 37
0.0
 76
     0
330
20
  0
ENDSEC
  0
EOF
