  0
SECTION
  2
HEADER
  9
$ACADVER
  1
AC1006
  9
$INSBASE
 10
0.0
 20
0.0
 30
0.0
  9
$EXTMIN
 10
-83.87827301025391
 20
-75.40847778320313
  9
$EXTMAX
 10
37.7217269897461
 20
-5.408477783203125
  9
$LIMMIN
 10
-83.87827301025391
 20
-75.40847778320313
  9
$LIMMAX
 10
37.7217269897461
 20
-5.408477783203125
  9
$ORTHOMODE
 70
     0
  9
$REGENMODE
 70
     1
  9
$FILLMODE
 70
     1
  9
$QTEXTMODE
 70
     0
  9
$MIRRTEXT
 70
     1
  9
$DRAGMODE
 70
     2
  9
$LTSCALE
 40
1.0
  9
$OSMODE
 70
     0
  9
$ATTMODE
 70
     1
  9
$TEXTSIZE
 40
3.0
  9
$TRACEWID
 40
0.5
  9
$TEXTSTYLE
  7
BIGFONT
  9
$CLAYER
  8
0
  9
$CELTYPE
  6
BYLAYER
  9
$CECOLOR
 62
   256
  9
$DIMSCALE
 40
1.0
  9
$DIMASZ
 40
3.0
  9
$DIMEXO
 40
1.0
  9
$DIMDLI
 40
5.0
  9
$DIMRND
 40
0.0
  9
$DIMDLE
 40
5.0
  9
$DIMEXE
 40
2.0
  9
$DIMTP
 40
0.0
  9
$DIMTM
 40
0.0
  9
$DIMTXT
 40
3.0
  9
$DIMCEN
 40
2.0
  9
$DIMTSZ
 40
0.0
  9
$DIMTOL
 70
     0
  9
$DIMLIM
 70
     0
  9
$DIMTIH
 70
     0
  9
$DIMTOH
 70
     0
  9
$DIMSE1
 70
     0
  9
$DIMSE2
 70
     0
  9
$DIMTAD
 70
     1
  9
$DIMZIN
 70
     8
  9
$DIMBLK
  1

  9
$DIMASO
 70
     1
  9
$DIMSHO
 70
     0
  9
$DIMPOST
  1

  9
$DIMAPOST
  1

  9
$DIMALT
 70
     0
  9
$DIMALTD
 70
     4
  9
$DIMALTF
 40
25.4
  9
$DIMLFAC
 40
1.0
  9
$DIMTOFL
 70
     1
  9
$DIMTVP
 40
1.0
  9
$DIMTIX
 70
     0
  9
$DIMSOXD
 70
     0
  9
$DIMSAH
 70
     0
  9
$DIMBLK1
  1

  9
$DIMBLK2
  1

  9
$LUNITS
 70
     2
  9
$LUPREC
 70
     4
  9
$AXISMODE
 70
     0
  9
$AXISUNIT
 10
0.0
 20
0.0
  9
$SKETCHINC
 40
1.0
  9
$FILLETRAD
 40
0.0
  9
$AUNITS
 70
     0
  9
$AUPREC
 70
     0
  9
$MENU
  1
acad
  9
$ELEVATION
 40
0.0
  9
$THICKNESS
 40
0.0
  9
$LIMCHECK
 70
     0
  9
$BLIPMODE
 70
     1
  9
$CHAMFERA
 40
0.0
  9
$CHAMFERB
 40
0.0
  9
$SKPOLY
 70
     0
  9
$TDCREATE
 40
2454078.676666667
  9
$TDUPDATE
 40
2454078.676666667
  9
$TDINDWG
 40
0.0
  9
$TDUSRTIMER
 40
0.0
  9
$USRTIMER
 70
     1
  9
$ANGBASE
 50
0.0
  9
$ANGDIR
 70
     0
  9
$PDMODE
 70
     0
  9
$PDSIZE
 40
0.0
  9
$PLINEWID
 40
0.0
  9
$COORDS
 70
     0
  9
$SPLFRAME
 70
     0
  9
$SPLINETYPE
 70
     6
  9
$SPLINESEGS
 70
     8
  9
$ATTDIA
 70
     0
  9
$ATTREQ
 70
     1
  9
$HANDLING
 70
     0
  9
$HANDSEED
  5
0
  9
$SURFTAB1
 70
     6
  9
$SURFTAB2
 70
     6
  9
$SURFTYPE
 70
     6
  9
$SURFU
 70
     6
  9
$SURFV
 70
     6
  9
$FLATLAND
 70
     0
  9
$UCSNAME
  2

  9
$UCSORG
 10
0.0
 20
0.0
 30
0.0
  9
$UCSXDIR
 10
1.0
 20
0.0
 30
0.0
  9
$UCSYDIR
 10
0.0
 20
1.0
 30
0.0
  9
$USERI1
 70
     0
  9
$USERI2
 70
     0
  9
$USERI3
 70
     0
  9
$USERI4
 70
     0
  9
$USERI5
 70
     0
  9
$USERR1
 40
0.0
  9
$USERR2
 40
0.0
  9
$USERR3
 40
0.0
  9
$USERR4
 40
0.0
  9
$USERR5
 40
0.0
  9
$WORLDVIEW
 70
     1
  0
ENDSEC
  0
SECTION
  2
TABLES
  0
TABLE
  2
VPORT
 70
     1
  0
VPORT
  2
*ACTIVE
 70
     0
 10
0.0
 20
0.0
 11
1.0
 21
1.0
 12
-23.07827301025391
 22
-40.40847778320313
 13
0.0
 23
0.0
 14
0.0
 24
0.0
 15
0.0
 25
0.0
 16
0.0
 26
0.0
 36
1.0
 17
0.0
 27
0.0
 37
0.0
 40
121.6
 41
1.5
 42
50.0
 43
0.0
 44
0.0
 50
0.0
 51
0.0
 71
     0
 72
   100
 73
     1
 74
     1
 75
     0
 76
     0
 77
     0
 78
     0
  0
ENDTAB
  0
TABLE
  2
LTYPE
 70
    20
  0
LTYPE
  2
CONTINUOUS
 70
    64
  3
solid line
 72
    65
 73
     0
 40
0.0
  0
ENDTAB
  0
TABLE
  2
LAYER
 70
    20
  0
LAYER
  2
0
 70
    64
 62
     7
  6
CONTINUOUS
  0
LAYER
  2
100
 70
    64
 62
     7
  6
CONTINUOUS
  0
LAYER
  2
20
 70
    64
 62
     7
  6
CONTINUOUS
  0
ENDTAB
  0
TABLE
  2
STYLE
 70
     4
  0
ENDTAB
  0
TABLE
  2
VIEW
 70
     0
  0
ENDTAB
  0
TABLE
  2
UCS
 70
     0
  0
ENDTAB
  0
TABLE
  2
DWGMGR
 70
     0
  0
ENDTAB
  0
ENDSEC
  0
SECTION
  2
BLOCKS
  0
BLOCK
  8
100
  2
COMP1
 70
    64
 10
0.0
 20
0.0
  0
CIRCLE
  8
100
  6
CONTINUOUS
 10
-18.87827301025391
 20
-61.20847778320312
 40
2.0
  0
LINE
  8
100
  6
CONTINUOUS
 10
-19.37827301025391
 20
-63.14496945630683
 11
-19.37827301025391
 21
-59.27198611009941
  0
LINE
  8
100
  6
CONTINUOUS
 10
-18.37827301025391
 20
-63.14496945630683
 11
-18.37827301025391
 21
-59.27198611009941
  0
ENDBLK
  8
100
  0
BLOCK
  8
100
  2
COMP2
 70
    64
 10
0.0
 20
0.0
  0
CIRCLE
  8
100
  6
CONTINUOUS
 10
-18.87827301025391
 20
-56.00847778320312
 40
2.0
  0
LINE
  8
100
  6
CONTINUOUS
 10
-19.37827301025391
 20
-57.94496945630683
 11
-19.37827301025391
 21
-54.07198611009941
  0
LINE
  8
100
  6
CONTINUOUS
 10
-18.37827301025391
 20
-57.94496945630683
 11
-18.37827301025391
 21
-54.07198611009941
  0
ENDBLK
  8
100
  0
BLOCK
  8
100
  2
COMP3
 70
    64
 10
0.0
 20
0.0
  0
CIRCLE
  8
100
  6
CONTINUOUS
 10
-18.87827301025391
 20
-50.80847778320312
 40
2.0
  0
LINE
  8
100
  6
CONTINUOUS
 10
-19.37827301025391
 20
-52.74496945630683
 11
-19.37827301025391
 21
-48.87198611009941
  0
LINE
  8
100
  6
CONTINUOUS
 10
-18.37827301025391
 20
-52.74496945630683
 11
-18.37827301025391
 21
-48.87198611009941
  0
ENDBLK
  8
100
  0
BLOCK
  8
100
  2
COMP4
 70
    64
 10
0.0
 20
0.0
  0
CIRCLE
  8
100
  6
CONTINUOUS
 10
-18.87827301025391
 20
-45.60847778320311
 40
2.0
  0
LINE
  8
100
  6
CONTINUOUS
 10
-19.37827301025391
 20
-47.54496945630682
 11
-19.37827301025391
 21
-43.6719861100994
  0
LINE
  8
100
  6
CONTINUOUS
 10
-18.37827301025391
 20
-47.54496945630682
 11
-18.37827301025391
 21
-43.6719861100994
  0
ENDBLK
  8
100
  0
BLOCK
  8
100
  2
COMP5
 70
    64
 10
0.0
 20
0.0
  0
CIRCLE
  8
100
  6
CONTINUOUS
 10
-18.87827301025391
 20
-40.40847778320311
 40
2.0
  0
LINE
  8
100
  6
CONTINUOUS
 10
-19.37827301025391
 20
-42.34496945630682
 11
-19.37827301025391
 21
-38.4719861100994
  0
LINE
  8
100
  6
CONTINUOUS
 10
-18.37827301025391
 20
-42.34496945630682
 11
-18.37827301025391
 21
-38.4719861100994
  0
ENDBLK
  8
100
  0
BLOCK
  8
100
  2
COMP6
 70
    64
 10
0.0
 20
0.0
  0
CIRCLE
  8
100
  6
CONTINUOUS
 10
-18.87827301025391
 20
-35.20847778320311
 40
2.0
  0
LINE
  8
100
  6
CONTINUOUS
 10
-19.37827301025391
 20
-37.14496945630682
 11
-19.37827301025391
 21
-33.2719861100994
  0
LINE
  8
100
  6
CONTINUOUS
 10
-18.37827301025391
 20
-37.14496945630682
 11
-18.37827301025391
 21
-33.2719861100994
  0
ENDBLK
  8
100
  0
BLOCK
  8
100
  2
COMP7
 70
    64
 10
0.0
 20
0.0
  0
CIRCLE
  8
100
  6
CONTINUOUS
 10
-18.87827301025391
 20
-30.00847778320311
 40
2.0
  0
LINE
  8
100
  6
CONTINUOUS
 10
-19.37827301025391
 20
-31.94496945630682
 11
-19.37827301025391
 21
-28.0719861100994
  0
LINE
  8
100
  6
CONTINUOUS
 10
-18.37827301025391
 20
-31.94496945630682
 11
-18.37827301025391
 21
-28.0719861100994
  0
ENDBLK
  8
100
  0
BLOCK
  8
100
  2
COMP8
 70
    64
 10
0.0
 20
0.0
  0
CIRCLE
  8
100
  6
CONTINUOUS
 10
-18.87827301025391
 20
-24.80847778320311
 40
2.0
  0
LINE
  8
100
  6
CONTINUOUS
 10
-19.37827301025391
 20
-26.74496945630682
 11
-19.37827301025391
 21
-22.8719861100994
  0
LINE
  8
100
  6
CONTINUOUS
 10
-18.37827301025391
 20
-26.74496945630682
 11
-18.37827301025391
 21
-22.8719861100994
  0
ENDBLK
  8
100
  0
BLOCK
  8
100
  2
COMP9
 70
    64
 10
0.0
 20
0.0
  0
CIRCLE
  8
100
  6
CONTINUOUS
 10
-18.87827301025391
 20
-19.60847778320311
 40
2.0
  0
LINE
  8
100
  6
CONTINUOUS
 10
-19.37827301025391
 20
-21.54496945630682
 11
-19.37827301025391
 21
-17.6719861100994
  0
LINE
  8
100
  6
CONTINUOUS
 10
-18.37827301025391
 20
-21.54496945630682
 11
-18.37827301025391
 21
-17.6719861100994
  0
ENDBLK
  8
100
  0
BLOCK
  8
20
  2
COMP10
 70
    64
 10
0.0
 20
0.0
  0
POLYLINE
  8
20
  6
CONTINUOUS
 66
     1
 70
     0
 40
0.0
 41
0.0
  0
VERTEX
  8
20
 10
-27.83308029174805
 20
-20.98824310302734
  0
VERTEX
  8
20
 10
-27.08308029174805
 20
-17.98824310302734
  0
VERTEX
  8
20
 10
-26.33308029174805
 20
-20.98824310302734
  0
SEQEND
  8
20
  0
POLYLINE
  8
20
  6
CONTINUOUS
 66
     1
 70
     0
 40
0.0
 41
0.0
  0
VERTEX
  8
20
 10
-26.56745529174805
 20
-20.05074310302734
  0
VERTEX
  8
20
 10
-27.59870529174805
 20
-20.05074310302734
  0
SEQEND
  8
20
  0
ENDBLK
  8
20
  0
BLOCK
  8
20
  2
COMP11
 70
    64
 10
0.0
 20
0.0
  0
POLYLINE
  8
20
  6
CONTINUOUS
 66
     1
 70
     0
 40
0.0
 41
0.0
  0
VERTEX
  8
20
 10
-27.95475387573242
 20
-26.15937042236328
  0
VERTEX
  8
20
 10
-27.11100387573242
 20
-26.15937042236328
 42
0.8749999999999999
  0
VERTEX
  8
20
 10
-27.11100387573242
 20
-24.65937042236328
 42
0.8749999999999999
  0
VERTEX
  8
20
 10
-27.11100387573242
 20
-23.15937042236328
  0
VERTEX
  8
20
 10
-27.95475387573242
 20
-23.15937042236328
  0
VERTEX
  8
20
 10
-27.95475387573242
 20
-26.15937042236328
  0
SEQEND
  8
20
  0
POLYLINE
  8
20
  6
CONTINUOUS
 66
     1
 70
     0
 40
0.0
 41
0.0
  0
VERTEX
  8
20
 10
-27.95475387573242
 20
-24.65937042236328
  0
VERTEX
  8
20
 10
-27.11100387573242
 20
-24.65937042236328
  0
SEQEND
  8
20
  0
ENDBLK
  8
20
  0
BLOCK
  8
20
  2
COMP12
 70
    64
 10
0.0
 20
0.0
  0
POLYLINE
  8
20
  6
CONTINUOUS
 66
     1
 70
     0
 40
0.0
 41
0.0
  0
VERTEX
  8
20
 10
-26.33308029174805
 20
-28.86507415771484
 42
0.8749999999999999
  0
VERTEX
  8
20
 10
-27.83308029174805
 20
-28.86507415771484
  0
VERTEX
  8
20
 10
-27.83308029174805
 20
-30.64632415771484
 42
0.75
  0
VERTEX
  8
20
 10
-26.33308029174805
 20
-30.64632415771484
  0
SEQEND
  8
20
  0
ENDBLK
  8
20
  0
BLOCK
  8
20
  2
COMP13
 70
    64
 10
0.0
 20
0.0
  0
POLYLINE
  8
20
  6
CONTINUOUS
 66
     1
 70
     0
 40
0.0
 41
0.0
  0
VERTEX
  8
20
 10
-27.83308029174805
 20
-36.44078826904297
  0
VERTEX
  8
20
 10
-27.03620529174805
 20
-36.44078826904297
 42
0.4666666666666667
  0
VERTEX
  8
20
 10
-26.33308029174805
 20
-35.73766326904297
  0
VERTEX
  8
20
 10
-26.33308029174805
 20
-34.14391326904297
 42
0.4666666666666667
  0
VERTEX
  8
20
 10
-27.03620529174805
 20
-33.44078826904297
  0
VERTEX
  8
20
 10
-27.83308029174805
 20
-33.44078826904297
  0
VERTEX
  8
20
 10
-27.83308029174805
 20
-36.44078826904297
  0
SEQEND
  8
20
  0
ENDBLK
  8
20
  0
BLOCK
  8
20
  2
COMP14
 70
    64
 10
0.0
 20
0.0
  0
POLYLINE
  8
20
  6
CONTINUOUS
 66
     1
 70
     0
 40
0.0
 41
0.0
  0
VERTEX
  8
20
 10
-26.45475387573242
 20
-38.91609954833984
  0
VERTEX
  8
20
 10
-27.95475387573242
 20
-38.91609954833984
  0
VERTEX
  8
20
 10
-27.95475387573242
 20
-41.91609954833984
  0
VERTEX
  8
20
 10
-26.45475387573242
 20
-41.91609954833984
  0
SEQEND
  8
20
  0
POLYLINE
  8
20
  6
CONTINUOUS
 66
     1
 70
     0
 40
0.0
 41
0.0
  0
VERTEX
  8
20
 10
-27.95475387573242
 20
-40.41609954833984
  0
VERTEX
  8
20
 10
-26.45475387573242
 20
-40.41609954833984
  0
SEQEND
  8
20
  0
ENDBLK
  8
20
  0
BLOCK
  8
20
  2
COMP15
 70
    64
 10
0.0
 20
0.0
  0
POLYLINE
  8
20
  6
CONTINUOUS
 66
     1
 70
     0
 40
0.0
 41
0.0
  0
VERTEX
  8
20
 10
-26.33308029174805
 20
-45.58722686767578
  0
VERTEX
  8
20
 10
-27.83308029174805
 20
-45.58722686767578
  0
SEQEND
  8
20
  0
POLYLINE
  8
20
  6
CONTINUOUS
 66
     1
 70
     0
 40
0.0
 41
0.0
  0
VERTEX
  8
20
 10
-27.08308029174805
 20
-46.33722686767578
  0
VERTEX
  8
20
 10
-27.08308029174805
 20
-44.83722686767578
  0
SEQEND
  8
20
  0
ENDBLK
  8
20
  0
BLOCK
  8
20
  2
COMP16
 70
    64
 10
0.0
 20
0.0
  0
POLYLINE
  8
20
  6
CONTINUOUS
 66
     1
 70
     0
 40
0.0
 41
0.0
  0
VERTEX
  8
20
 10
-34.52386856079102
 20
-47.33526611328125
  0
VERTEX
  8
20
 10
-34.52386856079102
 20
-49.11651611328125
 42
0.75
  0
VERTEX
  8
20
 10
-33.02386856079102
 20
-49.11651611328125
  0
VERTEX
  8
20
 10
-33.02386856079102
 20
-47.33526611328125
 42
0.8749999999999999
  0
VERTEX
  8
20
 10
-34.52386856079102
 20
-47.33526611328125
  0
SEQEND
  8
20
  0
POLYLINE
  8
20
  6
CONTINUOUS
 66
     1
 70
     0
 40
0.0
 41
0.0
  0
VERTEX
  8
20
 10
-32.46136856079102
 20
-46.67901611328125
  0
VERTEX
  8
20
 10
-32.46136856079102
 20
-49.11651611328125
 42
0.75
  0
VERTEX
  8
20
 10
-30.96136856079102
 20
-49.11651611328125
  0
VERTEX
  8
20
 10
-30.96136856079102
 20
-46.67901611328125
  0
SEQEND
  8
20
  0
POLYLINE
  8
20
  6
CONTINUOUS
 66
     1
 70
     0
 40
0.0
 41
0.0
  0
VERTEX
  8
20
 10
-30.39886856079102
 20
-46.67901611328125
  0
VERTEX
  8
20
 10
-28.89886856079102
 20
-46.67901611328125
  0
SEQEND
  8
20
  0
POLYLINE
  8
20
  6
CONTINUOUS
 66
     1
 70
     0
 40
0.0
 41
0.0
  0
VERTEX
  8
20
 10
-29.64886856079102
 20
-46.67901611328125
  0
VERTEX
  8
20
 10
-29.64886856079102
 20
-49.67901611328125
  0
SEQEND
  8
20
  0
ENDBLK
  8
20
  0
BLOCK
  8
20
  2
COMP17
 70
    64
 10
0.0
 20
0.0
  0
POLYLINE
  8
20
  6
CONTINUOUS
 66
     1
 70
     0
 40
0.0
 41
0.0
  0
VERTEX
  8
20
 10
-26.38274765014648
 20
-50.79254913330078
  0
VERTEX
  8
20
 10
-27.69524765014648
 20
-50.79254913330078
  0
SEQEND
  8
20
  0
ENDBLK
  8
20
  0
BLOCK
  8
20
  2
COMP18
 70
    64
 10
0.0
 20
0.0
  0
POLYLINE
  8
20
  6
CONTINUOUS
 66
     1
 70
     0
 40
0.0
 41
0.0
  0
VERTEX
  8
20
 10
-30.53081893920898
 20
-56.29450225830078
  0
VERTEX
  8
20
 10
-32.03081893920898
 20
-56.29450225830078
  0
SEQEND
  8
20
  0
POLYLINE
  8
20
  6
CONTINUOUS
 66
     1
 70
     0
 40
0.0
 41
0.0
  0
VERTEX
  8
20
 10
-31.28081893920898
 20
-57.04450225830078
  0
VERTEX
  8
20
 10
-31.28081893920898
 20
-55.54450225830078
  0
SEQEND
  8
20
  0
POLYLINE
  8
20
  6
CONTINUOUS
 66
     1
 70
     0
 40
0.0
 41
0.0
  0
VERTEX
  8
20
 10
-29.96831893920898
 20
-55.35700225830078
  0
VERTEX
  8
20
 10
-29.49956893920898
 20
-54.79450225830078
  0
VERTEX
  8
20
 10
-28.93706893920898
 20
-54.79450225830078
  0
VERTEX
  8
20
 10
-28.46831893920898
 20
-55.35700225830078
  0
VERTEX
  8
20
 10
-28.46831893920898
 20
-56.10700225830078
  0
VERTEX
  8
20
 10
-29.96831893920898
 20
-57.41950225830078
  0
VERTEX
  8
20
 10
-29.96831893920898
 20
-57.79450225830078
  0
VERTEX
  8
20
 10
-28.46831893920898
 20
-57.79450225830078
  0
SEQEND
  8
20
  0
POLYLINE
  8
20
  6
CONTINUOUS
 66
     1
 70
     0
 40
0.0
 41
0.0
  0
VERTEX
  8
20
 10
-27.15581893920898
 20
-54.79450225830078
  0
VERTEX
  8
20
 10
-27.90581893920898
 20
-56.85700225830078
  0
VERTEX
  8
20
 10
-26.40581893920898
 20
-56.85700225830078
  0
SEQEND
  8
20
  0
POLYLINE
  8
20
  6
CONTINUOUS
 66
     1
 70
     0
 40
0.0
 41
0.0
  0
VERTEX
  8
20
 10
-26.87456893920898
 20
-57.79450225830078
  0
VERTEX
  8
20
 10
-26.87456893920898
 20
-55.82575225830078
  0
SEQEND
  8
20
  0
ENDBLK
  8
20
  0
BLOCK
  8
20
  2
COMP19
 70
    64
 10
0.0
 20
0.0
  0
POLYLINE
  8
20
  6
CONTINUOUS
 66
     1
 70
     0
 40
0.0
 41
0.0
  0
VERTEX
  8
20
 10
-28.34069442749023
 20
-61.64813995361328
  0
VERTEX
  8
20
 10
-29.84069442749023
 20
-61.64813995361328
  0
SEQEND
  8
20
  0
POLYLINE
  8
20
  6
CONTINUOUS
 66
     1
 70
     0
 40
0.0
 41
0.0
  0
VERTEX
  8
20
 10
-29.09069442749023
 20
-62.39813995361328
  0
VERTEX
  8
20
 10
-29.09069442749023
 20
-60.89813995361328
  0
SEQEND
  8
20
  0
POLYLINE
  8
20
  6
CONTINUOUS
 66
     1
 70
     0
 40
0.0
 41
0.0
  0
VERTEX
  8
20
 10
-27.68444442749023
 20
-60.71063995361328
  0
VERTEX
  8
20
 10
-27.68444442749023
 20
-62.58563995361328
 42
0.9230769230769231
  0
VERTEX
  8
20
 10
-26.46569442749023
 20
-62.58563995361328
  0
VERTEX
  8
20
 10
-26.46569442749023
 20
-60.71063995361328
 42
0.9230769230769231
  0
VERTEX
  8
20
 10
-27.68444442749023
 20
-60.71063995361328
  0
SEQEND
  8
20
  0
ENDBLK
  8
20
  0
BLOCK
  8
20
  2
COMP20
 70
    64
 10
0.0
 20
0.0
  0
POLYLINE
  8
20
  6
CONTINUOUS
 66
     1
 70
     0
 40
0.0
 41
0.0
  0
VERTEX
  8
20
 10
-73.54242706298828
 20
-48.51535797119141
 42
0.8749999999999999
  0
VERTEX
  8
20
 10
-75.04242706298828
 20
-48.51535797119141
  0
VERTEX
  8
20
 10
-75.04242706298828
 20
-50.29660797119141
 42
0.75
  0
VERTEX
  8
20
 10
-73.54242706298828
 20
-50.29660797119141
  0
SEQEND
  8
20
  0
POLYLINE
  8
20
  6
CONTINUOUS
 66
     1
 70
     0
 40
0.0
 41
0.0
  0
VERTEX
  8
20
 10
-72.97992706298828
 20
-47.85910797119141
  0
VERTEX
  8
20
 10
-72.97992706298828
 20
-50.85910797119141
  0
SEQEND
  8
20
  0
POLYLINE
  8
20
  6
CONTINUOUS
 66
     1
 70
     0
 40
0.0
 41
0.0
  0
VERTEX
  8
20
 10
-71.47992706298828
 20
-47.85910797119141
  0
VERTEX
  8
20
 10
-71.47992706298828
 20
-50.85910797119141
  0
SEQEND
  8
20
  0
POLYLINE
  8
20
  6
CONTINUOUS
 66
     1
 70
     0
 40
0.0
 41
0.0
  0
VERTEX
  8
20
 10
-72.97992706298828
 20
-49.35910797119141
  0
VERTEX
  8
20
 10
-71.47992706298828
 20
-49.35910797119141
  0
SEQEND
  8
20
  0
POLYLINE
  8
20
  6
CONTINUOUS
 66
     1
 70
     0
 40
0.0
 41
0.0
  0
VERTEX
  8
20
 10
-69.41742706298828
 20
-47.85910797119141
  0
VERTEX
  8
20
 10
-70.91742706298828
 20
-47.85910797119141
  0
VERTEX
  8
20
 10
-70.91742706298828
 20
-50.85910797119141
  0
VERTEX
  8
20
 10
-69.41742706298828
 20
-50.85910797119141
  0
SEQEND
  8
20
  0
POLYLINE
  8
20
  6
CONTINUOUS
 66
     1
 70
     0
 40
0.0
 41
0.0
  0
VERTEX
  8
20
 10
-70.91742706298828
 20
-49.35910797119141
  0
VERTEX
  8
20
 10
-69.41742706298828
 20
-49.35910797119141
  0
SEQEND
  8
20
  0
POLYLINE
  8
20
  6
CONTINUOUS
 66
     1
 70
     0
 40
0.0
 41
0.0
  0
VERTEX
  8
20
 10
-67.35492706298828
 20
-48.51535797119141
 42
0.8749999999999999
  0
VERTEX
  8
20
 10
-68.85492706298828
 20
-48.51535797119141
  0
VERTEX
  8
20
 10
-68.85492706298828
 20
-50.29660797119141
 42
0.75
  0
VERTEX
  8
20
 10
-67.35492706298828
 20
-50.29660797119141
  0
SEQEND
  8
20
  0
POLYLINE
  8
20
  6
CONTINUOUS
 66
     1
 70
     0
 40
0.0
 41
0.0
  0
VERTEX
  8
20
 10
-66.79242706298828
 20
-47.85910797119141
  0
VERTEX
  8
20
 10
-66.79242706298828
 20
-50.85910797119141
  0
SEQEND
  8
20
  0
POLYLINE
  8
20
  6
CONTINUOUS
 66
     1
 70
     0
 40
0.0
 41
0.0
  0
VERTEX
  8
20
 10
-66.79242706298828
 20
-49.73410797119141
  0
VERTEX
  8
20
 10
-65.29242706298828
 20
-47.85910797119141
  0
SEQEND
  8
20
  0
POLYLINE
  8
20
  6
CONTINUOUS
 66
     1
 70
     0
 40
0.0
 41
0.0
  0
VERTEX
  8
20
 10
-66.32367706298828
 20
-49.17160797119141
  0
VERTEX
  8
20
 10
-65.29242706298828
 20
-50.85910797119141
  0
SEQEND
  8
20
  0
ENDBLK
  8
20
  0
BLOCK
  8
20
  2
COMP21
 70
    64
 10
0.0
 20
0.0
  0
POLYLINE
  8
20
  6
CONTINUOUS
 66
     1
 70
     0
 40
0.0
 41
0.0
  0
VERTEX
  8
20
 10
-73.96828460693359
 20
-39.78278350830078
 42
0.3601290360382941
  0
VERTEX
  8
20
 10
-74.71828460693359
 20
-39.22028350830078
 42
0.3984781060298892
  0
VERTEX
  8
20
 10
-75.46828460693359
 20
-39.87653350830078
 42
0.4142122954191743
  0
VERTEX
  8
20
 10
-74.71828460693359
 20
-40.72028350830078
 42
-0.3750000000000001
  0
VERTEX
  8
20
 10
-73.96828460693359
 20
-41.47028350830078
 42
-0.4832220624312664
  0
VERTEX
  8
20
 10
-74.67140960693359
 20
-42.22028350830078
 42
-0.3193868913193182
  0
VERTEX
  8
20
 10
-75.46828460693359
 20
-41.65778350830078
  0
SEQEND
  8
20
  0
POLYLINE
  8
20
  6
CONTINUOUS
 66
     1
 70
     0
 40
0.0
 41
0.0
  0
VERTEX
  8
20
 10
-73.40578460693359
 20
-40.72028350830078
  0
VERTEX
  8
20
 10
-72.65578460693359
 20
-40.72028350830078
 42
0.4142135623731009
  0
VERTEX
  8
20
 10
-71.90578460693359
 20
-39.97028350830078
 42
0.4142135623730932
  0
VERTEX
  8
20
 10
-72.65578460693359
 20
-39.22028350830078
  0
VERTEX
  8
20
 10
-73.40578460693359
 20
-39.22028350830078
  0
VERTEX
  8
20
 10
-73.40578460693359
 20
-42.22028350830078
  0
SEQEND
  8
20
  0
POLYLINE
  8
20
  6
CONTINUOUS
 66
     1
 70
     0
 40
0.0
 41
0.0
  0
VERTEX
  8
20
 10
-71.34328460693359
 20
-42.22028350830078
  0
VERTEX
  8
20
 10
-70.59328460693359
 20
-39.22028350830078
  0
VERTEX
  8
20
 10
-69.84328460693359
 20
-42.22028350830078
  0
SEQEND
  8
20
  0
POLYLINE
  8
20
  6
CONTINUOUS
 66
     1
 70
     0
 40
0.0
 41
0.0
  0
VERTEX
  8
20
 10
-70.07765960693359
 20
-41.28278350830078
  0
VERTEX
  8
20
 10
-71.10890960693359
 20
-41.28278350830078
  0
SEQEND
  8
20
  0
POLYLINE
  8
20
  6
CONTINUOUS
 66
     1
 70
     0
 40
0.0
 41
0.0
  0
VERTEX
  8
20
 10
-69.28078460693359
 20
-42.22028350830078
  0
VERTEX
  8
20
 10
-69.28078460693359
 20
-39.22028350830078
  0
VERTEX
  8
20
 10
-67.78078460693359
 20
-42.22028350830078
  0
VERTEX
  8
20
 10
-67.78078460693359
 20
-39.22028350830078
  0
SEQEND
  8
20
  0
ENDBLK
  8
20
  0
BLOCK
  8
20
  2
COMP22
 70
    64
 10
0.0
 20
0.0
  0
POLYLINE
  8
20
  6
CONTINUOUS
 66
     1
 70
     0
 40
0.0
 41
0.0
  0
VERTEX
  8
20
 10
-75.37827301025391
 20
-30.90847778320313
  0
VERTEX
  8
20
 10
-73.87827301025391
 20
-30.90847778320313
  0
VERTEX
  8
20
 10
-75.37827301025391
 20
-33.90847778320313
  0
VERTEX
  8
20
 10
-73.87827301025391
 20
-33.90847778320313
  0
SEQEND
  8
20
  0
POLYLINE
  8
20
  6
CONTINUOUS
 66
     1
 70
     0
 40
0.0
 41
0.0
  0
VERTEX
  8
20
 10
-71.81577301025391
 20
-30.90847778320313
  0
VERTEX
  8
20
 10
-73.31577301025391
 20
-30.90847778320313
  0
VERTEX
  8
20
 10
-73.31577301025391
 20
-33.90847778320313
  0
VERTEX
  8
20
 10
-71.81577301025391
 20
-33.90847778320313
  0
SEQEND
  8
20
  0
POLYLINE
  8
20
  6
CONTINUOUS
 66
     1
 70
     0
 40
0.0
 41
0.0
  0
VERTEX
  8
20
 10
-73.31577301025391
 20
-32.40847778320313
  0
VERTEX
  8
20
 10
-71.81577301025391
 20
-32.40847778320313
  0
SEQEND
  8
20
  0
POLYLINE
  8
20
  6
CONTINUOUS
 66
     1
 70
     0
 40
0.0
 41
0.0
  0
VERTEX
  8
20
 10
-71.25327301025391
 20
-32.40847778320313
  0
VERTEX
  8
20
 10
-70.50327301025391
 20
-32.40847778320313
 42
0.4142135623731009
  0
VERTEX
  8
20
 10
-69.75327301025391
 20
-31.65847778320313
 42
0.4142135623730997
  0
VERTEX
  8
20
 10
-70.50327301025391
 20
-30.90847778320313
  0
VERTEX
  8
20
 10
-71.25327301025391
 20
-30.90847778320313
  0
VERTEX
  8
20
 10
-71.25327301025391
 20
-33.90847778320313
  0
SEQEND
  8
20
  0
POLYLINE
  8
20
  6
CONTINUOUS
 66
     1
 70
     0
 40
0.0
 41
0.0
  0
VERTEX
  8
20
 10
-69.75327301025391
 20
-33.90847778320313
  0
VERTEX
  8
20
 10
-70.50327301025391
 20
-32.40847778320313
  0
SEQEND
  8
20
  0
POLYLINE
  8
20
  6
CONTINUOUS
 66
     1
 70
     0
 40
0.0
 41
0.0
  0
VERTEX
  8
20
 10
-69.19077301025391
 20
-31.56472778320313
  0
VERTEX
  8
20
 10
-69.19077301025391
 20
-33.34597778320313
 42
0.75
  0
VERTEX
  8
20
 10
-67.69077301025391
 20
-33.34597778320313
  0
VERTEX
  8
20
 10
-67.69077301025391
 20
-31.56472778320313
 42
0.8749999999999999
  0
VERTEX
  8
20
 10
-69.19077301025391
 20
-31.56472778320313
  0
SEQEND
  8
20
  0
ENDBLK
  8
20
  0
BLOCK
  8
20
  2
COMP23
 70
    64
 10
0.0
 20
0.0
  0
POLYLINE
  8
20
  6
CONTINUOUS
 66
     1
 70
     0
 40
0.0
 41
0.0
  0
VERTEX
  8
20
 10
-75.37827301025391
 20
-16.90847778320313
  0
VERTEX
  8
20
 10
-73.87827301025391
 20
-16.90847778320313
  0
SEQEND
  8
20
  0
POLYLINE
  8
20
  6
CONTINUOUS
 66
     1
 70
     0
 40
0.0
 41
0.0
  0
VERTEX
  8
20
 10
-74.62827301025391
 20
-16.90847778320313
  0
VERTEX
  8
20
 10
-74.62827301025391
 20
-19.90847778320313
  0
SEQEND
  8
20
  0
POLYLINE
  8
20
  6
CONTINUOUS
 66
     1
 70
     0
 40
0.0
 41
0.0
  0
VERTEX
  8
20
 10
-73.31577301025391
 20
-19.90847778320313
  0
VERTEX
  8
20
 10
-72.56577301025391
 20
-16.90847778320313
  0
VERTEX
  8
20
 10
-71.81577301025391
 20
-19.90847778320313
  0
SEQEND
  8
20
  0
POLYLINE
  8
20
  6
CONTINUOUS
 66
     1
 70
     0
 40
0.0
 41
0.0
  0
VERTEX
  8
20
 10
-72.05014801025391
 20
-18.97097778320313
  0
VERTEX
  8
20
 10
-73.08139801025391
 20
-18.97097778320313
  0
SEQEND
  8
20
  0
POLYLINE
  8
20
  6
CONTINUOUS
 66
     1
 70
     0
 40
0.0
 41
0.0
  0
VERTEX
  8
20
 10
-71.25327301025391
 20
-18.40847778320313
  0
VERTEX
  8
20
 10
-70.50327301025391
 20
-18.40847778320313
 42
0.4142135623731037
  0
VERTEX
  8
20
 10
-69.75327301025391
 20
-17.65847778320313
 42
0.4142135623730997
  0
VERTEX
  8
20
 10
-70.50327301025391
 20
-16.90847778320313
  0
VERTEX
  8
20
 10
-71.25327301025391
 20
-16.90847778320313
  0
VERTEX
  8
20
 10
-71.25327301025391
 20
-19.90847778320313
  0
SEQEND
  8
20
  0
POLYLINE
  8
20
  6
CONTINUOUS
 66
     1
 70
     0
 40
0.0
 41
0.0
  0
VERTEX
  8
20
 10
-69.75327301025391
 20
-19.90847778320313
  0
VERTEX
  8
20
 10
-70.50327301025391
 20
-18.40847778320313
  0
SEQEND
  8
20
  0
POLYLINE
  8
20
  6
CONTINUOUS
 66
     1
 70
     0
 40
0.0
 41
0.0
  0
VERTEX
  8
20
 10
-67.69077301025391
 20
-16.90847778320313
  0
VERTEX
  8
20
 10
-69.19077301025391
 20
-16.90847778320313
  0
VERTEX
  8
20
 10
-69.19077301025391
 20
-19.90847778320313
  0
VERTEX
  8
20
 10
-67.69077301025391
 20
-19.90847778320313
  0
SEQEND
  8
20
  0
POLYLINE
  8
20
  6
CONTINUOUS
 66
     1
 70
     0
 40
0.0
 41
0.0
  0
VERTEX
  8
20
 10
-69.19077301025391
 20
-18.40847778320313
  0
VERTEX
  8
20
 10
-67.69077301025391
 20
-18.40847778320313
  0
SEQEND
  8
20
  0
ENDBLK
  8
20
  0
ENDSEC
  0
SECTION
  2
ENTITIES
  0
LINE
  8
100
  6
CONTINUOUS
 10
-83.87827301025391
 20
-75.40847778320313
 11
-13.87827301025391
 21
-75.40847778320313
  0
LINE
  8
100
  6
CONTINUOUS
 10
-83.87827301025391
 20
-75.40847778320313
 11
-83.87827301025391
 21
-5.408477783203125
  0
LINE
  8
100
  6
CONTINUOUS
 10
-13.87827301025391
 20
-75.40847778320313
 11
-13.87827301025391
 21
-5.408477783203125
  0
LINE
  8
100
  6
CONTINUOUS
 10
-83.87827301025391
 20
-5.408477783203125
 11
-13.87827301025391
 21
-5.408477783203125
  0
CIRCLE
  8
100
  6
CONTINUOUS
 10
-78.87827301025391
 20
-10.40847778320313
 40
1.75
  0
CIRCLE
  8
100
  6
CONTINUOUS
 10
-18.87827301025391
 20
-10.40847778320313
 40
1.75
  0
CIRCLE
  8
100
  6
CONTINUOUS
 10
-18.87827301025391
 20
-70.40847778320313
 40
1.75
  0
CIRCLE
  8
100
  6
CONTINUOUS
 10
-78.87827301025391
 20
-70.40847778320313
 40
1.75
  0
LINE
  8
100
  6
CONTINUOUS
 10
36.12172698974609
 20
-75.40847778320313
 11
36.12172698974609
 21
-5.408477783203125
  0
LINE
  8
100
  6
CONTINUOUS
 10
37.7217269897461
 20
-75.40847778320313
 11
37.7217269897461
 21
-5.408477783203125
  0
LINE
  8
100
  6
CONTINUOUS
 10
36.12172698974609
 20
-5.408477783203125
 11
37.7217269897461
 21
-5.408477783203125
  0
LINE
  8
100
  6
CONTINUOUS
 10
36.12172698974609
 20
-75.40847778320313
 11
37.7217269897461
 21
-75.40847778320313
  0
LINE
  8
100
  6
CONTINUOUS
 10
-14.87827301025391
 20
-64.20847778320312
 11
-14.87827301025391
 21
-16.60847778320312
  0
LINE
  8
100
  6
CONTINUOUS
 10
-22.87827301025391
 20
-64.20847778320312
 11
-22.87827301025391
 21
-16.60847778320312
  0
LINE
  8
100
  6
CONTINUOUS
 10
26.12172698974609
 20
-63.80847778320312
 11
36.12172698974609
 21
-63.80847778320312
  0
LINE
  8
100
  6
CONTINUOUS
 10
32.12172698974609
 20
-59.70847778320312
 11
34.12172698974609
 21
-59.70847778320312
  0
LINE
  8
100
  6
CONTINUOUS
 10
32.12172698974609
 20
-62.70847778320312
 11
34.12172698974609
 21
-62.70847778320312
  0
LINE
  8
100
  6
CONTINUOUS
 10
34.12172698974609
 20
-62.70847778320312
 11
34.12172698974609
 21
-59.70847778320312
  0
LINE
  8
100
  6
CONTINUOUS
 10
32.12172698974609
 20
-62.70847778320312
 11
32.12172698974609
 21
-59.70847778320312
  0
LINE
  8
100
  6
CONTINUOUS
 10
31.12172698974609
 20
-59.20847778320312
 11
35.12172698974609
 21
-59.20847778320312
  0
LINE
  8
100
  6
CONTINUOUS
 10
31.12172698974609
 20
-63.20847778320312
 11
35.12172698974609
 21
-63.20847778320312
  0
LINE
  8
100
  6
CONTINUOUS
 10
31.12172698974609
 20
-63.20847778320312
 11
31.12172698974609
 21
-59.20847778320312
  0
LINE
  8
100
  6
CONTINUOUS
 10
35.12172698974609
 20
-63.20847778320312
 11
35.12172698974609
 21
-59.20847778320312
  0
LINE
  8
100
  6
CONTINUOUS
 10
31.12172698974609
 20
-59.20847778320312
 11
32.12172698974609
 21
-59.70847778320312
  0
LINE
  8
100
  6
CONTINUOUS
 10
31.12172698974609
 20
-63.20847778320312
 11
32.12172698974609
 21
-62.70847778320312
  0
LINE
  8
100
  6
CONTINUOUS
 10
34.12172698974609
 20
-59.70847778320312
 11
35.12172698974609
 21
-59.20847778320312
  0
LINE
  8
100
  6
CONTINUOUS
 10
35.12172698974609
 20
-63.20847778320312
 11
34.12172698974609
 21
-62.70847778320312
  0
LINE
  8
100
  6
CONTINUOUS
 10
31.12172698974609
 20
-54.00847778320312
 11
35.12172698974609
 21
-54.00847778320312
  0
LINE
  8
100
  6
CONTINUOUS
 10
31.12172698974609
 20
-58.00847778320312
 11
31.12172698974609
 21
-54.00847778320312
  0
LINE
  8
100
  6
CONTINUOUS
 10
31.12172698974609
 20
-58.00847778320312
 11
32.12172698974609
 21
-57.50847778320312
  0
LINE
  8
100
  6
CONTINUOUS
 10
31.12172698974609
 20
-58.00847778320312
 11
35.12172698974609
 21
-58.00847778320312
  0
LINE
  8
100
  6
CONTINUOUS
 10
32.12172698974609
 20
-57.50847778320312
 11
34.12172698974609
 21
-57.50847778320312
  0
LINE
  8
100
  6
CONTINUOUS
 10
32.12172698974609
 20
-57.50847778320312
 11
32.12172698974609
 21
-54.50847778320312
  0
LINE
  8
100
  6
CONTINUOUS
 10
31.12172698974609
 20
-54.00847778320312
 11
32.12172698974609
 21
-54.50847778320312
  0
LINE
  8
100
  6
CONTINUOUS
 10
32.12172698974609
 20
-54.50847778320312
 11
34.12172698974609
 21
-54.50847778320312
  0
LINE
  8
100
  6
CONTINUOUS
 10
34.12172698974609
 20
-54.50847778320312
 11
35.12172698974609
 21
-54.00847778320312
  0
LINE
  8
100
  6
CONTINUOUS
 10
34.12172698974609
 20
-57.50847778320312
 11
34.12172698974609
 21
-54.50847778320312
  0
LINE
  8
100
  6
CONTINUOUS
 10
35.12172698974609
 20
-58.00847778320312
 11
35.12172698974609
 21
-54.00847778320312
  0
LINE
  8
100
  6
CONTINUOUS
 10
35.12172698974609
 20
-58.00847778320312
 11
34.12172698974609
 21
-57.50847778320312
  0
LINE
  8
100
  6
CONTINUOUS
 10
34.12172698974609
 20
-52.30847778320312
 11
34.12172698974609
 21
-49.30847778320312
  0
LINE
  8
100
  6
CONTINUOUS
 10
32.12172698974609
 20
-52.30847778320312
 11
32.12172698974609
 21
-49.30847778320312
  0
LINE
  8
100
  6
CONTINUOUS
 10
32.12172698974609
 20
-49.30847778320312
 11
34.12172698974609
 21
-49.30847778320312
  0
LINE
  8
100
  6
CONTINUOUS
 10
31.12172698974609
 20
-48.80847778320312
 11
35.12172698974609
 21
-48.80847778320312
  0
LINE
  8
100
  6
CONTINUOUS
 10
31.12172698974609
 20
-48.80847778320312
 11
32.12172698974609
 21
-49.30847778320312
  0
LINE
  8
100
  6
CONTINUOUS
 10
31.12172698974609
 20
-52.80847778320312
 11
31.12172698974609
 21
-48.80847778320312
  0
LINE
  8
100
  6
CONTINUOUS
 10
31.12172698974609
 20
-52.80847778320312
 11
32.12172698974609
 21
-52.30847778320312
  0
LINE
  8
100
  6
CONTINUOUS
 10
31.12172698974609
 20
-52.80847778320312
 11
35.12172698974609
 21
-52.80847778320312
  0
LINE
  8
100
  6
CONTINUOUS
 10
32.12172698974609
 20
-52.30847778320312
 11
34.12172698974609
 21
-52.30847778320312
  0
LINE
  8
100
  6
CONTINUOUS
 10
35.12172698974609
 20
-52.80847778320312
 11
34.12172698974609
 21
-52.30847778320312
  0
LINE
  8
100
  6
CONTINUOUS
 10
35.12172698974609
 20
-52.80847778320312
 11
35.12172698974609
 21
-48.80847778320312
  0
LINE
  8
100
  6
CONTINUOUS
 10
34.12172698974609
 20
-49.30847778320312
 11
35.12172698974609
 21
-48.80847778320312
  0
LINE
  8
100
  6
CONTINUOUS
 10
31.12172698974609
 20
-43.60847778320311
 11
35.12172698974609
 21
-43.60847778320311
  0
LINE
  8
100
  6
CONTINUOUS
 10
32.12172698974609
 20
-44.10847778320311
 11
34.12172698974609
 21
-44.10847778320311
  0
LINE
  8
100
  6
CONTINUOUS
 10
31.12172698974609
 20
-43.60847778320311
 11
32.12172698974609
 21
-44.10847778320311
  0
LINE
  8
100
  6
CONTINUOUS
 10
32.12172698974609
 20
-47.10847778320311
 11
32.12172698974609
 21
-44.10847778320311
  0
LINE
  8
100
  6
CONTINUOUS
 10
31.12172698974609
 20
-47.60847778320311
 11
31.12172698974609
 21
-43.60847778320311
  0
LINE
  8
100
  6
CONTINUOUS
 10
31.12172698974609
 20
-47.60847778320311
 11
32.12172698974609
 21
-47.10847778320311
  0
LINE
  8
100
  6
CONTINUOUS
 10
31.12172698974609
 20
-47.60847778320311
 11
35.12172698974609
 21
-47.60847778320311
  0
LINE
  8
100
  6
CONTINUOUS
 10
32.12172698974609
 20
-47.10847778320311
 11
34.12172698974609
 21
-47.10847778320311
  0
LINE
  8
100
  6
CONTINUOUS
 10
34.12172698974609
 20
-47.10847778320311
 11
34.12172698974609
 21
-44.10847778320311
  0
LINE
  8
100
  6
CONTINUOUS
 10
35.12172698974609
 20
-47.60847778320311
 11
34.12172698974609
 21
-47.10847778320311
  0
LINE
  8
100
  6
CONTINUOUS
 10
35.12172698974609
 20
-47.60847778320311
 11
35.12172698974609
 21
-43.60847778320311
  0
LINE
  8
100
  6
CONTINUOUS
 10
34.12172698974609
 20
-44.10847778320311
 11
35.12172698974609
 21
-43.60847778320311
  0
LINE
  8
100
  6
CONTINUOUS
 10
31.12172698974609
 20
-38.40847778320311
 11
35.12172698974609
 21
-38.40847778320311
  0
LINE
  8
100
  6
CONTINUOUS
 10
32.12172698974609
 20
-38.90847778320311
 11
34.12172698974609
 21
-38.90847778320311
  0
LINE
  8
100
  6
CONTINUOUS
 10
31.12172698974609
 20
-38.40847778320311
 11
32.12172698974609
 21
-38.90847778320311
  0
LINE
  8
100
  6
CONTINUOUS
 10
32.12172698974609
 20
-41.90847778320311
 11
32.12172698974609
 21
-38.90847778320311
  0
LINE
  8
100
  6
CONTINUOUS
 10
31.12172698974609
 20
-42.40847778320311
 11
31.12172698974609
 21
-38.40847778320311
  0
LINE
  8
100
  6
CONTINUOUS
 10
31.12172698974609
 20
-42.40847778320311
 11
32.12172698974609
 21
-41.90847778320311
  0
LINE
  8
100
  6
CONTINUOUS
 10
31.12172698974609
 20
-42.40847778320311
 11
35.12172698974609
 21
-42.40847778320311
  0
LINE
  8
100
  6
CONTINUOUS
 10
32.12172698974609
 20
-41.90847778320311
 11
34.12172698974609
 21
-41.90847778320311
  0
LINE
  8
100
  6
CONTINUOUS
 10
34.12172698974609
 20
-41.90847778320311
 11
34.12172698974609
 21
-38.90847778320311
  0
LINE
  8
100
  6
CONTINUOUS
 10
35.12172698974609
 20
-42.40847778320311
 11
34.12172698974609
 21
-41.90847778320311
  0
LINE
  8
100
  6
CONTINUOUS
 10
35.12172698974609
 20
-42.40847778320311
 11
35.12172698974609
 21
-38.40847778320311
  0
LINE
  8
100
  6
CONTINUOUS
 10
34.12172698974609
 20
-38.90847778320311
 11
35.12172698974609
 21
-38.40847778320311
  0
LINE
  8
100
  6
CONTINUOUS
 10
31.12172698974609
 20
-33.20847778320311
 11
35.12172698974609
 21
-33.20847778320311
  0
LINE
  8
100
  6
CONTINUOUS
 10
32.12172698974609
 20
-33.70847778320311
 11
34.12172698974609
 21
-33.70847778320311
  0
LINE
  8
100
  6
CONTINUOUS
 10
31.12172698974609
 20
-33.20847778320311
 11
32.12172698974609
 21
-33.70847778320311
  0
LINE
  8
100
  6
CONTINUOUS
 10
32.12172698974609
 20
-36.70847778320311
 11
32.12172698974609
 21
-33.70847778320311
  0
LINE
  8
100
  6
CONTINUOUS
 10
31.12172698974609
 20
-37.20847778320311
 11
31.12172698974609
 21
-33.20847778320311
  0
LINE
  8
100
  6
CONTINUOUS
 10
31.12172698974609
 20
-37.20847778320311
 11
32.12172698974609
 21
-36.70847778320311
  0
LINE
  8
100
  6
CONTINUOUS
 10
31.12172698974609
 20
-37.20847778320311
 11
35.12172698974609
 21
-37.20847778320311
  0
LINE
  8
100
  6
CONTINUOUS
 10
32.12172698974609
 20
-36.70847778320311
 11
34.12172698974609
 21
-36.70847778320311
  0
LINE
  8
100
  6
CONTINUOUS
 10
34.12172698974609
 20
-36.70847778320311
 11
34.12172698974609
 21
-33.70847778320311
  0
LINE
  8
100
  6
CONTINUOUS
 10
35.12172698974609
 20
-37.20847778320311
 11
34.12172698974609
 21
-36.70847778320311
  0
LINE
  8
100
  6
CONTINUOUS
 10
35.12172698974609
 20
-37.20847778320311
 11
35.12172698974609
 21
-33.20847778320311
  0
LINE
  8
100
  6
CONTINUOUS
 10
34.12172698974609
 20
-33.70847778320311
 11
35.12172698974609
 21
-33.20847778320311
  0
LINE
  8
100
  6
CONTINUOUS
 10
31.12172698974609
 20
-28.00847778320311
 11
35.12172698974609
 21
-28.00847778320311
  0
LINE
  8
100
  6
CONTINUOUS
 10
32.12172698974609
 20
-28.50847778320311
 11
34.12172698974609
 21
-28.50847778320311
  0
LINE
  8
100
  6
CONTINUOUS
 10
31.12172698974609
 20
-28.00847778320311
 11
32.12172698974609
 21
-28.50847778320311
  0
LINE
  8
100
  6
CONTINUOUS
 10
32.12172698974609
 20
-31.50847778320311
 11
32.12172698974609
 21
-28.50847778320311
  0
LINE
  8
100
  6
CONTINUOUS
 10
31.12172698974609
 20
-32.00847778320311
 11
31.12172698974609
 21
-28.00847778320311
  0
LINE
  8
100
  6
CONTINUOUS
 10
31.12172698974609
 20
-32.00847778320311
 11
32.12172698974609
 21
-31.50847778320311
  0
LINE
  8
100
  6
CONTINUOUS
 10
31.12172698974609
 20
-32.00847778320311
 11
35.12172698974609
 21
-32.00847778320311
  0
LINE
  8
100
  6
CONTINUOUS
 10
32.12172698974609
 20
-31.50847778320311
 11
34.12172698974609
 21
-31.50847778320311
  0
LINE
  8
100
  6
CONTINUOUS
 10
34.12172698974609
 20
-31.50847778320311
 11
34.12172698974609
 21
-28.50847778320311
  0
LINE
  8
100
  6
CONTINUOUS
 10
35.12172698974609
 20
-32.00847778320311
 11
34.12172698974609
 21
-31.50847778320311
  0
LINE
  8
100
  6
CONTINUOUS
 10
35.12172698974609
 20
-32.00847778320311
 11
35.12172698974609
 21
-28.00847778320311
  0
LINE
  8
100
  6
CONTINUOUS
 10
34.12172698974609
 20
-28.50847778320311
 11
35.12172698974609
 21
-28.00847778320311
  0
LINE
  8
100
  6
CONTINUOUS
 10
31.12172698974609
 20
-22.80847778320311
 11
35.12172698974609
 21
-22.80847778320311
  0
LINE
  8
100
  6
CONTINUOUS
 10
32.12172698974609
 20
-23.30847778320311
 11
34.12172698974609
 21
-23.30847778320311
  0
LINE
  8
100
  6
CONTINUOUS
 10
31.12172698974609
 20
-22.80847778320311
 11
32.12172698974609
 21
-23.30847778320311
  0
LINE
  8
100
  6
CONTINUOUS
 10
32.12172698974609
 20
-26.30847778320311
 11
32.12172698974609
 21
-23.30847778320311
  0
LINE
  8
100
  6
CONTINUOUS
 10
31.12172698974609
 20
-26.80847778320311
 11
31.12172698974609
 21
-22.80847778320311
  0
LINE
  8
100
  6
CONTINUOUS
 10
31.12172698974609
 20
-26.80847778320311
 11
32.12172698974609
 21
-26.30847778320311
  0
LINE
  8
100
  6
CONTINUOUS
 10
31.12172698974609
 20
-26.80847778320311
 11
35.12172698974609
 21
-26.80847778320311
  0
LINE
  8
100
  6
CONTINUOUS
 10
32.12172698974609
 20
-26.30847778320311
 11
34.12172698974609
 21
-26.30847778320311
  0
LINE
  8
100
  6
CONTINUOUS
 10
34.12172698974609
 20
-26.30847778320311
 11
34.12172698974609
 21
-23.30847778320311
  0
LINE
  8
100
  6
CONTINUOUS
 10
35.12172698974609
 20
-26.80847778320311
 11
34.12172698974609
 21
-26.30847778320311
  0
LINE
  8
100
  6
CONTINUOUS
 10
35.12172698974609
 20
-26.80847778320311
 11
35.12172698974609
 21
-22.80847778320311
  0
LINE
  8
100
  6
CONTINUOUS
 10
34.12172698974609
 20
-23.30847778320311
 11
35.12172698974609
 21
-22.80847778320311
  0
LINE
  8
100
  6
CONTINUOUS
 10
31.12172698974609
 20
-17.60847778320311
 11
35.12172698974609
 21
-17.60847778320311
  0
LINE
  8
100
  6
CONTINUOUS
 10
32.12172698974609
 20
-18.10847778320311
 11
34.12172698974609
 21
-18.10847778320311
  0
LINE
  8
100
  6
CONTINUOUS
 10
31.12172698974609
 20
-17.60847778320311
 11
32.12172698974609
 21
-18.10847778320311
  0
LINE
  8
100
  6
CONTINUOUS
 10
32.12172698974609
 20
-21.10847778320311
 11
32.12172698974609
 21
-18.10847778320311
  0
LINE
  8
100
  6
CONTINUOUS
 10
31.12172698974609
 20
-21.60847778320311
 11
31.12172698974609
 21
-17.60847778320311
  0
LINE
  8
100
  6
CONTINUOUS
 10
31.12172698974609
 20
-21.60847778320311
 11
32.12172698974609
 21
-21.10847778320311
  0
LINE
  8
100
  6
CONTINUOUS
 10
31.12172698974609
 20
-21.60847778320311
 11
35.12172698974609
 21
-21.60847778320311
  0
LINE
  8
100
  6
CONTINUOUS
 10
32.12172698974609
 20
-21.10847778320311
 11
34.12172698974609
 21
-21.10847778320311
  0
LINE
  8
100
  6
CONTINUOUS
 10
34.12172698974609
 20
-21.10847778320311
 11
34.12172698974609
 21
-18.10847778320311
  0
LINE
  8
100
  6
CONTINUOUS
 10
35.12172698974609
 20
-21.60847778320311
 11
34.12172698974609
 21
-21.10847778320311
  0
LINE
  8
100
  6
CONTINUOUS
 10
35.12172698974609
 20
-21.60847778320311
 11
35.12172698974609
 21
-17.60847778320311
  0
LINE
  8
100
  6
CONTINUOUS
 10
34.12172698974609
 20
-18.10847778320311
 11
35.12172698974609
 21
-17.60847778320311
  0
LINE
  8
100
  6
CONTINUOUS
 10
26.12172698974609
 20
-63.80847778320312
 11
26.12172698974609
 21
-17.00847778320311
  0
LINE
  8
100
  6
CONTINUOUS
 10
30.52172698974609
 20
-63.80847778320312
 11
30.52172698974609
 21
-17.00847778320311
  0
LINE
  8
100
  6
CONTINUOUS
 10
26.12172698974609
 20
-17.00847778320311
 11
36.12172698974609
 21
-17.00847778320311
  0
LINE
  8
100
  6
CONTINUOUS
 10
-22.87827301025391
 20
-16.60847778320313
 11
-14.87827301025391
 21
-16.60847778320313
  0
LINE
  8
100
  6
CONTINUOUS
 10
-22.87827301025391
 20
-64.20847778320312
 11
-14.87827301025391
 21
-64.20847778320312
  0
LINE
  8
100
  6
CONTINUOUS
 10
-16.37827301025391
 20
-64.20847778320312
 11
-16.37827301025391
 21
-16.60847778320313
  0
LINE
  8
100
  6
CONTINUOUS
 10
-21.37827301025391
 20
-64.20847778320312
 11
-21.37827301025391
 21
-16.60847778320313
  0
INSERT
  8
100
  6
CONTINUOUS
  2
COMP1
 10
0.0
 20
0.0
 41
1.0
 42
1.0
 50
0.0
  0
INSERT
  8
100
  6
CONTINUOUS
  2
COMP2
 10
0.0
 20
0.0
 41
1.0
 42
1.0
 50
0.0
  0
INSERT
  8
100
  6
CONTINUOUS
  2
COMP3
 10
0.0
 20
0.0
 41
1.0
 42
1.0
 50
0.0
  0
INSERT
  8
100
  6
CONTINUOUS
  2
COMP4
 10
0.0
 20
0.0
 41
1.0
 42
1.0
 50
0.0
  0
INSERT
  8
100
  6
CONTINUOUS
  2
COMP5
 10
0.0
 20
0.0
 41
1.0
 42
1.0
 50
0.0
  0
INSERT
  8
100
  6
CONTINUOUS
  2
COMP6
 10
0.0
 20
0.0
 41
1.0
 42
1.0
 50
0.0
  0
INSERT
  8
100
  6
CONTINUOUS
  2
COMP7
 10
0.0
 20
0.0
 41
1.0
 42
1.0
 50
0.0
  0
INSERT
  8
100
  6
CONTINUOUS
  2
COMP8
 10
0.0
 20
0.0
 41
1.0
 42
1.0
 50
0.0
  0
INSERT
  8
100
  6
CONTINUOUS
  2
COMP9
 10
0.0
 20
0.0
 41
1.0
 42
1.0
 50
0.0
  0
LINE
  8
100
  6
CONTINUOUS
 10
-75.87827301025391
 20
-34.40847778320313
 11
-66.87827301025391
 21
-34.40847778320313
  0
LINE
  8
100
  6
CONTINUOUS
 10
-66.87827301025391
 20
-51.40847778320313
 11
-66.87827301025391
 21
-51.40847778320313
  0
LINE
  8
100
  6
CONTINUOUS
 10
-66.87827301025391
 20
-47.40847778320313
 11
-66.87827301025391
 21
-43.40847778320313
  0
LINE
  8
100
  6
CONTINUOUS
 10
-66.87827301025391
 20
-38.40847778320313
 11
-66.87827301025391
 21
-34.40847778320313
  0
LINE
  8
100
  6
CONTINUOUS
 10
-75.87827301025391
 20
-38.40847778320313
 11
-66.87827301025391
 21
-38.40847778320313
  0
LINE
  8
100
  6
CONTINUOUS
 10
-75.87827301025391
 20
-43.40847778320313
 11
-66.87827301025391
 21
-43.40847778320313
  0
LINE
  8
100
  6
CONTINUOUS
 10
-75.87827301025391
 20
-47.40847778320313
 11
-66.87827301025391
 21
-47.40847778320313
  0
LINE
  8
100
  6
CONTINUOUS
 10
-74.87827301025391
 20
-51.40847778320313
 11
-64.87827301025391
 21
-51.40847778320313
  0
LINE
  8
100
  6
CONTINUOUS
 10
-74.87827301025391
 20
-56.40847778320313
 11
-64.87827301025391
 21
-56.40847778320313
  0
LINE
  8
100
  6
CONTINUOUS
 10
-74.87827301025391
 20
-56.40847778320313
 11
-74.87827301025391
 21
-51.40847778320313
  0
LINE
  8
100
  6
CONTINUOUS
 10
-64.87827301025391
 20
-56.40847778320313
 11
-64.87827301025391
 21
-51.40847778320313
  0
LINE
  8
100
  6
CONTINUOUS
 10
-72.87827301025391
 20
-56.40847778320313
 11
-72.87827301025391
 21
-51.40847778320313
  0
LINE
  8
100
  6
CONTINUOUS
 10
-66.87827301025391
 20
-56.40847778320313
 11
-66.87827301025391
 21
-51.40847778320313
  0
CIRCLE
  8
100
  6
CONTINUOUS
 10
-69.87827301025391
 20
-53.90847778320313
 40
1.5
  0
CIRCLE
  8
100
  6
CONTINUOUS
 10
-68.11606597900391
 20
-37.04520416259766
 40
1.0
  0
CIRCLE
  8
100
  6
CONTINUOUS
 10
-68.21014404296875
 20
-46.20445251464844
 40
1.0
  0
LINE
  8
100
  6
CONTINUOUS
 10
-75.87827301025391
 20
-47.40847778320313
 11
-75.87827301025391
 21
-43.40847778320313
  0
LINE
  8
100
  6
CONTINUOUS
 10
-75.87827301025391
 20
-38.40847778320313
 11
-75.87827301025391
 21
-34.40847778320313
  0
LINE
  8
100
  6
CONTINUOUS
 10
-25.59542465209961
 20
-61.20847778320312
 11
-22.87827301025391
 21
-61.20847778320312
  0
LINE
  8
100
  6
CONTINUOUS
 10
-25.59542465209961
 20
-56.00847778320312
 11
-22.87827301025391
 21
-56.00847778320312
  0
LINE
  8
100
  6
CONTINUOUS
 10
-25.59542465209961
 20
-50.80847778320312
 11
-22.87827301025391
 21
-50.80847778320312
  0
LINE
  8
100
  6
CONTINUOUS
 10
-25.59542465209961
 20
-45.60847778320311
 11
-22.87827301025391
 21
-45.60847778320311
  0
LINE
  8
100
  6
CONTINUOUS
 10
-25.59542465209961
 20
-40.40847778320311
 11
-22.87827301025391
 21
-40.40847778320311
  0
LINE
  8
100
  6
CONTINUOUS
 10
-25.59542465209961
 20
-35.20847778320311
 11
-22.87827301025391
 21
-35.20847778320311
  0
LINE
  8
100
  6
CONTINUOUS
 10
-25.59542465209961
 20
-40.40847778320311
 11
-22.87827301025391
 21
-40.40847778320311
  0
LINE
  8
100
  6
CONTINUOUS
 10
-25.59542465209961
 20
-30.00847778320311
 11
-22.87827301025391
 21
-30.00847778320311
  0
LINE
  8
100
  6
CONTINUOUS
 10
-25.59542465209961
 20
-24.80847778320311
 11
-22.87827301025391
 21
-24.80847778320311
  0
LINE
  8
100
  6
CONTINUOUS
 10
-25.59542465209961
 20
-19.60847778320311
 11
-22.87827301025391
 21
-19.60847778320311
  0
LINE
  8
100
  6
CONTINUOUS
 10
-75.87827301025391
 20
-20.40847778320313
 11
-66.87827301025391
 21
-20.40847778320313
  0
LINE
  8
100
  6
CONTINUOUS
 10
-66.87827301025391
 20
-28.40847778320313
 11
-66.87827301025391
 21
-20.40847778320313
  0
LINE
  8
100
  6
CONTINUOUS
 10
-75.87827301025391
 20
-28.40847778320313
 11
-75.87827301025391
 21
-20.40847778320313
  0
LINE
  8
100
  6
CONTINUOUS
 10
-75.87827301025391
 20
-28.40847778320313
 11
-66.87827301025391
 21
-28.40847778320313
  0
CIRCLE
  8
100
  6
CONTINUOUS
 10
-71.37827301025391
 20
-24.40847778320313
 40
2.0
  0
INSERT
  8
20
  6
CONTINUOUS
  2
COMP10
 10
0.0
 20
0.0
 41
1.0
 42
1.0
 50
0.0
  0
INSERT
  8
20
  6
CONTINUOUS
  2
COMP11
 10
0.0
 20
0.0
 41
1.0
 42
1.0
 50
0.0
  0
INSERT
  8
20
  6
CONTINUOUS
  2
COMP12
 10
0.0
 20
0.0
 41
1.0
 42
1.0
 50
0.0
  0
INSERT
  8
20
  6
CONTINUOUS
  2
COMP13
 10
0.0
 20
0.0
 41
1.0
 42
1.0
 50
0.0
  0
INSERT
  8
20
  6
CONTINUOUS
  2
COMP14
 10
0.0
 20
0.0
 41
1.0
 42
1.0
 50
0.0
  0
INSERT
  8
20
  6
CONTINUOUS
  2
COMP15
 10
0.0
 20
0.0
 41
1.0
 42
1.0
 50
0.0
  0
INSERT
  8
20
  6
CONTINUOUS
  2
COMP16
 10
0.0
 20
0.0
 41
1.0
 42
1.0
 50
0.0
  0
INSERT
  8
20
  6
CONTINUOUS
  2
COMP17
 10
0.0
 20
0.0
 41
1.0
 42
1.0
 50
0.0
  0
INSERT
  8
20
  6
CONTINUOUS
  2
COMP18
 10
0.0
 20
0.0
 41
1.0
 42
1.0
 50
0.0
  0
INSERT
  8
20
  6
CONTINUOUS
  2
COMP19
 10
0.0
 20
0.0
 41
1.0
 42
1.0
 50
0.0
  0
INSERT
  8
20
  6
CONTINUOUS
  2
COMP20
 10
0.0
 20
0.0
 41
1.0
 42
1.0
 50
0.0
  0
INSERT
  8
20
  6
CONTINUOUS
  2
COMP21
 10
0.0
 20
0.0
 41
1.0
 42
1.0
 50
0.0
  0
INSERT
  8
20
  6
CONTINUOUS
  2
COMP22
 10
0.0
 20
0.0
 41
1.0
 42
1.0
 50
0.0
  0
INSERT
  8
20
  6
CONTINUOUS
  2
COMP23
 10
0.0
 20
0.0
 41
1.0
 42
1.0
 50
0.0
  0
ENDSEC
  0
EOF
