  0
SECTION
  2
HEADER
  9
$ACADVER
  1
AC1006
  9
$INSBASE
 10
0.0
 20
0.0
 30
0.0
  9
$EXTMIN
 10
-17.66216216216216
 20
-69.96999943947989
  9
$EXTMAX
 10
154.2826194629166
 20
0.03000056052010791
  9
$LIMMIN
 10
-17.66216216216216
 20
-69.96999943947989
  9
$LIMMAX
 10
154.2826194629166
 20
0.03000056052010791
  9
$ORTHOMODE
 70
     0
  9
$REGENMODE
 70
     1
  9
$FILLMODE
 70
     1
  9
$QTEXTMODE
 70
     0
  9
$MIRRTEXT
 70
     1
  9
$DRAGMODE
 70
     2
  9
$LTSCALE
 40
1.0
  9
$OSMODE
 70
     0
  9
$ATTMODE
 70
     1
  9
$TEXTSIZE
 40
3.0
  9
$TRACEWID
 40
0.5
  9
$TEXTSTYLE
  7
STANDARD
  9
$CLAYER
  8
0
  9
$CELTYPE
  6
BYLAYER
  9
$CECOLOR
 62
   256
  9
$DIMSCALE
 40
1.0
  9
$DIMASZ
 40
3.0
  9
$DIMEXO
 40
1.0
  9
$DIMDLI
 40
5.0
  9
$DIMRND
 40
0.0
  9
$DIMDLE
 40
5.0
  9
$DIMEXE
 40
2.0
  9
$DIMTP
 40
0.0
  9
$DIMTM
 40
0.0
  9
$DIMTXT
 40
3.0
  9
$DIMCEN
 40
2.0
  9
$DIMTSZ
 40
0.0
  9
$DIMTOL
 70
     0
  9
$DIMLIM
 70
     0
  9
$DIMTIH
 70
     0
  9
$DIMTOH
 70
     0
  9
$DIMSE1
 70
     0
  9
$DIMSE2
 70
     0
  9
$DIMTAD
 70
     1
  9
$DIMZIN
 70
     8
  9
$DIMBLK
  1

  9
$DIMASO
 70
     1
  9
$DIMSHO
 70
     0
  9
$DIMPOST
  1

  9
$DIMAPOST
  1

  9
$DIMALT
 70
     0
  9
$DIMALTD
 70
     4
  9
$DIMALTF
 40
25.4
  9
$DIMLFAC
 40
1.0
  9
$DIMTOFL
 70
     1
  9
$DIMTVP
 40
1.0
  9
$DIMTIX
 70
     0
  9
$DIMSOXD
 70
     0
  9
$DIMSAH
 70
     0
  9
$DIMBLK1
  1

  9
$DIMBLK2
  1

  9
$LUNITS
 70
     2
  9
$LUPREC
 70
     4
  9
$AXISMODE
 70
     0
  9
$AXISUNIT
 10
0.0
 20
0.0
  9
$SKETCHINC
 40
1.0
  9
$FILLETRAD
 40
0.0
  9
$AUNITS
 70
     0
  9
$AUPREC
 70
     0
  9
$MENU
  1
acad
  9
$ELEVATION
 40
0.0
  9
$THICKNESS
 40
0.0
  9
$LIMCHECK
 70
     0
  9
$BLIPMODE
 70
     1
  9
$CHAMFERA
 40
0.0
  9
$CHAMFERB
 40
0.0
  9
$SKPOLY
 70
     0
  9
$TDCREATE
 40
2454078.683541667
  9
$TDUPDATE
 40
2454078.683541667
  9
$TDINDWG
 40
0.0
  9
$TDUSRTIMER
 40
0.0
  9
$USRTIMER
 70
     1
  9
$ANGBASE
 50
0.0
  9
$ANGDIR
 70
     0
  9
$PDMODE
 70
     0
  9
$PDSIZE
 40
0.0
  9
$PLINEWID
 40
0.0
  9
$COORDS
 70
     0
  9
$SPLFRAME
 70
     0
  9
$SPLINETYPE
 70
     6
  9
$SPLINESEGS
 70
     8
  9
$ATTDIA
 70
     0
  9
$ATTREQ
 70
     1
  9
$HANDLING
 70
     0
  9
$HANDSEED
  5
0
  9
$SURFTAB1
 70
     6
  9
$SURFTAB2
 70
     6
  9
$SURFTYPE
 70
     6
  9
$SURFU
 70
     6
  9
$SURFV
 70
     6
  9
$FLATLAND
 70
     0
  9
$UCSNAME
  2

  9
$UCSORG
 10
0.0
 20
0.0
 30
0.0
  9
$UCSXDIR
 10
1.0
 20
0.0
 30
0.0
  9
$UCSYDIR
 10
0.0
 20
1.0
 30
0.0
  9
$USERI1
 70
     0
  9
$USERI2
 70
     0
  9
$USERI3
 70
     0
  9
$USERI4
 70
     0
  9
$USERI5
 70
     0
  9
$USERR1
 40
0.0
  9
$USERR2
 40
0.0
  9
$USERR3
 40
0.0
  9
$USERR4
 40
0.0
  9
$USERR5
 40
0.0
  9
$WORLDVIEW
 70
     1
  0
ENDSEC
  0
SECTION
  2
TABLES
  0
TABLE
  2
VPORT
 70
     1
  0
VPORT
  2
*ACTIVE
 70
     0
 10
0.0
 20
0.0
 11
1.0
 21
1.0
 12
68.31022865037724
 22
-34.96999943947989
 13
0.0
 23
0.0
 14
0.0
 24
0.0
 15
0.0
 25
0.0
 16
0.0
 26
0.0
 36
1.0
 17
0.0
 27
0.0
 37
0.0
 40
171.9447816250788
 41
1.5
 42
50.0
 43
0.0
 44
0.0
 50
0.0
 51
0.0
 71
     0
 72
   100
 73
     1
 74
     1
 75
     0
 76
     0
 77
     0
 78
     0
  0
ENDTAB
  0
TABLE
  2
LTYPE
 70
    20
  0
LTYPE
  2
CONTINUOUS
 70
    64
  3
solid line
 72
    65
 73
     0
 40
0.0
  0
ENDTAB
  0
TABLE
  2
LAYER
 70
    20
  0
LAYER
  2
0
 70
    64
 62
     7
  6
CONTINUOUS
  0
LAYER
  2
100
 70
    64
 62
     7
  6
CONTINUOUS
  0
LAYER
  2
30
 70
    64
 62
     7
  6
CONTINUOUS
  0
LAYER
  2
20
 70
    64
 62
     7
  6
CONTINUOUS
  0
ENDTAB
  0
TABLE
  2
STYLE
 70
     4
  0
ENDTAB
  0
TABLE
  2
VIEW
 70
     0
  0
ENDTAB
  0
TABLE
  2
UCS
 70
     0
  0
ENDTAB
  0
TABLE
  2
DWGMGR
 70
     0
  0
ENDTAB
  0
ENDSEC
  0
SECTION
  2
BLOCKS
  0
BLOCK
  8
30
  2
HACH1
 70
    64
 10
0.0
 20
0.0
  0
LINE
  8
30
  6
CONTINUOUS
 10
-1.405805228850618
 20
-49.5058830165808
 11
-0.05637932974243753
 21
-50.85530891568898
  0
LINE
  8
30
  6
CONTINUOUS
 10
-0.5240661793644392
 20
-48.97340850369388
 11
0.4831493570321115
 21
-49.98062404009043
  0
LINE
  8
30
  6
CONTINUOUS
 10
3.597810852331524
 20
-50.26685841064365
 11
4.248905207527898
 21
-50.91795276584003
  0
LINE
  8
30
  6
CONTINUOUS
 10
3.93243653165468
 20
-49.18727052759372
 11
5.337371774784671
 21
-50.59220577072371
  0
LINE
  8
30
  6
CONTINUOUS
 10
8.672523922030795
 20
-49.68471723085055
 11
9.915068109428798
 21
-50.92726141824855
  0
LINE
  8
30
  6
CONTINUOUS
 10
9.40246674918205
 20
-49.0004464956287
 11
10.61040264922373
 21
-50.20838239567038
  0
LINE
  8
30
  6
CONTINUOUS
 10
13.96344252738868
 20
-49.31878158671604
 11
15.37620403986398
 21
-50.73154309919135
  0
LINE
  8
30
  6
CONTINUOUS
 10
15.10342983812182
 20
-49.04455533507611
 11
15.63234881469597
 21
-49.57347431165024
  0
LINE
  8
30
  6
CONTINUOUS
 10
18.79933324612454
 20
-49.91203161833263
 11
19.85389200305782
 21
-50.96659037526591
  0
LINE
  8
30
  6
CONTINUOUS
 10
19.36501990126109
 20
-49.06350471109608
 11
20.69845749803651
 21
-50.3969423078715
  0
LINE
  8
30
  6
CONTINUOUS
 10
24.01170244206047
 20
-49.46754656477618
 11
25.37761680426933
 21
-50.83346092698503
  0
LINE
  8
30
  6
CONTINUOUS
 10
24.93177794335128
 20
-48.97340850369389
 11
25.87734011538535
 21
-49.91897067572796
  0
LINE
  8
30
  6
CONTINUOUS
 10
28.98360960420202
 20
-50.19681303979844
 11
29.72796270636872
 21
-50.94116614196515
  0
LINE
  8
30
  6
CONTINUOUS
 10
29.36643266566643
 20
-49.16542253888976
 11
30.76329681090057
 21
-50.5622866841239
  0
LINE
  8
30
  6
CONTINUOUS
 10
34.09003159294188
 20
-49.64638077904591
 11
35.35823676979604
 21
-50.91458595590007
  0
LINE
  8
30
  6
CONTINUOUS
 10
34.84563540954927
 20
-48.98777103328022
 11
36.01742251726621
 21
-50.15955814099715
  0
LINE
  8
30
  6
CONTINUOUS
 10
39.38936756350458
 20
-49.28886250011623
 11
40.80236012413229
 21
-50.70185506074394
  0
LINE
  8
30
  6
CONTINUOUS
 10
40.62780257529992
 20
-49.11308394953849
 11
40.98540893243292
 21
-49.47069030667148
  0
LINE
  8
30
  6
CONTINUOUS
 10
44.20635311416704
 20
-49.86320736365942
 11
45.30973612577353
 21
-50.9665903752659
  0
LINE
  8
30
  6
CONTINUOUS
 10
44.80425961459581
 20
-49.0469003017151
 11
46.1159651689476
 21
-50.35860585606688
  0
ENDBLK
  8
30
  0
BLOCK
  8
20
  2
COMP1
 70
    64
 10
0.0
 20
0.0
  0
POLYLINE
  8
20
  6
CONTINUOUS
 66
     1
 70
     0
 40
0.0
 41
0.0
  0
VERTEX
  8
20
 10
51.59936904907227
 20
-11.35675430297852
 42
0.875
  0
VERTEX
  8
20
 10
50.59936904907227
 20
-11.35675430297852
  0
VERTEX
  8
20
 10
50.59936904907227
 20
-12.54425430297852
 42
0.7500000000000001
  0
VERTEX
  8
20
 10
51.59936904907227
 20
-12.54425430297852
  0
SEQEND
  8
20
  0
POLYLINE
  8
20
  6
CONTINUOUS
 66
     1
 70
     0
 40
0.0
 41
0.0
  0
VERTEX
  8
20
 10
51.97436904907227
 20
-12.91925430297852
  0
VERTEX
  8
20
 10
52.47436904907227
 20
-10.91925430297852
  0
VERTEX
  8
20
 10
52.97436904907227
 20
-12.91925430297852
  0
SEQEND
  8
20
  0
POLYLINE
  8
20
  6
CONTINUOUS
 66
     1
 70
     0
 40
0.0
 41
0.0
  0
VERTEX
  8
20
 10
52.81811904907227
 20
-12.29425430297852
  0
VERTEX
  8
20
 10
52.13061904907227
 20
-12.29425430297852
  0
SEQEND
  8
20
  0
POLYLINE
  8
20
  6
CONTINUOUS
 66
     1
 70
     0
 40
0.0
 41
0.0
  0
VERTEX
  8
20
 10
53.34936904907227
 20
-10.91925430297852
  0
VERTEX
  8
20
 10
53.34936904907227
 20
-12.91925430297852
  0
VERTEX
  8
20
 10
54.34936904907227
 20
-12.91925430297852
  0
SEQEND
  8
20
  0
POLYLINE
  8
20
  6
CONTINUOUS
 66
     1
 70
     0
 40
0.0
 41
0.0
  0
VERTEX
  8
20
 10
55.03686904907227
 20
-10.91925430297852
  0
VERTEX
  8
20
 10
55.41186904907227
 20
-10.91925430297852
  0
SEQEND
  8
20
  0
POLYLINE
  8
20
  6
CONTINUOUS
 66
     1
 70
     0
 40
0.0
 41
0.0
  0
VERTEX
  8
20
 10
55.03686904907227
 20
-12.91925430297852
  0
VERTEX
  8
20
 10
55.41186904907227
 20
-12.91925430297852
  0
SEQEND
  8
20
  0
POLYLINE
  8
20
  6
CONTINUOUS
 66
     1
 70
     0
 40
0.0
 41
0.0
  0
VERTEX
  8
20
 10
55.22436904907227
 20
-12.91925430297852
  0
VERTEX
  8
20
 10
55.22436904907227
 20
-10.91925430297852
  0
SEQEND
  8
20
  0
POLYLINE
  8
20
  6
CONTINUOUS
 66
     1
 70
     0
 40
0.0
 41
0.0
  0
VERTEX
  8
20
 10
56.09936904907227
 20
-12.91925430297852
  0
VERTEX
  8
20
 10
56.66186904907227
 20
-12.91925430297852
 42
0.875
  0
VERTEX
  8
20
 10
56.66186904907227
 20
-11.91925430297852
 42
0.875
  0
VERTEX
  8
20
 10
56.66186904907227
 20
-10.91925430297852
  0
VERTEX
  8
20
 10
56.09936904907227
 20
-10.91925430297852
  0
VERTEX
  8
20
 10
56.09936904907227
 20
-12.91925430297852
  0
SEQEND
  8
20
  0
POLYLINE
  8
20
  6
CONTINUOUS
 66
     1
 70
     0
 40
0.0
 41
0.0
  0
VERTEX
  8
20
 10
56.09936904907227
 20
-11.91925430297852
  0
VERTEX
  8
20
 10
56.66186904907227
 20
-11.91925430297852
  0
SEQEND
  8
20
  0
ENDBLK
  8
20
  0
BLOCK
  8
20
  2
COMP2
 70
    64
 10
0.0
 20
0.0
  0
POLYLINE
  8
20
  6
CONTINUOUS
 66
     1
 70
     0
 40
0.0
 41
0.0
  0
VERTEX
  8
20
 10
57.84886169433594
 20
-14.37005710601807
  0
VERTEX
  8
20
 10
57.84886169433594
 20
-15.26068210601807
 42
0.75
  0
VERTEX
  8
20
 10
58.59886169433594
 20
-15.26068210601807
  0
VERTEX
  8
20
 10
58.59886169433594
 20
-14.37005710601807
 42
0.8749999999999999
  0
VERTEX
  8
20
 10
57.84886169433594
 20
-14.37005710601807
  0
SEQEND
  8
20
  0
POLYLINE
  8
20
  6
CONTINUOUS
 66
     1
 70
     0
 40
0.0
 41
0.0
  0
VERTEX
  8
20
 10
58.88011169433594
 20
-15.54193210601807
  0
VERTEX
  8
20
 10
58.88011169433594
 20
-14.04193210601807
  0
VERTEX
  8
20
 10
59.63011169433594
 20
-15.54193210601807
  0
VERTEX
  8
20
 10
59.63011169433594
 20
-14.04193210601807
  0
SEQEND
  8
20
  0
ENDBLK
  8
20
  0
BLOCK
  8
20
  2
COMP3
 70
    64
 10
0.0
 20
0.0
  0
POLYLINE
  8
20
  6
CONTINUOUS
 66
     1
 70
     0
 40
0.0
 41
0.0
  0
VERTEX
  8
20
 10
57.54268264770508
 20
-20.78706169128418
  0
VERTEX
  8
20
 10
57.54268264770508
 20
-21.67768669128418
 42
0.75
  0
VERTEX
  8
20
 10
58.29268264770508
 20
-21.67768669128418
  0
VERTEX
  8
20
 10
58.29268264770508
 20
-20.78706169128418
 42
0.8749999999999999
  0
VERTEX
  8
20
 10
57.54268264770508
 20
-20.78706169128418
  0
SEQEND
  8
20
  0
POLYLINE
  8
20
  6
CONTINUOUS
 66
     1
 70
     0
 40
0.0
 41
0.0
  0
VERTEX
  8
20
 10
59.32393264770508
 20
-20.45893669128418
  0
VERTEX
  8
20
 10
58.57393264770508
 20
-20.45893669128418
  0
VERTEX
  8
20
 10
58.57393264770508
 20
-21.95893669128418
  0
SEQEND
  8
20
  0
POLYLINE
  8
20
  6
CONTINUOUS
 66
     1
 70
     0
 40
0.0
 41
0.0
  0
VERTEX
  8
20
 10
58.57393264770508
 20
-21.20893669128418
  0
VERTEX
  8
20
 10
59.23018264770508
 20
-21.20893669128418
  0
SEQEND
  8
20
  0
POLYLINE
  8
20
  6
CONTINUOUS
 66
     1
 70
     0
 40
0.0
 41
0.0
  0
VERTEX
  8
20
 10
60.35518264770508
 20
-20.45893669128418
  0
VERTEX
  8
20
 10
59.60518264770508
 20
-20.45893669128418
  0
VERTEX
  8
20
 10
59.60518264770508
 20
-21.95893669128418
  0
SEQEND
  8
20
  0
POLYLINE
  8
20
  6
CONTINUOUS
 66
     1
 70
     0
 40
0.0
 41
0.0
  0
VERTEX
  8
20
 10
59.60518264770508
 20
-21.20893669128418
  0
VERTEX
  8
20
 10
60.26143264770508
 20
-21.20893669128418
  0
SEQEND
  8
20
  0
ENDBLK
  8
20
  0
BLOCK
  8
20
  2
COMP4
 70
    64
 10
0.0
 20
0.0
  0
POLYLINE
  8
20
  6
CONTINUOUS
 66
     1
 70
     0
 40
0.0
 41
0.0
  0
VERTEX
  8
20
 10
56.39834213256836
 20
-21.82826805114746
  0
VERTEX
  8
20
 10
56.39834213256836
 20
-20.82826805114746
  0
VERTEX
  8
20
 10
56.22646713256836
 20
-21.12514305114746
  0
SEQEND
  8
20
  0
ENDBLK
  8
20
  0
BLOCK
  8
20
  2
COMP5
 70
    64
 10
0.0
 20
0.0
  0
POLYLINE
  8
20
  6
CONTINUOUS
 66
     1
 70
     0
 40
0.0
 41
0.0
  0
VERTEX
  8
20
 10
56.14834213256836
 20
-14.61576843261719
  0
VERTEX
  8
20
 10
56.30459213256836
 20
-14.42826843261719
  0
VERTEX
  8
20
 10
56.49209213256836
 20
-14.42826843261719
  0
VERTEX
  8
20
 10
56.64834213256836
 20
-14.61576843261719
  0
VERTEX
  8
20
 10
56.64834213256836
 20
-14.77201843261719
  0
VERTEX
  8
20
 10
56.46084213256836
 20
-14.92826843261719
  0
VERTEX
  8
20
 10
56.27334213256836
 20
-14.92826843261719
  0
SEQEND
  8
20
  0
POLYLINE
  8
20
  6
CONTINUOUS
 66
     1
 70
     0
 40
0.0
 41
0.0
  0
VERTEX
  8
20
 10
56.46084213256836
 20
-14.92826843261719
  0
VERTEX
  8
20
 10
56.64834213256836
 20
-15.11576843261719
  0
VERTEX
  8
20
 10
56.64834213256836
 20
-15.27201843261719
  0
VERTEX
  8
20
 10
56.49209213256836
 20
-15.42826843261719
  0
VERTEX
  8
20
 10
56.30459213256836
 20
-15.42826843261719
  0
VERTEX
  8
20
 10
56.14834213256836
 20
-15.27201843261719
  0
SEQEND
  8
20
  0
ENDBLK
  8
20
  0
BLOCK
  8
20
  2
COMP6
 70
    64
 10
0.0
 20
0.0
  0
POLYLINE
  8
20
  6
CONTINUOUS
 66
     1
 70
     0
 40
0.0
 41
0.0
  0
VERTEX
  8
20
 10
50.84429931640625
 20
-17.63773155212402
  0
VERTEX
  8
20
 10
51.00054931640625
 20
-17.45023155212402
  0
VERTEX
  8
20
 10
51.18804931640625
 20
-17.45023155212402
  0
VERTEX
  8
20
 10
51.34429931640625
 20
-17.63773155212402
  0
VERTEX
  8
20
 10
51.34429931640625
 20
-17.88773155212402
  0
VERTEX
  8
20
 10
50.84429931640625
 20
-18.32523155212402
  0
VERTEX
  8
20
 10
50.84429931640625
 20
-18.45023155212402
  0
VERTEX
  8
20
 10
51.34429931640625
 20
-18.45023155212402
  0
SEQEND
  8
20
  0
ENDBLK
  8
20
  0
BLOCK
  8
20
  2
COMP7
 70
    64
 10
0.0
 20
0.0
  0
POLYLINE
  8
20
  6
CONTINUOUS
 66
     1
 70
     0
 40
0.0
 41
0.0
  0
VERTEX
  8
20
 10
53.14834213256836
 20
-21.01576805114746
 42
0.3601198250963753
  0
VERTEX
  8
20
 10
52.89834213256836
 20
-20.82826805114746
 42
0.3984707689582087
  0
VERTEX
  8
20
 10
52.64834213256836
 20
-21.04701805114746
 42
0.4142186781788212
  0
VERTEX
  8
20
 10
52.89834213256836
 20
-21.32826805114746
 42
-0.3750000000000001
  0
VERTEX
  8
20
 10
53.14834213256836
 20
-21.57826805114746
 42
-0.4832182164805917
  0
VERTEX
  8
20
 10
52.91396713256836
 20
-21.82826805114746
 42
-0.3193852892056865
  0
VERTEX
  8
20
 10
52.64834213256836
 20
-21.64076805114746
  0
SEQEND
  8
20
  0
POLYLINE
  8
20
  6
CONTINUOUS
 66
     1
 70
     0
 40
0.0
 41
0.0
  0
VERTEX
  8
20
 10
53.83584213256836
 20
-20.82826805114746
  0
VERTEX
  8
20
 10
53.71084213256836
 20
-21.82826805114746
  0
VERTEX
  8
20
 10
53.58584213256836
 20
-20.85951805114746
  0
VERTEX
  8
20
 10
53.46084213256836
 20
-21.82826805114746
  0
VERTEX
  8
20
 10
53.33584213256836
 20
-20.82826805114746
  0
SEQEND
  8
20
  0
POLYLINE
  8
20
  6
CONTINUOUS
 66
     1
 70
     0
 40
0.0
 41
0.0
  0
VERTEX
  8
20
 10
54.27334213256836
 20
-21.82826805114746
  0
VERTEX
  8
20
 10
54.27334213256836
 20
-20.82826805114746
  0
VERTEX
  8
20
 10
54.10146713256836
 20
-21.12514305114746
  0
SEQEND
  8
20
  0
ENDBLK
  8
20
  0
BLOCK
  8
20
  2
COMP8
 70
    64
 10
0.0
 20
0.0
  0
POLYLINE
  8
20
  6
CONTINUOUS
 66
     1
 70
     0
 40
0.0
 41
0.0
  0
VERTEX
  8
20
 10
35.14617156982422
 20
-21.18245697021484
  0
VERTEX
  8
20
 10
35.14617156982422
 20
-21.99495697021484
 42
0.7500000000000001
  0
VERTEX
  8
20
 10
35.64617156982422
 20
-21.99495697021484
  0
VERTEX
  8
20
 10
35.64617156982422
 20
-21.18245697021484
  0
SEQEND
  8
20
  0
POLYLINE
  8
20
  6
CONTINUOUS
 66
     1
 70
     0
 40
0.0
 41
0.0
  0
VERTEX
  8
20
 10
35.83367156982422
 20
-21.36995697021484
  0
VERTEX
  8
20
 10
35.98992156982422
 20
-21.18245697021484
  0
VERTEX
  8
20
 10
36.17742156982422
 20
-21.18245697021484
  0
VERTEX
  8
20
 10
36.33367156982422
 20
-21.36995697021484
  0
VERTEX
  8
20
 10
36.33367156982422
 20
-21.61995697021484
  0
VERTEX
  8
20
 10
35.83367156982422
 20
-22.05745697021484
  0
VERTEX
  8
20
 10
35.83367156982422
 20
-22.18245697021484
  0
VERTEX
  8
20
 10
36.33367156982422
 20
-22.18245697021484
  0
SEQEND
  8
20
  0
ENDBLK
  8
20
  0
BLOCK
  8
20
  2
COMP9
 70
    64
 10
0.0
 20
0.0
  0
POLYLINE
  8
20
  6
CONTINUOUS
 66
     1
 70
     0
 40
0.0
 41
0.0
  0
VERTEX
  8
20
 10
49.19607543945313
 20
-30.78744888305664
  0
VERTEX
  8
20
 10
48.94607543945313
 20
-31.78744888305664
  0
VERTEX
  8
20
 10
48.69607543945313
 20
-30.78744888305664
  0
SEQEND
  8
20
  0
POLYLINE
  8
20
  6
CONTINUOUS
 66
     1
 70
     0
 40
0.0
 41
0.0
  0
VERTEX
  8
20
 10
49.38357543945313
 20
-31.28744888305664
  0
VERTEX
  8
20
 10
49.63357543945313
 20
-31.28744888305664
 42
0.4142135623731064
  0
VERTEX
  8
20
 10
49.88357543945313
 20
-31.03744888305664
 42
0.4142135623731064
  0
VERTEX
  8
20
 10
49.63357543945313
 20
-30.78744888305664
  0
VERTEX
  8
20
 10
49.38357543945313
 20
-30.78744888305664
  0
VERTEX
  8
20
 10
49.38357543945313
 20
-31.78744888305664
  0
SEQEND
  8
20
  0
POLYLINE
  8
20
  6
CONTINUOUS
 66
     1
 70
     0
 40
0.0
 41
0.0
  0
VERTEX
  8
20
 10
49.88357543945313
 20
-31.78744888305664
  0
VERTEX
  8
20
 10
49.63357543945313
 20
-31.28744888305664
  0
SEQEND
  8
20
  0
POLYLINE
  8
20
  6
CONTINUOUS
 66
     1
 70
     0
 40
0.0
 41
0.0
  0
VERTEX
  8
20
 10
50.07107543945313
 20
-30.97494888305664
  0
VERTEX
  8
20
 10
50.22732543945313
 20
-30.78744888305664
  0
VERTEX
  8
20
 10
50.41482543945313
 20
-30.78744888305664
  0
VERTEX
  8
20
 10
50.57107543945313
 20
-30.97494888305664
  0
VERTEX
  8
20
 10
50.57107543945313
 20
-31.13119888305664
  0
VERTEX
  8
20
 10
50.38357543945313
 20
-31.28744888305664
  0
VERTEX
  8
20
 10
50.19607543945313
 20
-31.28744888305664
  0
SEQEND
  8
20
  0
POLYLINE
  8
20
  6
CONTINUOUS
 66
     1
 70
     0
 40
0.0
 41
0.0
  0
VERTEX
  8
20
 10
50.38357543945313
 20
-31.28744888305664
  0
VERTEX
  8
20
 10
50.57107543945313
 20
-31.47494888305664
  0
VERTEX
  8
20
 10
50.57107543945313
 20
-31.63119888305664
  0
VERTEX
  8
20
 10
50.41482543945313
 20
-31.78744888305664
  0
VERTEX
  8
20
 10
50.22732543945313
 20
-31.78744888305664
  0
VERTEX
  8
20
 10
50.07107543945313
 20
-31.63119888305664
  0
SEQEND
  8
20
  0
ENDBLK
  8
20
  0
BLOCK
  8
20
  2
COMP10
 70
    64
 10
0.0
 20
0.0
  0
POLYLINE
  8
20
  6
CONTINUOUS
 66
     1
 70
     0
 40
0.0
 41
0.0
  0
VERTEX
  8
20
 10
40.64760589599609
 20
-11.98999977111816
  0
VERTEX
  8
20
 10
40.39760589599609
 20
-12.98999977111816
  0
VERTEX
  8
20
 10
40.14760589599609
 20
-11.98999977111816
  0
SEQEND
  8
20
  0
POLYLINE
  8
20
  6
CONTINUOUS
 66
     1
 70
     0
 40
0.0
 41
0.0
  0
VERTEX
  8
20
 10
40.83510589599609
 20
-12.48999977111816
  0
VERTEX
  8
20
 10
41.08510589599609
 20
-12.48999977111816
 42
0.4142135623731023
  0
VERTEX
  8
20
 10
41.33510589599609
 20
-12.23999977111816
 42
0.4142135623730965
  0
VERTEX
  8
20
 10
41.08510589599609
 20
-11.98999977111816
  0
VERTEX
  8
20
 10
40.83510589599609
 20
-11.98999977111816
  0
VERTEX
  8
20
 10
40.83510589599609
 20
-12.98999977111816
  0
SEQEND
  8
20
  0
POLYLINE
  8
20
  6
CONTINUOUS
 66
     1
 70
     0
 40
0.0
 41
0.0
  0
VERTEX
  8
20
 10
41.33510589599609
 20
-12.98999977111816
  0
VERTEX
  8
20
 10
41.08510589599609
 20
-12.48999977111816
  0
SEQEND
  8
20
  0
POLYLINE
  8
20
  6
CONTINUOUS
 66
     1
 70
     0
 40
0.0
 41
0.0
  0
VERTEX
  8
20
 10
41.52260589599609
 20
-12.17749977111816
  0
VERTEX
  8
20
 10
41.67885589599609
 20
-11.98999977111816
  0
VERTEX
  8
20
 10
41.86635589599609
 20
-11.98999977111816
  0
VERTEX
  8
20
 10
42.02260589599609
 20
-12.17749977111816
  0
VERTEX
  8
20
 10
42.02260589599609
 20
-12.42749977111816
  0
VERTEX
  8
20
 10
41.52260589599609
 20
-12.86499977111816
  0
VERTEX
  8
20
 10
41.52260589599609
 20
-12.98999977111816
  0
VERTEX
  8
20
 10
42.02260589599609
 20
-12.98999977111816
  0
SEQEND
  8
20
  0
ENDBLK
  8
20
  0
BLOCK
  8
20
  2
COMP11
 70
    64
 10
0.0
 20
0.0
  0
POLYLINE
  8
20
  6
CONTINUOUS
 66
     1
 70
     0
 40
0.0
 41
0.0
  0
VERTEX
  8
20
 10
34.904541015625
 20
-1.301769495010376
 42
0.3601275085254657
  0
VERTEX
  8
20
 10
34.404541015625
 20
-0.926769495010376
 42
0.398472352102916
  0
VERTEX
  8
20
 10
33.904541015625
 20
-1.364269495010376
 42
0.4142129654951351
  0
VERTEX
  8
20
 10
34.404541015625
 20
-1.926769495010376
 42
-0.3750000000000001
  0
VERTEX
  8
20
 10
34.904541015625
 20
-2.426769495010376
 42
-0.4832262641217917
  0
VERTEX
  8
20
 10
34.435791015625
 20
-2.926769495010376
 42
-0.3193927965555179
  0
VERTEX
  8
20
 10
33.904541015625
 20
-2.551769495010376
  0
SEQEND
  8
20
  0
POLYLINE
  8
20
  6
CONTINUOUS
 66
     1
 70
     0
 40
0.0
 41
0.0
  0
VERTEX
  8
20
 10
35.279541015625
 20
-1.926769495010376
  0
VERTEX
  8
20
 10
35.779541015625
 20
-1.926769495010376
 42
0.414213562373103
  0
VERTEX
  8
20
 10
36.279541015625
 20
-1.426769495010376
 42
0.4142135623730983
  0
VERTEX
  8
20
 10
35.779541015625
 20
-0.926769495010376
  0
VERTEX
  8
20
 10
35.279541015625
 20
-0.926769495010376
  0
VERTEX
  8
20
 10
35.279541015625
 20
-2.926769495010376
  0
SEQEND
  8
20
  0
POLYLINE
  8
20
  6
CONTINUOUS
 66
     1
 70
     0
 40
0.0
 41
0.0
  0
VERTEX
  8
20
 10
36.654541015625
 20
-2.926769495010376
  0
VERTEX
  8
20
 10
37.154541015625
 20
-0.926769495010376
  0
VERTEX
  8
20
 10
37.654541015625
 20
-2.926769495010376
  0
SEQEND
  8
20
  0
POLYLINE
  8
20
  6
CONTINUOUS
 66
     1
 70
     0
 40
0.0
 41
0.0
  0
VERTEX
  8
20
 10
37.498291015625
 20
-2.301769495010376
  0
VERTEX
  8
20
 10
36.810791015625
 20
-2.301769495010376
  0
SEQEND
  8
20
  0
POLYLINE
  8
20
  6
CONTINUOUS
 66
     1
 70
     0
 40
0.0
 41
0.0
  0
VERTEX
  8
20
 10
38.029541015625
 20
-2.926769495010376
  0
VERTEX
  8
20
 10
38.029541015625
 20
-0.926769495010376
  0
VERTEX
  8
20
 10
39.029541015625
 20
-2.926769495010376
  0
VERTEX
  8
20
 10
39.029541015625
 20
-0.926769495010376
  0
SEQEND
  8
20
  0
ENDBLK
  8
20
  0
BLOCK
  8
20
  2
COMP12
 70
    64
 10
0.0
 20
0.0
  0
POLYLINE
  8
20
  6
CONTINUOUS
 66
     1
 70
     0
 40
0.0
 41
0.0
  0
VERTEX
  8
20
 10
19.92304420471191
 20
-0.8318724632263184
  0
VERTEX
  8
20
 10
20.92304420471191
 20
-0.8318724632263184
  0
VERTEX
  8
20
 10
19.92304420471191
 20
-2.831872463226318
  0
VERTEX
  8
20
 10
20.92304420471191
 20
-2.831872463226318
  0
SEQEND
  8
20
  0
POLYLINE
  8
20
  6
CONTINUOUS
 66
     1
 70
     0
 40
0.0
 41
0.0
  0
VERTEX
  8
20
 10
22.29804420471191
 20
-0.8318724632263184
  0
VERTEX
  8
20
 10
21.29804420471191
 20
-0.8318724632263184
  0
VERTEX
  8
20
 10
21.29804420471191
 20
-2.831872463226318
  0
VERTEX
  8
20
 10
22.29804420471191
 20
-2.831872463226318
  0
SEQEND
  8
20
  0
POLYLINE
  8
20
  6
CONTINUOUS
 66
     1
 70
     0
 40
0.0
 41
0.0
  0
VERTEX
  8
20
 10
21.29804420471191
 20
-1.831872463226318
  0
VERTEX
  8
20
 10
22.29804420471191
 20
-1.831872463226318
  0
SEQEND
  8
20
  0
POLYLINE
  8
20
  6
CONTINUOUS
 66
     1
 70
     0
 40
0.0
 41
0.0
  0
VERTEX
  8
20
 10
22.67304420471191
 20
-1.831872463226318
  0
VERTEX
  8
20
 10
23.17304420471191
 20
-1.831872463226318
 42
0.4142135623730931
  0
VERTEX
  8
20
 10
23.67304420471191
 20
-1.331872463226318
 42
0.4142135623730942
  0
VERTEX
  8
20
 10
23.17304420471191
 20
-0.8318724632263184
  0
VERTEX
  8
20
 10
22.67304420471191
 20
-0.8318724632263184
  0
VERTEX
  8
20
 10
22.67304420471191
 20
-2.831872463226318
  0
SEQEND
  8
20
  0
POLYLINE
  8
20
  6
CONTINUOUS
 66
     1
 70
     0
 40
0.0
 41
0.0
  0
VERTEX
  8
20
 10
23.67304420471191
 20
-2.831872463226318
  0
VERTEX
  8
20
 10
23.17304420471191
 20
-1.831872463226318
  0
SEQEND
  8
20
  0
POLYLINE
  8
20
  6
CONTINUOUS
 66
     1
 70
     0
 40
0.0
 41
0.0
  0
VERTEX
  8
20
 10
24.04804420471191
 20
-1.269372463226318
  0
VERTEX
  8
20
 10
24.04804420471191
 20
-2.456872463226318
 42
0.7500000000000001
  0
VERTEX
  8
20
 10
25.04804420471191
 20
-2.456872463226318
  0
VERTEX
  8
20
 10
25.04804420471191
 20
-1.269372463226318
 42
0.875
  0
VERTEX
  8
20
 10
24.04804420471191
 20
-1.269372463226318
  0
SEQEND
  8
20
  0
ENDBLK
  8
20
  0
BLOCK
  8
20
  2
COMP13
 70
    64
 10
0.0
 20
0.0
  0
POLYLINE
  8
20
  6
CONTINUOUS
 66
     1
 70
     0
 40
0.0
 41
0.0
  0
VERTEX
  8
20
 10
26.75608444213867
 20
-11.98999977111816
  0
VERTEX
  8
20
 10
26.50608444213867
 20
-12.98999977111816
  0
VERTEX
  8
20
 10
26.25608444213867
 20
-11.98999977111816
  0
SEQEND
  8
20
  0
POLYLINE
  8
20
  6
CONTINUOUS
 66
     1
 70
     0
 40
0.0
 41
0.0
  0
VERTEX
  8
20
 10
26.94358444213867
 20
-12.48999977111816
  0
VERTEX
  8
20
 10
27.19358444213867
 20
-12.48999977111816
 42
0.4142135623731023
  0
VERTEX
  8
20
 10
27.44358444213867
 20
-12.23999977111816
 42
0.4142135623730965
  0
VERTEX
  8
20
 10
27.19358444213867
 20
-11.98999977111816
  0
VERTEX
  8
20
 10
26.94358444213867
 20
-11.98999977111816
  0
VERTEX
  8
20
 10
26.94358444213867
 20
-12.98999977111816
  0
SEQEND
  8
20
  0
POLYLINE
  8
20
  6
CONTINUOUS
 66
     1
 70
     0
 40
0.0
 41
0.0
  0
VERTEX
  8
20
 10
27.44358444213867
 20
-12.98999977111816
  0
VERTEX
  8
20
 10
27.19358444213867
 20
-12.48999977111816
  0
SEQEND
  8
20
  0
POLYLINE
  8
20
  6
CONTINUOUS
 66
     1
 70
     0
 40
0.0
 41
0.0
  0
VERTEX
  8
20
 10
27.88108444213867
 20
-12.98999977111816
  0
VERTEX
  8
20
 10
27.88108444213867
 20
-11.98999977111816
  0
VERTEX
  8
20
 10
27.70920944213867
 20
-12.28687477111816
  0
SEQEND
  8
20
  0
ENDBLK
  8
20
  0
BLOCK
  8
20
  2
COMP14
 70
    64
 10
0.0
 20
0.0
  0
POLYLINE
  8
20
  6
CONTINUOUS
 66
     1
 70
     0
 40
0.0
 41
0.0
  0
VERTEX
  8
20
 10
18.11981964111328
 20
-19.33425331115723
 42
0.875
  0
VERTEX
  8
20
 10
17.61981964111328
 20
-19.33425331115723
  0
VERTEX
  8
20
 10
17.61981964111328
 20
-19.92800331115723
 42
0.7500000000000001
  0
VERTEX
  8
20
 10
18.11981964111328
 20
-19.92800331115723
  0
SEQEND
  8
20
  0
POLYLINE
  8
20
  6
CONTINUOUS
 66
     1
 70
     0
 40
0.0
 41
0.0
  0
VERTEX
  8
20
 10
18.30731964111328
 20
-19.30300331115723
  0
VERTEX
  8
20
 10
18.46356964111328
 20
-19.11550331115723
  0
VERTEX
  8
20
 10
18.65106964111328
 20
-19.11550331115723
  0
VERTEX
  8
20
 10
18.80731964111328
 20
-19.30300331115723
  0
VERTEX
  8
20
 10
18.80731964111328
 20
-19.55300331115723
  0
VERTEX
  8
20
 10
18.30731964111328
 20
-19.99050331115723
  0
VERTEX
  8
20
 10
18.30731964111328
 20
-20.11550331115723
  0
VERTEX
  8
20
 10
18.80731964111328
 20
-20.11550331115723
  0
SEQEND
  8
20
  0
ENDBLK
  8
20
  0
BLOCK
  8
20
  2
COMP15
 70
    64
 10
0.0
 20
0.0
  0
POLYLINE
  8
20
  6
CONTINUOUS
 66
     1
 70
     0
 40
0.0
 41
0.0
  0
VERTEX
  8
20
 10
18.03777313232422
 20
-31.09468841552734
 42
0.875
  0
VERTEX
  8
20
 10
17.53777313232422
 20
-31.09468841552734
  0
VERTEX
  8
20
 10
17.53777313232422
 20
-31.68843841552734
 42
0.7500000000000001
  0
VERTEX
  8
20
 10
18.03777313232422
 20
-31.68843841552734
  0
SEQEND
  8
20
  0
POLYLINE
  8
20
  6
CONTINUOUS
 66
     1
 70
     0
 40
0.0
 41
0.0
  0
VERTEX
  8
20
 10
18.22527313232422
 20
-31.06343841552734
  0
VERTEX
  8
20
 10
18.38152313232422
 20
-30.87593841552734
  0
VERTEX
  8
20
 10
18.56902313232422
 20
-30.87593841552734
  0
VERTEX
  8
20
 10
18.72527313232422
 20
-31.06343841552734
  0
VERTEX
  8
20
 10
18.72527313232422
 20
-31.21968841552734
  0
VERTEX
  8
20
 10
18.53777313232422
 20
-31.37593841552734
  0
VERTEX
  8
20
 10
18.35027313232422
 20
-31.37593841552734
  0
SEQEND
  8
20
  0
POLYLINE
  8
20
  6
CONTINUOUS
 66
     1
 70
     0
 40
0.0
 41
0.0
  0
VERTEX
  8
20
 10
18.53777313232422
 20
-31.37593841552734
  0
VERTEX
  8
20
 10
18.72527313232422
 20
-31.56343841552734
  0
VERTEX
  8
20
 10
18.72527313232422
 20
-31.71968841552734
  0
VERTEX
  8
20
 10
18.56902313232422
 20
-31.87593841552734
  0
VERTEX
  8
20
 10
18.38152313232422
 20
-31.87593841552734
  0
VERTEX
  8
20
 10
18.22527313232422
 20
-31.71968841552734
  0
SEQEND
  8
20
  0
ENDBLK
  8
20
  0
BLOCK
  8
20
  2
COMP16
 70
    64
 10
0.0
 20
0.0
  0
POLYLINE
  8
20
  6
CONTINUOUS
 66
     1
 70
     0
 40
0.0
 41
0.0
  0
VERTEX
  8
20
 10
-2.067830085754395
 20
-26.99167823791504
  0
VERTEX
  8
20
 10
-2.067830085754395
 20
-24.99167823791504
  0
VERTEX
  8
20
 10
-1.567830085754395
 20
-26.30417823791504
  0
VERTEX
  8
20
 10
-1.067830085754395
 20
-24.99167823791504
  0
VERTEX
  8
20
 10
-1.067830085754395
 20
-26.99167823791504
  0
SEQEND
  8
20
  0
POLYLINE
  8
20
  6
CONTINUOUS
 66
     1
 70
     0
 40
0.0
 41
0.0
  0
VERTEX
  8
20
 10
-0.6928300857543945
 20
-25.42917823791504
  0
VERTEX
  8
20
 10
-0.6928300857543945
 20
-26.61667823791504
 42
0.7500000000000001
  0
VERTEX
  8
20
 10
0.3071699142456055
 20
-26.61667823791504
  0
VERTEX
  8
20
 10
0.3071699142456055
 20
-25.42917823791504
 42
0.875
  0
VERTEX
  8
20
 10
-0.6928300857543945
 20
-25.42917823791504
  0
SEQEND
  8
20
  0
POLYLINE
  8
20
  6
CONTINUOUS
 66
     1
 70
     0
 40
0.0
 41
0.0
  0
VERTEX
  8
20
 10
0.6821699142456055
 20
-26.99167823791504
  0
VERTEX
  8
20
 10
1.213419914245606
 20
-26.99167823791504
 42
0.4666666666666667
  0
VERTEX
  8
20
 10
1.682169914245606
 20
-26.52292823791504
  0
VERTEX
  8
20
 10
1.682169914245606
 20
-25.46042823791504
 42
0.4666666666666667
  0
VERTEX
  8
20
 10
1.213419914245606
 20
-24.99167823791504
  0
VERTEX
  8
20
 10
0.6821699142456055
 20
-24.99167823791504
  0
VERTEX
  8
20
 10
0.6821699142456055
 20
-26.99167823791504
  0
SEQEND
  8
20
  0
POLYLINE
  8
20
  6
CONTINUOUS
 66
     1
 70
     0
 40
0.0
 41
0.0
  0
VERTEX
  8
20
 10
2.557169914245606
 20
-26.99167823791504
  0
VERTEX
  8
20
 10
2.557169914245606
 20
-24.99167823791504
  0
VERTEX
  8
20
 10
2.213419914245606
 20
-25.58542823791504
  0
SEQEND
  8
20
  0
ENDBLK
  8
20
  0
BLOCK
  8
20
  2
COMP17
 70
    64
 10
0.0
 20
0.0
  0
POLYLINE
  8
20
  6
CONTINUOUS
 66
     1
 70
     0
 40
0.0
 41
0.0
  0
VERTEX
  8
20
 10
3.848389148712158
 20
-6.097285270690918
 42
0.3601277669270834
  0
VERTEX
  8
20
 10
3.098389148712158
 20
-5.534785270690918
 42
0.398472645277123
  0
VERTEX
  8
20
 10
2.348389148712158
 20
-6.191035270690918
 42
0.4142136667284736
  0
VERTEX
  8
20
 10
3.098389148712158
 20
-7.034785270690918
 42
-0.3750000000000001
  0
VERTEX
  8
20
 10
3.848389148712158
 20
-7.784785270690918
 42
-0.4832246536423047
  0
VERTEX
  8
20
 10
3.145264148712158
 20
-8.534785270690918
 42
-0.319388547108214
  0
VERTEX
  8
20
 10
2.348389148712158
 20
-7.972285270690918
  0
SEQEND
  8
20
  0
POLYLINE
  8
20
  6
CONTINUOUS
 66
     1
 70
     0
 40
0.0
 41
0.0
  0
VERTEX
  8
20
 10
4.410889148712158
 20
-8.534785270690918
  0
VERTEX
  8
20
 10
5.910889148712158
 20
-5.534785270690918
  0
SEQEND
  8
20
  0
POLYLINE
  8
20
  6
CONTINUOUS
 66
     1
 70
     0
 40
0.0
 41
0.0
  0
VERTEX
  8
20
 10
6.473389148712158
 20
-8.534785270690918
  0
VERTEX
  8
20
 10
6.473389148712158
 20
-5.534785270690918
  0
VERTEX
  8
20
 10
7.973389148712158
 20
-8.534785270690918
  0
VERTEX
  8
20
 10
7.973389148712158
 20
-5.534785270690918
  0
SEQEND
  8
20
  0
ENDBLK
  8
20
  0
BLOCK
  8
20
  2
COMP18
 70
    64
 10
0.0
 20
0.0
  0
POLYLINE
  8
20
  6
CONTINUOUS
 66
     1
 70
     0
 40
0.0
 41
0.0
  0
VERTEX
  8
20
 10
-10.45405292510986
 20
-44.93733215332031
 42
0.875
  0
VERTEX
  8
20
 10
-10.95405292510986
 20
-44.93733215332031
  0
VERTEX
  8
20
 10
-10.95405292510986
 20
-45.53108215332031
 42
0.7500000000000001
  0
VERTEX
  8
20
 10
-10.45405292510986
 20
-45.53108215332031
  0
SEQEND
  8
20
  0
POLYLINE
  8
20
  6
CONTINUOUS
 66
     1
 70
     0
 40
0.0
 41
0.0
  0
VERTEX
  8
20
 10
-10.01655292510986
 20
-45.71858215332031
  0
VERTEX
  8
20
 10
-10.01655292510986
 20
-44.71858215332031
  0
VERTEX
  8
20
 10
-10.18842792510986
 20
-45.01545715332031
  0
SEQEND
  8
20
  0
ENDBLK
  8
20
  0
BLOCK
  8
20
  2
COMP19
 70
    64
 10
0.0
 20
0.0
  0
POLYLINE
  8
20
  6
CONTINUOUS
 66
     1
 70
     0
 40
0.0
 41
0.0
  0
VERTEX
  8
20
 10
-7.418814659118652
 20
-65.56065368652344
  0
VERTEX
  8
20
 10
-7.418814659118652
 20
-64.06065368652344
  0
VERTEX
  8
20
 10
-7.676627159118652
 20
-64.50596618652344
  0
SEQEND
  8
20
  0
POLYLINE
  8
20
  6
CONTINUOUS
 66
     1
 70
     0
 40
0.0
 41
0.0
  0
VERTEX
  8
20
 10
-6.715689659118652
 20
-64.34190368652344
  0
VERTEX
  8
20
 10
-6.715689659118652
 20
-65.27940368652344
 42
0.9230769230769231
  0
VERTEX
  8
20
 10
-6.106314659118652
 20
-65.27940368652344
  0
VERTEX
  8
20
 10
-6.106314659118652
 20
-64.34190368652344
 42
0.9230769230769231
  0
VERTEX
  8
20
 10
-6.715689659118652
 20
-64.34190368652344
  0
SEQEND
  8
20
  0
ENDBLK
  8
20
  0
BLOCK
  8
20
  2
COMP20
 70
    64
 10
0.0
 20
0.0
  0
POLYLINE
  8
20
  6
CONTINUOUS
 66
     1
 70
     0
 40
0.0
 41
0.0
  0
VERTEX
  8
20
 10
-0.06535983085632324
 20
-67.02000427246094
  0
VERTEX
  8
20
 10
-0.9403598308563232
 20
-67.02000427246094
  0
SEQEND
  8
20
  0
ENDBLK
  8
20
  0
BLOCK
  8
20
  2
COMP21
 70
    64
 10
0.0
 20
0.0
  0
POLYLINE
  8
20
  6
CONTINUOUS
 66
     1
 70
     0
 40
0.0
 41
0.0
  0
VERTEX
  8
20
 10
-0.4242820739746094
 20
-69.47000122070313
  0
VERTEX
  8
20
 10
-0.02584457397460938
 20
-69.47000122070313
 42
0.4666666666666667
  0
VERTEX
  8
20
 10
0.3257179260253906
 20
-69.11843872070313
  0
VERTEX
  8
20
 10
0.3257179260253906
 20
-68.32156372070313
 42
0.4666666666666667
  0
VERTEX
  8
20
 10
-0.02584457397460938
 20
-67.97000122070313
  0
VERTEX
  8
20
 10
-0.4242820739746094
 20
-67.97000122070313
  0
VERTEX
  8
20
 10
-0.4242820739746094
 20
-69.47000122070313
  0
SEQEND
  8
20
  0
POLYLINE
  8
20
  6
CONTINUOUS
 66
     1
 70
     0
 40
0.0
 41
0.0
  0
VERTEX
  8
20
 10
1.356967926025391
 20
-68.29812622070313
 42
0.8749999999999999
  0
VERTEX
  8
20
 10
0.6069679260253906
 20
-68.29812622070313
  0
VERTEX
  8
20
 10
0.6069679260253906
 20
-69.18875122070313
 42
0.75
  0
VERTEX
  8
20
 10
1.356967926025391
 20
-69.18875122070313
  0
SEQEND
  8
20
  0
POLYLINE
  8
20
  6
CONTINUOUS
 66
     1
 70
     0
 40
0.0
 41
0.0
  0
VERTEX
  8
20
 10
1.638217926025391
 20
-68.25125122070313
  0
VERTEX
  8
20
 10
1.872592926025391
 20
-67.97000122070313
  0
VERTEX
  8
20
 10
2.153842926025391
 20
-67.97000122070313
  0
VERTEX
  8
20
 10
2.388217926025391
 20
-68.25125122070313
  0
VERTEX
  8
20
 10
2.388217926025391
 20
-68.62625122070313
  0
VERTEX
  8
20
 10
1.638217926025391
 20
-69.28250122070313
  0
VERTEX
  8
20
 10
1.638217926025391
 20
-69.47000122070313
  0
VERTEX
  8
20
 10
2.388217926025391
 20
-69.47000122070313
  0
SEQEND
  8
20
  0
POLYLINE
  8
20
  6
CONTINUOUS
 66
     1
 70
     0
 40
0.0
 41
0.0
  0
VERTEX
  8
20
 10
3.044467926025391
 20
-67.97000122070313
  0
VERTEX
  8
20
 10
2.669467926025391
 20
-69.00125122070313
  0
VERTEX
  8
20
 10
3.419467926025391
 20
-69.00125122070313
  0
SEQEND
  8
20
  0
POLYLINE
  8
20
  6
CONTINUOUS
 66
     1
 70
     0
 40
0.0
 41
0.0
  0
VERTEX
  8
20
 10
3.185092926025391
 20
-69.47000122070313
  0
VERTEX
  8
20
 10
3.185092926025391
 20
-68.48562622070313
  0
SEQEND
  8
20
  0
POLYLINE
  8
20
  6
CONTINUOUS
 66
     1
 70
     0
 40
0.0
 41
0.0
  0
VERTEX
  8
20
 10
4.450717926025391
 20
-67.97000122070313
  0
VERTEX
  8
20
 10
4.075717926025391
 20
-69.47000122070313
  0
VERTEX
  8
20
 10
3.700717926025391
 20
-67.97000122070313
  0
SEQEND
  8
20
  0
ENDBLK
  8
20
  0
BLOCK
  8
20
  2
COMP22
 70
    64
 10
0.0
 20
0.0
  0
POLYLINE
  8
20
  6
CONTINUOUS
 66
     1
 70
     0
 40
0.0
 41
0.0
  0
VERTEX
  8
20
 10
5.158535003662109
 20
-67.02000427246094
  0
VERTEX
  8
20
 10
4.158535003662109
 20
-67.02000427246094
  0
SEQEND
  8
20
  0
POLYLINE
  8
20
  6
CONTINUOUS
 66
     1
 70
     0
 40
0.0
 41
0.0
  0
VERTEX
  8
20
 10
4.658535003662109
 20
-67.52000427246094
  0
VERTEX
  8
20
 10
4.658535003662109
 20
-66.52000427246094
  0
SEQEND
  8
20
  0
ENDBLK
  8
20
  0
BLOCK
  8
20
  2
COMP23
 70
    64
 10
0.0
 20
0.0
  0
POLYLINE
  8
20
  6
CONTINUOUS
 66
     1
 70
     0
 40
0.0
 41
0.0
  0
VERTEX
  8
20
 10
8.486791610717773
 20
-66.97000122070313
  0
VERTEX
  8
20
 10
7.486791610717773
 20
-66.97000122070313
  0
VERTEX
  8
20
 10
7.486791610717773
 20
-68.97000122070313
  0
SEQEND
  8
20
  0
POLYLINE
  8
20
  6
CONTINUOUS
 66
     1
 70
     0
 40
0.0
 41
0.0
  0
VERTEX
  8
20
 10
7.486791610717773
 20
-67.97000122070313
  0
VERTEX
  8
20
 10
8.361791610717773
 20
-67.97000122070313
  0
SEQEND
  8
20
  0
POLYLINE
  8
20
  6
CONTINUOUS
 66
     1
 70
     0
 40
0.0
 41
0.0
  0
VERTEX
  8
20
 10
9.236791610717773
 20
-68.90750122070313
  0
VERTEX
  8
20
 10
9.236791610717773
 20
-68.72000122070313
  0
VERTEX
  8
20
 10
9.455541610717773
 20
-68.72000122070313
  0
VERTEX
  8
20
 10
9.455541610717773
 20
-68.90750122070313
  0
VERTEX
  8
20
 10
9.236791610717773
 20
-68.90750122070313
  0
SEQEND
  8
20
  0
POLYLINE
  8
20
  6
CONTINUOUS
 66
     1
 70
     0
 40
0.0
 41
0.0
  0
VERTEX
  8
20
 10
11.23679161071777
 20
-67.40750122070313
 42
0.875
  0
VERTEX
  8
20
 10
10.23679161071777
 20
-67.40750122070313
  0
VERTEX
  8
20
 10
10.23679161071777
 20
-68.59500122070313
 42
0.7500000000000001
  0
VERTEX
  8
20
 10
11.23679161071777
 20
-68.59500122070313
  0
SEQEND
  8
20
  0
POLYLINE
  8
20
  6
CONTINUOUS
 66
     1
 70
     0
 40
0.0
 41
0.0
  0
VERTEX
  8
20
 10
11.23679161071777
 20
-68.97000122070313
  0
VERTEX
  8
20
 10
11.23679161071777
 20
-68.00125122070313
  0
VERTEX
  8
20
 10
10.73679161071777
 20
-68.00125122070313
  0
SEQEND
  8
20
  0
POLYLINE
  8
20
  6
CONTINUOUS
 66
     1
 70
     0
 40
0.0
 41
0.0
  0
VERTEX
  8
20
 10
11.98679161071777
 20
-68.90750122070313
  0
VERTEX
  8
20
 10
11.98679161071777
 20
-68.72000122070313
  0
VERTEX
  8
20
 10
12.20554161071777
 20
-68.72000122070313
  0
VERTEX
  8
20
 10
12.20554161071777
 20
-68.90750122070313
  0
VERTEX
  8
20
 10
11.98679161071777
 20
-68.90750122070313
  0
SEQEND
  8
20
  0
ENDBLK
  8
20
  0
BLOCK
  8
20
  2
COMP24
 70
    64
 10
0.0
 20
0.0
  0
POLYLINE
  8
20
  6
CONTINUOUS
 66
     1
 70
     0
 40
0.0
 41
0.0
  0
VERTEX
  8
20
 10
14.63591861724854
 20
-66.97000122070313
  0
VERTEX
  8
20
 10
14.13591861724854
 20
-68.97000122070313
  0
VERTEX
  8
20
 10
13.63591861724854
 20
-66.97000122070313
  0
SEQEND
  8
20
  0
POLYLINE
  8
20
  6
CONTINUOUS
 66
     1
 70
     0
 40
0.0
 41
0.0
  0
VERTEX
  8
20
 10
15.94841861724854
 20
-67.97000122070313
  0
VERTEX
  8
20
 10
15.07341861724854
 20
-67.97000122070313
  0
SEQEND
  8
20
  0
ENDBLK
  8
20
  0
BLOCK
  8
20
  2
COMP25
 70
    64
 10
0.0
 20
0.0
  0
POLYLINE
  8
20
  6
CONTINUOUS
 66
     1
 70
     0
 40
0.0
 41
0.0
  0
VERTEX
  8
20
 10
19.6917896270752
 20
-66.97000122070313
  0
VERTEX
  8
20
 10
19.1917896270752
 20
-68.97000122070313
  0
VERTEX
  8
20
 10
18.6917896270752
 20
-66.97000122070313
  0
SEQEND
  8
20
  0
POLYLINE
  8
20
  6
CONTINUOUS
 66
     1
 70
     0
 40
0.0
 41
0.0
  0
VERTEX
  8
20
 10
21.0667896270752
 20
-67.97000122070313
  0
VERTEX
  8
20
 10
20.0667896270752
 20
-67.97000122070313
  0
SEQEND
  8
20
  0
POLYLINE
  8
20
  6
CONTINUOUS
 66
     1
 70
     0
 40
0.0
 41
0.0
  0
VERTEX
  8
20
 10
20.5667896270752
 20
-68.47000122070313
  0
VERTEX
  8
20
 10
20.5667896270752
 20
-67.47000122070313
  0
SEQEND
  8
20
  0
ENDBLK
  8
20
  0
BLOCK
  8
20
  2
COMP26
 70
    64
 10
0.0
 20
0.0
  0
POLYLINE
  8
20
  6
CONTINUOUS
 66
     1
 70
     0
 40
0.0
 41
0.0
  0
VERTEX
  8
20
 10
25.24091911315918
 20
-66.97000122070313
  0
VERTEX
  8
20
 10
24.24091911315918
 20
-66.97000122070313
  0
VERTEX
  8
20
 10
24.24091911315918
 20
-68.97000122070313
  0
VERTEX
  8
20
 10
25.24091911315918
 20
-68.97000122070313
  0
SEQEND
  8
20
  0
POLYLINE
  8
20
  6
CONTINUOUS
 66
     1
 70
     0
 40
0.0
 41
0.0
  0
VERTEX
  8
20
 10
24.24091911315918
 20
-67.97000122070313
  0
VERTEX
  8
20
 10
25.24091911315918
 20
-67.97000122070313
  0
SEQEND
  8
20
  0
ENDBLK
  8
20
  0
BLOCK
  8
20
  2
COMP27
 70
    64
 10
0.0
 20
0.0
  0
POLYLINE
  8
20
  6
CONTINUOUS
 66
     1
 70
     0
 40
0.0
 41
0.0
  0
VERTEX
  8
20
 10
29.50231552124023
 20
-68.97000122070313
  0
VERTEX
  8
20
 10
30.03356552124023
 20
-68.97000122070313
 42
0.4666666666666667
  0
VERTEX
  8
20
 10
30.50231552124023
 20
-68.50125122070313
  0
VERTEX
  8
20
 10
30.50231552124023
 20
-67.43875122070313
 42
0.4666666666666667
  0
VERTEX
  8
20
 10
30.03356552124023
 20
-66.97000122070313
  0
VERTEX
  8
20
 10
29.50231552124023
 20
-66.97000122070313
  0
VERTEX
  8
20
 10
29.50231552124023
 20
-68.97000122070313
  0
SEQEND
  8
20
  0
ENDBLK
  8
20
  0
BLOCK
  8
20
  2
COMP28
 70
    64
 10
0.0
 20
0.0
  0
POLYLINE
  8
20
  6
CONTINUOUS
 66
     1
 70
     0
 40
0.0
 41
0.0
  0
VERTEX
  8
20
 10
35.59928894042969
 20
-67.40750122070313
 42
0.875
  0
VERTEX
  8
20
 10
34.59928894042969
 20
-67.40750122070313
  0
VERTEX
  8
20
 10
34.59928894042969
 20
-68.59500122070313
 42
0.7500000000000001
  0
VERTEX
  8
20
 10
35.59928894042969
 20
-68.59500122070313
  0
SEQEND
  8
20
  0
ENDBLK
  8
20
  0
BLOCK
  8
20
  2
COMP29
 70
    64
 10
0.0
 20
0.0
  0
POLYLINE
  8
20
  6
CONTINUOUS
 66
     1
 70
     0
 40
0.0
 41
0.0
  0
VERTEX
  8
20
 10
39.6551628112793
 20
-68.97000122070313
  0
VERTEX
  8
20
 10
40.2176628112793
 20
-68.97000122070313
 42
0.875
  0
VERTEX
  8
20
 10
40.2176628112793
 20
-67.97000122070313
 42
0.875
  0
VERTEX
  8
20
 10
40.2176628112793
 20
-66.97000122070313
  0
VERTEX
  8
20
 10
39.6551628112793
 20
-66.97000122070313
  0
VERTEX
  8
20
 10
39.6551628112793
 20
-68.97000122070313
  0
SEQEND
  8
20
  0
POLYLINE
  8
20
  6
CONTINUOUS
 66
     1
 70
     0
 40
0.0
 41
0.0
  0
VERTEX
  8
20
 10
39.6551628112793
 20
-67.97000122070313
  0
VERTEX
  8
20
 10
40.2176628112793
 20
-67.97000122070313
  0
SEQEND
  8
20
  0
ENDBLK
  8
20
  0
BLOCK
  8
20
  2
COMP30
 70
    64
 10
0.0
 20
0.0
  0
POLYLINE
  8
20
  6
CONTINUOUS
 66
     1
 70
     0
 40
0.0
 41
0.0
  0
VERTEX
  8
20
 10
44.8343505859375
 20
-68.97000122070313
  0
VERTEX
  8
20
 10
45.3343505859375
 20
-66.97000122070313
  0
VERTEX
  8
20
 10
45.8343505859375
 20
-68.97000122070313
  0
SEQEND
  8
20
  0
POLYLINE
  8
20
  6
CONTINUOUS
 66
     1
 70
     0
 40
0.0
 41
0.0
  0
VERTEX
  8
20
 10
45.6781005859375
 20
-68.34500122070313
  0
VERTEX
  8
20
 10
44.9906005859375
 20
-68.34500122070313
  0
SEQEND
  8
20
  0
ENDBLK
  8
20
  0
BLOCK
  8
20
  2
COMP31
 70
    64
 10
0.0
 20
0.0
  0
POLYLINE
  8
20
  6
CONTINUOUS
 66
     1
 70
     0
 40
0.0
 41
0.0
  0
VERTEX
  8
20
 10
48.61283874511719
 20
-65.45265197753906
  0
VERTEX
  8
20
 10
48.61283874511719
 20
-63.95265197753906
  0
VERTEX
  8
20
 10
48.35502624511719
 20
-64.39796447753906
  0
SEQEND
  8
20
  0
ENDBLK
  8
20
  0
BLOCK
  8
20
  2
COMP32
 70
    64
 10
0.0
 20
0.0
  0
POLYLINE
  8
20
  6
CONTINUOUS
 66
     1
 70
     0
 40
0.0
 41
0.0
  0
VERTEX
  8
20
 10
50.9471435546875
 20
-53.30944061279297
  0
VERTEX
  8
20
 10
50.9471435546875
 20
-54.12194061279297
 42
0.7500000000000001
  0
VERTEX
  8
20
 10
51.4471435546875
 20
-54.12194061279297
  0
VERTEX
  8
20
 10
51.4471435546875
 20
-53.30944061279297
  0
SEQEND
  8
20
  0
POLYLINE
  8
20
  6
CONTINUOUS
 66
     1
 70
     0
 40
0.0
 41
0.0
  0
VERTEX
  8
20
 10
51.6346435546875
 20
-53.49694061279297
  0
VERTEX
  8
20
 10
51.7908935546875
 20
-53.30944061279297
  0
VERTEX
  8
20
 10
51.9783935546875
 20
-53.30944061279297
  0
VERTEX
  8
20
 10
52.1346435546875
 20
-53.49694061279297
  0
VERTEX
  8
20
 10
52.1346435546875
 20
-53.65319061279297
  0
VERTEX
  8
20
 10
51.9471435546875
 20
-53.80944061279297
  0
VERTEX
  8
20
 10
51.7596435546875
 20
-53.80944061279297
  0
SEQEND
  8
20
  0
POLYLINE
  8
20
  6
CONTINUOUS
 66
     1
 70
     0
 40
0.0
 41
0.0
  0
VERTEX
  8
20
 10
51.9471435546875
 20
-53.80944061279297
  0
VERTEX
  8
20
 10
52.1346435546875
 20
-53.99694061279297
  0
VERTEX
  8
20
 10
52.1346435546875
 20
-54.15319061279297
  0
VERTEX
  8
20
 10
51.9783935546875
 20
-54.30944061279297
  0
VERTEX
  8
20
 10
51.7908935546875
 20
-54.30944061279297
  0
VERTEX
  8
20
 10
51.6346435546875
 20
-54.15319061279297
  0
SEQEND
  8
20
  0
ENDBLK
  8
20
  0
BLOCK
  8
20
  2
COMP33
 70
    64
 10
0.0
 20
0.0
  0
POLYLINE
  8
20
  6
CONTINUOUS
 66
     1
 70
     0
 40
0.0
 41
0.0
  0
VERTEX
  8
20
 10
43.9078369140625
 20
-54.28077697753906
 42
0.8749999999999999
  0
VERTEX
  8
20
 10
43.1578369140625
 20
-54.28077697753906
  0
VERTEX
  8
20
 10
43.1578369140625
 20
-55.17140197753906
 42
0.75
  0
VERTEX
  8
20
 10
43.9078369140625
 20
-55.17140197753906
  0
SEQEND
  8
20
  0
POLYLINE
  8
20
  6
CONTINUOUS
 66
     1
 70
     0
 40
0.0
 41
0.0
  0
VERTEX
  8
20
 10
44.1890869140625
 20
-55.45265197753906
  0
VERTEX
  8
20
 10
44.1890869140625
 20
-53.95265197753906
  0
VERTEX
  8
20
 10
44.9390869140625
 20
-55.45265197753906
  0
VERTEX
  8
20
 10
44.9390869140625
 20
-53.95265197753906
  0
SEQEND
  8
20
  0
POLYLINE
  8
20
  6
CONTINUOUS
 66
     1
 70
     0
 40
0.0
 41
0.0
  0
VERTEX
  8
20
 10
45.5953369140625
 20
-55.45265197753906
  0
VERTEX
  8
20
 10
45.5953369140625
 20
-53.95265197753906
  0
VERTEX
  8
20
 10
45.3375244140625
 20
-54.39796447753906
  0
SEQEND
  8
20
  0
ENDBLK
  8
20
  0
BLOCK
  8
20
  2
COMP34
 70
    64
 10
0.0
 20
0.0
  0
POLYLINE
  8
20
  6
CONTINUOUS
 66
     1
 70
     0
 40
0.0
 41
0.0
  0
VERTEX
  8
20
 10
42.84922027587891
 20
-51.17074966430664
  0
VERTEX
  8
20
 10
43.09922027587891
 20
-51.17074966430664
 42
0.4142135623731064
  0
VERTEX
  8
20
 10
43.34922027587891
 20
-50.92074966430664
 42
0.4142135623731064
  0
VERTEX
  8
20
 10
43.09922027587891
 20
-50.67074966430664
  0
VERTEX
  8
20
 10
42.84922027587891
 20
-50.67074966430664
  0
VERTEX
  8
20
 10
42.84922027587891
 20
-51.67074966430664
  0
SEQEND
  8
20
  0
POLYLINE
  8
20
  6
CONTINUOUS
 66
     1
 70
     0
 40
0.0
 41
0.0
  0
VERTEX
  8
20
 10
43.78672027587891
 20
-51.67074966430664
  0
VERTEX
  8
20
 10
43.78672027587891
 20
-50.67074966430664
  0
VERTEX
  8
20
 10
43.61484527587891
 20
-50.96762466430664
  0
SEQEND
  8
20
  0
ENDBLK
  8
20
  0
BLOCK
  8
20
  2
COMP35
 70
    64
 10
0.0
 20
0.0
  0
POLYLINE
  8
20
  6
CONTINUOUS
 66
     1
 70
     0
 40
0.0
 41
0.0
  0
VERTEX
  8
20
 10
37.76921844482422
 20
-51.17074966430664
  0
VERTEX
  8
20
 10
38.01921844482422
 20
-51.17074966430664
 42
0.4142135623731064
  0
VERTEX
  8
20
 10
38.26921844482422
 20
-50.92074966430664
 42
0.4142135623731064
  0
VERTEX
  8
20
 10
38.01921844482422
 20
-50.67074966430664
  0
VERTEX
  8
20
 10
37.76921844482422
 20
-50.67074966430664
  0
VERTEX
  8
20
 10
37.76921844482422
 20
-51.67074966430664
  0
SEQEND
  8
20
  0
POLYLINE
  8
20
  6
CONTINUOUS
 66
     1
 70
     0
 40
0.0
 41
0.0
  0
VERTEX
  8
20
 10
38.45671844482422
 20
-50.85824966430664
  0
VERTEX
  8
20
 10
38.61296844482422
 20
-50.67074966430664
  0
VERTEX
  8
20
 10
38.80046844482422
 20
-50.67074966430664
  0
VERTEX
  8
20
 10
38.95671844482422
 20
-50.85824966430664
  0
VERTEX
  8
20
 10
38.95671844482422
 20
-51.10824966430664
  0
VERTEX
  8
20
 10
38.45671844482422
 20
-51.54574966430664
  0
VERTEX
  8
20
 10
38.45671844482422
 20
-51.67074966430664
  0
VERTEX
  8
20
 10
38.95671844482422
 20
-51.67074966430664
  0
SEQEND
  8
20
  0
ENDBLK
  8
20
  0
BLOCK
  8
20
  2
COMP36
 70
    64
 10
0.0
 20
0.0
  0
POLYLINE
  8
20
  6
CONTINUOUS
 66
     1
 70
     0
 40
0.0
 41
0.0
  0
VERTEX
  8
20
 10
32.68921661376953
 20
-51.17074966430664
  0
VERTEX
  8
20
 10
32.93921661376953
 20
-51.17074966430664
 42
0.4142135623731064
  0
VERTEX
  8
20
 10
33.18921661376953
 20
-50.92074966430664
 42
0.4142135623731064
  0
VERTEX
  8
20
 10
32.93921661376953
 20
-50.67074966430664
  0
VERTEX
  8
20
 10
32.68921661376953
 20
-50.67074966430664
  0
VERTEX
  8
20
 10
32.68921661376953
 20
-51.67074966430664
  0
SEQEND
  8
20
  0
POLYLINE
  8
20
  6
CONTINUOUS
 66
     1
 70
     0
 40
0.0
 41
0.0
  0
VERTEX
  8
20
 10
33.37671661376953
 20
-50.85824966430664
  0
VERTEX
  8
20
 10
33.53296661376953
 20
-50.67074966430664
  0
VERTEX
  8
20
 10
33.72046661376953
 20
-50.67074966430664
  0
VERTEX
  8
20
 10
33.87671661376953
 20
-50.85824966430664
  0
VERTEX
  8
20
 10
33.87671661376953
 20
-51.01449966430664
  0
VERTEX
  8
20
 10
33.68921661376953
 20
-51.17074966430664
  0
VERTEX
  8
20
 10
33.50171661376953
 20
-51.17074966430664
  0
SEQEND
  8
20
  0
POLYLINE
  8
20
  6
CONTINUOUS
 66
     1
 70
     0
 40
0.0
 41
0.0
  0
VERTEX
  8
20
 10
33.68921661376953
 20
-51.17074966430664
  0
VERTEX
  8
20
 10
33.87671661376953
 20
-51.35824966430664
  0
VERTEX
  8
20
 10
33.87671661376953
 20
-51.51449966430664
  0
VERTEX
  8
20
 10
33.72046661376953
 20
-51.67074966430664
  0
VERTEX
  8
20
 10
33.53296661376953
 20
-51.67074966430664
  0
VERTEX
  8
20
 10
33.37671661376953
 20
-51.51449966430664
  0
SEQEND
  8
20
  0
ENDBLK
  8
20
  0
BLOCK
  8
20
  2
COMP37
 70
    64
 10
0.0
 20
0.0
  0
POLYLINE
  8
20
  6
CONTINUOUS
 66
     1
 70
     0
 40
0.0
 41
0.0
  0
VERTEX
  8
20
 10
27.60921669006348
 20
-51.17074966430664
  0
VERTEX
  8
20
 10
27.85921669006348
 20
-51.17074966430664
 42
0.4142135623731064
  0
VERTEX
  8
20
 10
28.10921669006348
 20
-50.92074966430664
 42
0.4142135623731064
  0
VERTEX
  8
20
 10
27.85921669006348
 20
-50.67074966430664
  0
VERTEX
  8
20
 10
27.60921669006348
 20
-50.67074966430664
  0
VERTEX
  8
20
 10
27.60921669006348
 20
-51.67074966430664
  0
SEQEND
  8
20
  0
POLYLINE
  8
20
  6
CONTINUOUS
 66
     1
 70
     0
 40
0.0
 41
0.0
  0
VERTEX
  8
20
 10
28.54671669006348
 20
-50.67074966430664
  0
VERTEX
  8
20
 10
28.29671669006348
 20
-51.35824966430664
  0
VERTEX
  8
20
 10
28.79671669006348
 20
-51.35824966430664
  0
SEQEND
  8
20
  0
POLYLINE
  8
20
  6
CONTINUOUS
 66
     1
 70
     0
 40
0.0
 41
0.0
  0
VERTEX
  8
20
 10
28.64046669006348
 20
-51.67074966430664
  0
VERTEX
  8
20
 10
28.64046669006348
 20
-51.01449966430664
  0
SEQEND
  8
20
  0
ENDBLK
  8
20
  0
BLOCK
  8
20
  2
COMP38
 70
    64
 10
0.0
 20
0.0
  0
POLYLINE
  8
20
  6
CONTINUOUS
 66
     1
 70
     0
 40
0.0
 41
0.0
  0
VERTEX
  8
20
 10
22.52921867370606
 20
-51.17074966430664
  0
VERTEX
  8
20
 10
22.77921867370606
 20
-51.17074966430664
 42
0.4142135623731064
  0
VERTEX
  8
20
 10
23.02921867370606
 20
-50.92074966430664
 42
0.4142135623731064
  0
VERTEX
  8
20
 10
22.77921867370606
 20
-50.67074966430664
  0
VERTEX
  8
20
 10
22.52921867370606
 20
-50.67074966430664
  0
VERTEX
  8
20
 10
22.52921867370606
 20
-51.67074966430664
  0
SEQEND
  8
20
  0
POLYLINE
  8
20
  6
CONTINUOUS
 66
     1
 70
     0
 40
0.0
 41
0.0
  0
VERTEX
  8
20
 10
23.68546867370606
 20
-50.70199966430664
  0
VERTEX
  8
20
 10
23.27921867370606
 20
-50.70199966430664
  0
VERTEX
  8
20
 10
23.21671867370606
 20
-51.13949966430664
  0
VERTEX
  8
20
 10
23.37296867370606
 20
-51.07699966430664
  0
VERTEX
  8
20
 10
23.56046867370606
 20
-51.07699966430664
  0
VERTEX
  8
20
 10
23.71671867370606
 20
-51.20199966430664
  0
VERTEX
  8
20
 10
23.71671867370606
 20
-51.51449966430664
  0
VERTEX
  8
20
 10
23.56046867370606
 20
-51.67074966430664
  0
VERTEX
  8
20
 10
23.37296867370606
 20
-51.67074966430664
  0
VERTEX
  8
20
 10
23.21671867370606
 20
-51.51449966430664
  0
SEQEND
  8
20
  0
ENDBLK
  8
20
  0
BLOCK
  8
20
  2
COMP39
 70
    64
 10
0.0
 20
0.0
  0
POLYLINE
  8
20
  6
CONTINUOUS
 66
     1
 70
     0
 40
0.0
 41
0.0
  0
VERTEX
  8
20
 10
17.44921875
 20
-51.17074966430664
  0
VERTEX
  8
20
 10
17.69921875
 20
-51.17074966430664
 42
0.4142135623731064
  0
VERTEX
  8
20
 10
17.94921875
 20
-50.92074966430664
 42
0.4142135623731064
  0
VERTEX
  8
20
 10
17.69921875
 20
-50.67074966430664
  0
VERTEX
  8
20
 10
17.44921875
 20
-50.67074966430664
  0
VERTEX
  8
20
 10
17.44921875
 20
-51.67074966430664
  0
SEQEND
  8
20
  0
POLYLINE
  8
20
  6
CONTINUOUS
 66
     1
 70
     0
 40
0.0
 41
0.0
  0
VERTEX
  8
20
 10
18.13671875
 20
-51.23324966430664
  0
VERTEX
  8
20
 10
18.29296875
 20
-51.07699966430664
  0
VERTEX
  8
20
 10
18.48046875
 20
-51.07699966430664
  0
VERTEX
  8
20
 10
18.63671875
 20
-51.23324966430664
  0
VERTEX
  8
20
 10
18.63671875
 20
-51.51449966430664
  0
VERTEX
  8
20
 10
18.48046875
 20
-51.67074966430664
  0
VERTEX
  8
20
 10
18.29296875
 20
-51.67074966430664
  0
VERTEX
  8
20
 10
18.13671875
 20
-51.51449966430664
  0
VERTEX
  8
20
 10
18.13671875
 20
-50.82699966430664
  0
VERTEX
  8
20
 10
18.29296875
 20
-50.67074966430664
  0
VERTEX
  8
20
 10
18.48046875
 20
-50.67074966430664
  0
VERTEX
  8
20
 10
18.63671875
 20
-50.82699966430664
  0
SEQEND
  8
20
  0
ENDBLK
  8
20
  0
BLOCK
  8
20
  2
COMP40
 70
    64
 10
0.0
 20
0.0
  0
POLYLINE
  8
20
  6
CONTINUOUS
 66
     1
 70
     0
 40
0.0
 41
0.0
  0
VERTEX
  8
20
 10
12.36921882629395
 20
-51.17074966430664
  0
VERTEX
  8
20
 10
12.61921882629395
 20
-51.17074966430664
 42
0.4142135623730965
  0
VERTEX
  8
20
 10
12.86921882629395
 20
-50.92074966430664
 42
0.4142135623731023
  0
VERTEX
  8
20
 10
12.61921882629395
 20
-50.67074966430664
  0
VERTEX
  8
20
 10
12.36921882629395
 20
-50.67074966430664
  0
VERTEX
  8
20
 10
12.36921882629395
 20
-51.67074966430664
  0
SEQEND
  8
20
  0
POLYLINE
  8
20
  6
CONTINUOUS
 66
     1
 70
     0
 40
0.0
 41
0.0
  0
VERTEX
  8
20
 10
13.05671882629395
 20
-50.95199966430664
  0
VERTEX
  8
20
 10
13.05671882629395
 20
-50.70199966430664
  0
VERTEX
  8
20
 10
13.55671882629395
 20
-50.70199966430664
  0
VERTEX
  8
20
 10
13.24421882629395
 20
-51.67074966430664
  0
SEQEND
  8
20
  0
ENDBLK
  8
20
  0
BLOCK
  8
20
  2
COMP41
 70
    64
 10
0.0
 20
0.0
  0
POLYLINE
  8
20
  6
CONTINUOUS
 66
     1
 70
     0
 40
0.0
 41
0.0
  0
VERTEX
  8
20
 10
7.289218425750732
 20
-51.17074966430664
  0
VERTEX
  8
20
 10
7.539218425750732
 20
-51.17074966430664
 42
0.4142135623730965
  0
VERTEX
  8
20
 10
7.789218425750732
 20
-50.92074966430664
 42
0.4142135623731023
  0
VERTEX
  8
20
 10
7.539218425750732
 20
-50.67074966430664
  0
VERTEX
  8
20
 10
7.289218425750732
 20
-50.67074966430664
  0
VERTEX
  8
20
 10
7.289218425750732
 20
-51.67074966430664
  0
SEQEND
  8
20
  0
POLYLINE
  8
20
  6
CONTINUOUS
 66
     1
 70
     0
 40
0.0
 41
0.0
  0
VERTEX
  8
20
 10
8.320468902587891
 20
-50.67074966430664
  0
VERTEX
  8
20
 10
8.445468902587891
 20
-50.79574966430664
  0
VERTEX
  8
20
 10
8.445468902587891
 20
-51.04574966430664
  0
VERTEX
  8
20
 10
8.320468902587891
 20
-51.13949966430664
  0
VERTEX
  8
20
 10
8.132968902587891
 20
-51.13949966430664
  0
VERTEX
  8
20
 10
8.007968902587891
 20
-51.04574966430664
  0
VERTEX
  8
20
 10
8.007968902587891
 20
-50.79574966430664
  0
VERTEX
  8
20
 10
8.132968902587891
 20
-50.67074966430664
  0
VERTEX
  8
20
 10
8.320468902587891
 20
-50.67074966430664
  0
SEQEND
  8
20
  0
POLYLINE
  8
20
  6
CONTINUOUS
 66
     1
 70
     0
 40
0.0
 41
0.0
  0
VERTEX
  8
20
 10
8.132968902587891
 20
-51.13949966430664
  0
VERTEX
  8
20
 10
7.976718425750732
 20
-51.26449966430664
  0
VERTEX
  8
20
 10
7.976718425750732
 20
-51.51449966430664
  0
VERTEX
  8
20
 10
8.132968902587891
 20
-51.67074966430664
  0
VERTEX
  8
20
 10
8.320468902587891
 20
-51.67074966430664
  0
VERTEX
  8
20
 10
8.476718902587891
 20
-51.51449966430664
  0
VERTEX
  8
20
 10
8.476718902587891
 20
-51.26449966430664
  0
VERTEX
  8
20
 10
8.320468902587891
 20
-51.13949966430664
  0
SEQEND
  8
20
  0
ENDBLK
  8
20
  0
BLOCK
  8
20
  2
COMP42
 70
    64
 10
0.0
 20
0.0
  0
POLYLINE
  8
20
  6
CONTINUOUS
 66
     1
 70
     0
 40
0.0
 41
0.0
  0
VERTEX
  8
20
 10
2.209218502044678
 20
-51.17074966430664
  0
VERTEX
  8
20
 10
2.459218502044678
 20
-51.17074966430664
 42
0.4142135623730989
  0
VERTEX
  8
20
 10
2.709218502044678
 20
-50.92074966430664
 42
0.4142135623731033
  0
VERTEX
  8
20
 10
2.459218502044678
 20
-50.67074966430664
  0
VERTEX
  8
20
 10
2.209218502044678
 20
-50.67074966430664
  0
VERTEX
  8
20
 10
2.209218502044678
 20
-51.67074966430664
  0
SEQEND
  8
20
  0
POLYLINE
  8
20
  6
CONTINUOUS
 66
     1
 70
     0
 40
0.0
 41
0.0
  0
VERTEX
  8
20
 10
3.240468502044678
 20
-50.67074966430664
  0
VERTEX
  8
20
 10
3.052968502044678
 20
-50.67074966430664
  0
VERTEX
  8
20
 10
2.896718502044678
 20
-50.82699966430664
  0
VERTEX
  8
20
 10
2.896718502044678
 20
-51.10824966430664
  0
VERTEX
  8
20
 10
3.052968502044678
 20
-51.26449966430664
  0
VERTEX
  8
20
 10
3.240468502044678
 20
-51.26449966430664
  0
VERTEX
  8
20
 10
3.334218502044678
 20
-51.23324966430664
  0
VERTEX
  8
20
 10
3.396718502044678
 20
-51.10824966430664
  0
VERTEX
  8
20
 10
3.396718502044678
 20
-50.82699966430664
  0
VERTEX
  8
20
 10
3.240468502044678
 20
-50.67074966430664
  0
SEQEND
  8
20
  0
POLYLINE
  8
20
  6
CONTINUOUS
 66
     1
 70
     0
 40
0.0
 41
0.0
  0
VERTEX
  8
20
 10
3.334218502044678
 20
-51.23324966430664
  0
VERTEX
  8
20
 10
3.209218502044678
 20
-51.51449966430664
  0
VERTEX
  8
20
 10
3.021718502044678
 20
-51.67074966430664
  0
SEQEND
  8
20
  0
ENDBLK
  8
20
  0
BLOCK
  8
20
  2
COMP43
 70
    64
 10
0.0
 20
0.0
  0
POLYLINE
  8
20
  6
CONTINUOUS
 66
     1
 70
     0
 40
0.0
 41
0.0
  0
VERTEX
  8
20
 10
-3.120781421661377
 20
-51.17074966430664
  0
VERTEX
  8
20
 10
-2.870781421661377
 20
-51.17074966430664
 42
0.4142135623730989
  0
VERTEX
  8
20
 10
-2.620781421661377
 20
-50.92074966430664
 42
0.4142135623731033
  0
VERTEX
  8
20
 10
-2.870781421661377
 20
-50.67074966430664
  0
VERTEX
  8
20
 10
-3.120781421661377
 20
-50.67074966430664
  0
VERTEX
  8
20
 10
-3.120781421661377
 20
-51.67074966430664
  0
SEQEND
  8
20
  0
POLYLINE
  8
20
  6
CONTINUOUS
 66
     1
 70
     0
 40
0.0
 41
0.0
  0
VERTEX
  8
20
 10
-2.183281421661377
 20
-51.67074966430664
  0
VERTEX
  8
20
 10
-2.183281421661377
 20
-50.67074966430664
  0
VERTEX
  8
20
 10
-2.355156421661377
 20
-50.96762466430664
  0
SEQEND
  8
20
  0
POLYLINE
  8
20
  6
CONTINUOUS
 66
     1
 70
     0
 40
0.0
 41
0.0
  0
VERTEX
  8
20
 10
-1.714531421661377
 20
-50.85824966430664
  0
VERTEX
  8
20
 10
-1.714531421661377
 20
-51.48324966430664
 42
0.9230769230769231
  0
VERTEX
  8
20
 10
-1.308281421661377
 20
-51.48324966430664
  0
VERTEX
  8
20
 10
-1.308281421661377
 20
-50.85824966430664
 42
0.9230769230769231
  0
VERTEX
  8
20
 10
-1.714531421661377
 20
-50.85824966430664
  0
SEQEND
  8
20
  0
ENDBLK
  8
20
  0
BLOCK
  8
20
  2
COMP44
 70
    64
 10
0.0
 20
0.0
  0
POLYLINE
  8
20
  6
CONTINUOUS
 66
     1
 70
     0
 40
0.0
 41
0.0
  0
VERTEX
  8
20
 10
33.08795547485352
 20
-37.41946792602539
  0
VERTEX
  8
20
 10
33.08795547485352
 20
-38.23196792602539
 42
0.7500000000000001
  0
VERTEX
  8
20
 10
33.58795547485352
 20
-38.23196792602539
  0
VERTEX
  8
20
 10
33.58795547485352
 20
-37.41946792602539
  0
SEQEND
  8
20
  0
POLYLINE
  8
20
  6
CONTINUOUS
 66
     1
 70
     0
 40
0.0
 41
0.0
  0
VERTEX
  8
20
 10
34.02545547485352
 20
-38.41946792602539
  0
VERTEX
  8
20
 10
34.02545547485352
 20
-37.41946792602539
  0
VERTEX
  8
20
 10
33.85358047485352
 20
-37.71634292602539
  0
SEQEND
  8
20
  0
ENDBLK
  8
20
  0
ENDSEC
  0
SECTION
  2
ENTITIES
  0
CIRCLE
  8
100
  6
CONTINUOUS
 10
57.33783783783784
 20
-4.969999439479892
 40
1.75
  0
CIRCLE
  8
100
  6
CONTINUOUS
 10
57.33783783783784
 20
-64.96999943947989
 40
1.75
  0
CIRCLE
  8
100
  6
CONTINUOUS
 10
-12.66216216216216
 20
-64.96999943947989
 40
1.75
  0
CIRCLE
  8
100
  6
CONTINUOUS
 10
-12.66216216216216
 20
-4.969999439479892
 40
1.75
  0
LINE
  8
100
  6
CONTINUOUS
 10
47.73783783783785
 20
-65.95265032312398
 11
47.73783783783785
 21
-51.95265032312398
  0
LINE
  8
100
  6
CONTINUOUS
 10
-5.362162162162157
 20
-65.95265032312398
 11
-5.362162162162157
 21
-51.95265032312398
  0
LINE
  8
100
  6
CONTINUOUS
 10
-3.062162162162156
 20
-65.95265032312398
 11
-3.062162162162156
 21
-51.95265032312398
  0
LINE
  8
100
  6
CONTINUOUS
 10
2.017837837837842
 20
-65.95265032312398
 11
2.017837837837842
 21
-51.95265032312398
  0
LINE
  8
100
  6
CONTINUOUS
 10
7.097837837837844
 20
-65.95265032312398
 11
7.097837837837844
 21
-51.95265032312398
  0
LINE
  8
100
  6
CONTINUOUS
 10
12.17783783783784
 20
-65.95265032312398
 11
12.17783783783784
 21
-51.95265032312398
  0
LINE
  8
100
  6
CONTINUOUS
 10
17.25783783783784
 20
-65.95265032312398
 11
17.25783783783784
 21
-51.95265032312398
  0
LINE
  8
100
  6
CONTINUOUS
 10
22.33783783783784
 20
-65.95265032312398
 11
22.33783783783784
 21
-51.95265032312398
  0
LINE
  8
100
  6
CONTINUOUS
 10
27.41783783783784
 20
-65.95265032312398
 11
27.41783783783784
 21
-51.95265032312398
  0
LINE
  8
100
  6
CONTINUOUS
 10
32.49783783783784
 20
-65.95265032312398
 11
32.49783783783784
 21
-51.95265032312398
  0
LINE
  8
100
  6
CONTINUOUS
 10
37.57783783783783
 20
-65.95265032312398
 11
37.57783783783783
 21
-51.95265032312398
  0
LINE
  8
100
  6
CONTINUOUS
 10
42.65783783783784
 20
-65.95265032312398
 11
42.65783783783784
 21
-51.95265032312398
  0
LINE
  8
100
  6
CONTINUOUS
 10
-5.362162162162157
 20
-65.95265032312398
 11
47.73783783783785
 21
-65.95265032312398
  0
LINE
  8
100
  6
CONTINUOUS
 10
-5.362162162162157
 20
-51.95265032312398
 11
47.73783783783785
 21
-51.95265032312398
  0
LINE
  8
100
  6
CONTINUOUS
 10
-5.362162162162157
 20
-55.95265032312398
 11
47.73783783783785
 21
-55.95265032312398
  0
LINE
  8
100
  6
CONTINUOUS
 10
-5.362162162162157
 20
-58.95265032312398
 11
47.73783783783785
 21
-58.95265032312398
  0
LINE
  8
100
  6
CONTINUOUS
 10
-13.29105586717159
 20
-34.96999943947989
 11
-13.29105586717159
 21
-16.96999943947989
  0
LINE
  8
100
  6
CONTINUOUS
 10
-13.29105586717159
 20
-34.96999943947989
 11
14.20894413282841
 21
-34.96999943947989
  0
LINE
  8
100
  6
CONTINUOUS
 10
-2.062162162162156
 20
-60.88982055405337
 11
-2.062162162162156
 21
-59.45265032312398
  0
LINE
  8
100
  6
CONTINUOUS
 10
1.017837837837842
 20
-60.88982055405337
 11
1.017837837837842
 21
-59.45265032312398
  0
LINE
  8
100
  6
CONTINUOUS
 10
43.65783783783784
 20
-59.45265032312398
 11
46.73783783783785
 21
-59.45265032312398
  0
LINE
  8
100
  6
CONTINUOUS
 10
3.017837837837842
 20
-60.88982055405337
 11
3.017837837837842
 21
-59.45265032312398
  0
LINE
  8
100
  6
CONTINUOUS
 10
6.097837837837844
 20
-60.88982055405337
 11
6.097837837837844
 21
-59.45265032312398
  0
LINE
  8
100
  6
CONTINUOUS
 10
8.097837837837844
 20
-60.88982055405337
 11
8.097837837837844
 21
-59.45265032312398
  0
LINE
  8
100
  6
CONTINUOUS
 10
11.17783783783784
 20
-60.88982055405337
 11
11.17783783783784
 21
-59.45265032312398
  0
LINE
  8
100
  6
CONTINUOUS
 10
13.17783783783784
 20
-60.88982055405337
 11
13.17783783783784
 21
-59.45265032312398
  0
LINE
  8
100
  6
CONTINUOUS
 10
16.25783783783784
 20
-60.88982055405337
 11
16.25783783783784
 21
-59.45265032312398
  0
LINE
  8
100
  6
CONTINUOUS
 10
18.25783783783784
 20
-60.88982055405337
 11
18.25783783783784
 21
-59.45265032312398
  0
LINE
  8
100
  6
CONTINUOUS
 10
21.33783783783784
 20
-60.88982055405337
 11
21.33783783783784
 21
-59.45265032312398
  0
LINE
  8
100
  6
CONTINUOUS
 10
23.33783783783784
 20
-60.88982055405337
 11
23.33783783783784
 21
-59.45265032312398
  0
LINE
  8
100
  6
CONTINUOUS
 10
26.41783783783784
 20
-60.88982055405337
 11
26.41783783783784
 21
-59.45265032312398
  0
LINE
  8
100
  6
CONTINUOUS
 10
28.41783783783784
 20
-60.88982055405337
 11
28.41783783783784
 21
-59.45265032312398
  0
LINE
  8
100
  6
CONTINUOUS
 10
31.49783783783784
 20
-60.88982055405337
 11
31.49783783783784
 21
-59.45265032312398
  0
LINE
  8
100
  6
CONTINUOUS
 10
33.49783783783784
 20
-60.88982055405337
 11
33.49783783783784
 21
-59.45265032312398
  0
LINE
  8
100
  6
CONTINUOUS
 10
36.57783783783783
 20
-60.88982055405337
 11
36.57783783783783
 21
-59.45265032312398
  0
LINE
  8
100
  6
CONTINUOUS
 10
38.57783783783783
 20
-60.88982055405337
 11
38.57783783783783
 21
-59.45265032312398
  0
LINE
  8
100
  6
CONTINUOUS
 10
41.65783783783783
 20
-60.88982055405337
 11
41.65783783783784
 21
-59.45265032312398
  0
LINE
  8
100
  6
CONTINUOUS
 10
43.65783783783783
 20
-60.88982055405337
 11
43.65783783783784
 21
-59.45265032312398
  0
LINE
  8
100
  6
CONTINUOUS
 10
46.73783783783784
 20
-60.88982055405337
 11
46.73783783783785
 21
-59.45265032312398
  0
LINE
  8
100
  6
CONTINUOUS
 10
43.65783783783783
 20
-60.88982055405337
 11
46.73783783783784
 21
-60.88982055405337
  0
LINE
  8
100
  6
CONTINUOUS
 10
41.65783783783784
 20
-59.45265032312398
 11
38.57783783783783
 21
-59.45265032312398
  0
LINE
  8
100
  6
CONTINUOUS
 10
38.57783783783783
 20
-60.88982055405337
 11
41.65783783783783
 21
-60.88982055405337
  0
LINE
  8
100
  6
CONTINUOUS
 10
36.57783783783783
 20
-60.88982055405337
 11
33.49783783783784
 21
-60.88982055405337
  0
LINE
  8
100
  6
CONTINUOUS
 10
36.57783783783783
 20
-59.45265032312398
 11
33.49783783783784
 21
-59.45265032312398
  0
LINE
  8
100
  6
CONTINUOUS
 10
31.49783783783784
 20
-59.45265032312398
 11
28.41783783783784
 21
-59.45265032312398
  0
LINE
  8
100
  6
CONTINUOUS
 10
28.41783783783784
 20
-60.88982055405337
 11
31.49783783783784
 21
-60.88982055405337
  0
LINE
  8
100
  6
CONTINUOUS
 10
26.41783783783784
 20
-59.45265032312398
 11
23.33783783783784
 21
-59.45265032312398
  0
LINE
  8
100
  6
CONTINUOUS
 10
23.33783783783784
 20
-60.88982055405337
 11
26.41783783783784
 21
-60.88982055405337
  0
LINE
  8
100
  6
CONTINUOUS
 10
21.33783783783784
 20
-59.45265032312398
 11
18.25783783783784
 21
-59.45265032312398
  0
LINE
  8
100
  6
CONTINUOUS
 10
18.25783783783784
 20
-60.88982055405337
 11
21.33783783783784
 21
-60.88982055405337
  0
LINE
  8
100
  6
CONTINUOUS
 10
16.25783783783784
 20
-60.88982055405337
 11
13.17783783783784
 21
-60.88982055405337
  0
LINE
  8
100
  6
CONTINUOUS
 10
13.17783783783784
 20
-59.45265032312398
 11
16.25783783783784
 21
-59.45265032312398
  0
LINE
  8
100
  6
CONTINUOUS
 10
11.17783783783784
 20
-59.45265032312398
 11
8.097837837837844
 21
-59.45265032312398
  0
LINE
  8
100
  6
CONTINUOUS
 10
8.097837837837844
 20
-60.88982055405337
 11
11.17783783783784
 21
-60.88982055405337
  0
LINE
  8
100
  6
CONTINUOUS
 10
6.097837837837844
 20
-59.45265032312398
 11
3.017837837837842
 21
-59.45265032312398
  0
LINE
  8
100
  6
CONTINUOUS
 10
3.017837837837842
 20
-60.88982055405337
 11
6.097837837837844
 21
-60.88982055405337
  0
LINE
  8
100
  6
CONTINUOUS
 10
1.017837837837842
 20
-59.45265032312398
 11
-2.062162162162156
 21
-59.45265032312398
  0
LINE
  8
100
  6
CONTINUOUS
 10
-2.062162162162156
 20
-60.88982055405337
 11
1.017837837837842
 21
-60.88982055405337
  0
LINE
  8
100
  6
CONTINUOUS
 10
43.65783783783783
 20
-64.88982055405336
 11
43.65783783783783
 21
-61.88982055405337
  0
LINE
  8
100
  6
CONTINUOUS
 10
46.73783783783784
 20
-64.88982055405336
 11
46.73783783783784
 21
-61.88982055405337
  0
LINE
  8
100
  6
CONTINUOUS
 10
43.65783783783783
 20
-64.88982055405336
 11
46.73783783783784
 21
-64.88982055405336
  0
LINE
  8
100
  6
CONTINUOUS
 10
43.65783783783783
 20
-61.88982055405337
 11
46.73783783783784
 21
-61.88982055405337
  0
LINE
  8
100
  6
CONTINUOUS
 10
38.57783783783782
 20
-64.88982055405336
 11
41.65783783783783
 21
-64.88982055405336
  0
LINE
  8
100
  6
CONTINUOUS
 10
41.65783783783783
 20
-64.88982055405336
 11
41.65783783783783
 21
-61.88982055405337
  0
LINE
  8
100
  6
CONTINUOUS
 10
38.57783783783782
 20
-61.88982055405337
 11
41.65783783783783
 21
-61.88982055405337
  0
LINE
  8
100
  6
CONTINUOUS
 10
38.57783783783782
 20
-64.88982055405336
 11
38.57783783783782
 21
-61.88982055405337
  0
LINE
  8
100
  6
CONTINUOUS
 10
33.49783783783781
 20
-64.88982055405336
 11
36.57783783783782
 21
-64.88982055405336
  0
LINE
  8
100
  6
CONTINUOUS
 10
36.57783783783782
 20
-64.88982055405336
 11
36.57783783783782
 21
-61.88982055405337
  0
LINE
  8
100
  6
CONTINUOUS
 10
33.49783783783781
 20
-61.88982055405337
 11
36.57783783783782
 21
-61.88982055405337
  0
LINE
  8
100
  6
CONTINUOUS
 10
33.49783783783781
 20
-64.88982055405336
 11
33.49783783783781
 21
-61.88982055405337
  0
LINE
  8
100
  6
CONTINUOUS
 10
28.41783783783782
 20
-64.88982055405336
 11
31.49783783783783
 21
-64.88982055405336
  0
LINE
  8
100
  6
CONTINUOUS
 10
31.49783783783783
 20
-64.88982055405336
 11
31.49783783783783
 21
-61.88982055405337
  0
LINE
  8
100
  6
CONTINUOUS
 10
28.41783783783782
 20
-61.88982055405337
 11
31.49783783783783
 21
-61.88982055405337
  0
LINE
  8
100
  6
CONTINUOUS
 10
28.41783783783782
 20
-64.88982055405336
 11
28.41783783783782
 21
-61.88982055405337
  0
LINE
  8
100
  6
CONTINUOUS
 10
23.33783783783782
 20
-64.88982055405336
 11
26.41783783783783
 21
-64.88982055405336
  0
LINE
  8
100
  6
CONTINUOUS
 10
26.41783783783783
 20
-64.88982055405336
 11
26.41783783783783
 21
-61.88982055405337
  0
LINE
  8
100
  6
CONTINUOUS
 10
23.33783783783782
 20
-61.88982055405337
 11
26.41783783783783
 21
-61.88982055405337
  0
LINE
  8
100
  6
CONTINUOUS
 10
23.33783783783782
 20
-64.88982055405336
 11
23.33783783783782
 21
-61.88982055405337
  0
LINE
  8
100
  6
CONTINUOUS
 10
18.25783783783782
 20
-64.88982055405336
 11
21.33783783783783
 21
-64.88982055405336
  0
LINE
  8
100
  6
CONTINUOUS
 10
21.33783783783783
 20
-64.88982055405336
 11
21.33783783783783
 21
-61.88982055405337
  0
LINE
  8
100
  6
CONTINUOUS
 10
18.25783783783782
 20
-61.88982055405337
 11
21.33783783783783
 21
-61.88982055405337
  0
LINE
  8
100
  6
CONTINUOUS
 10
18.25783783783782
 20
-64.88982055405336
 11
18.25783783783782
 21
-61.88982055405337
  0
LINE
  8
100
  6
CONTINUOUS
 10
13.17783783783782
 20
-64.88982055405336
 11
16.25783783783783
 21
-64.88982055405336
  0
LINE
  8
100
  6
CONTINUOUS
 10
16.25783783783783
 20
-64.88982055405336
 11
16.25783783783783
 21
-61.88982055405337
  0
LINE
  8
100
  6
CONTINUOUS
 10
13.17783783783782
 20
-61.88982055405337
 11
16.25783783783783
 21
-61.88982055405337
  0
LINE
  8
100
  6
CONTINUOUS
 10
13.17783783783782
 20
-64.88982055405336
 11
13.17783783783782
 21
-61.88982055405337
  0
LINE
  8
100
  6
CONTINUOUS
 10
8.097837837837822
 20
-64.88982055405336
 11
11.17783783783784
 21
-64.88982055405336
  0
LINE
  8
100
  6
CONTINUOUS
 10
11.17783783783784
 20
-64.88982055405336
 11
11.17783783783784
 21
-61.88982055405337
  0
LINE
  8
100
  6
CONTINUOUS
 10
8.097837837837822
 20
-61.88982055405337
 11
11.17783783783784
 21
-61.88982055405337
  0
LINE
  8
100
  6
CONTINUOUS
 10
8.097837837837822
 20
-64.88982055405336
 11
8.097837837837822
 21
-61.88982055405337
  0
LINE
  8
100
  6
CONTINUOUS
 10
3.017837837837824
 20
-64.88982055405336
 11
6.097837837837837
 21
-64.88982055405336
  0
LINE
  8
100
  6
CONTINUOUS
 10
6.097837837837837
 20
-64.88982055405336
 11
6.097837837837837
 21
-61.88982055405337
  0
LINE
  8
100
  6
CONTINUOUS
 10
3.017837837837824
 20
-61.88982055405337
 11
6.097837837837837
 21
-61.88982055405337
  0
LINE
  8
100
  6
CONTINUOUS
 10
3.017837837837824
 20
-64.88982055405336
 11
3.017837837837824
 21
-61.88982055405337
  0
LINE
  8
100
  6
CONTINUOUS
 10
-2.062162162162181
 20
-64.88982055405336
 11
1.017837837837831
 21
-64.88982055405336
  0
LINE
  8
100
  6
CONTINUOUS
 10
1.017837837837831
 20
-64.88982055405336
 11
1.017837837837831
 21
-61.88982055405337
  0
LINE
  8
100
  6
CONTINUOUS
 10
-2.062162162162181
 20
-61.88982055405337
 11
1.017837837837831
 21
-61.88982055405337
  0
LINE
  8
100
  6
CONTINUOUS
 10
-2.062162162162181
 20
-64.88982055405336
 11
-2.062162162162181
 21
-61.88982055405337
  0
LINE
  8
100
  6
CONTINUOUS
 10
25.75608533479547
 20
-13.4899994394799
 11
25.75608533479547
 21
-3.489999439479892
  0
LINE
  8
100
  6
CONTINUOUS
 10
30.75608533479547
 20
-13.4899994394799
 11
30.75608533479547
 21
-3.489999439479892
  0
LINE
  8
100
  6
CONTINUOUS
 10
30.75608533479547
 20
-13.4899994394799
 11
25.75608533479547
 21
-13.4899994394799
  0
LINE
  8
100
  6
CONTINUOUS
 10
30.75608533479547
 20
-3.489999439479892
 11
25.75608533479547
 21
-3.489999439479892
  0
LINE
  8
100
  6
CONTINUOUS
 10
44.6476041197746
 20
-13.48999943947989
 11
39.6476041197746
 21
-13.48999943947989
  0
LINE
  8
100
  6
CONTINUOUS
 10
44.6476041197746
 20
-3.489999439479892
 11
39.6476041197746
 21
-3.489999439479892
  0
LINE
  8
100
  6
CONTINUOUS
 10
39.6476041197746
 20
-13.48999943947989
 11
39.6476041197746
 21
-3.489999439479892
  0
LINE
  8
100
  6
CONTINUOUS
 10
44.6476041197746
 20
-13.48999943947989
 11
44.6476041197746
 21
-3.489999439479892
  0
LINE
  8
100
  6
CONTINUOUS
 10
151.8826194629166
 20
-69.96999943947989
 11
151.8826194629166
 21
0.03000056052010791
  0
LINE
  8
100
  6
CONTINUOUS
 10
150.2826194629166
 20
0.03000056052010791
 11
151.8826194629166
 21
0.03000056052010791
  0
LINE
  8
100
  6
CONTINUOUS
 10
150.2826194629166
 20
-69.96999943947989
 11
151.8826194629166
 21
-69.96999943947989
  0
LINE
  8
100
  6
CONTINUOUS
 10
140.6279545618608
 20
-51.95265032312398
 11
145.6326204482337
 21
-51.95265032312398
  0
LINE
  8
100
  6
CONTINUOUS
 10
137.2826194629166
 20
-58.95265032312398
 11
137.2826194629166
 21
-55.95265032312398
  0
LINE
  8
100
  6
CONTINUOUS
 10
137.2826194629166
 20
-55.95265032312398
 11
140.6279545618608
 21
-51.95265032312398
  0
LINE
  8
100
  6
CONTINUOUS
 10
137.2826194629166
 20
-58.95265032312398
 11
143.017772594576
 21
-65.95265032312398
  0
LINE
  8
100
  6
CONTINUOUS
 10
143.017772594576
 20
-65.95265032312398
 11
150.2826194629166
 21
-64.37686387446641
  0
LINE
  8
100
  6
CONTINUOUS
 10
-13.29105586717159
 20
-16.96999943947989
 11
14.20894413282841
 21
-16.96999943947989
  0
LINE
  8
100
  6
CONTINUOUS
 10
14.20894413282841
 20
-34.96999943947989
 11
14.20894413282841
 21
-16.96999943947989
  0
LINE
  8
100
  6
CONTINUOUS
 10
62.33783783783784
 20
-69.96999943947989
 11
-7.662162162162161
 21
-69.96999943947989
  0
LINE
  8
100
  6
CONTINUOUS
 10
62.33783783783784
 20
-59.96999943947989
 11
62.33783783783784
 21
-9.969999439479892
  0
LINE
  8
100
  6
CONTINUOUS
 10
-17.66216216216216
 20
-9.969999439479892
 11
-17.66216216216216
 21
-59.96999943947989
  0
LINE
  8
100
  6
CONTINUOUS
 10
62.33783783783784
 20
0.03000056052010791
 11
62.33783783783784
 21
-9.969999439479892
  0
LINE
  8
100
  6
CONTINUOUS
 10
62.33783783783784
 20
-69.96999943947989
 11
62.33783783783784
 21
-59.96999943947989
  0
LINE
  8
100
  6
CONTINUOUS
 10
-17.66216216216216
 20
-69.96999943947989
 11
-7.662162162162161
 21
-69.96999943947989
  0
LINE
  8
100
  6
CONTINUOUS
 10
-17.66216216216216
 20
-69.96999943947989
 11
-17.66216216216216
 21
-59.96999943947989
  0
LINE
  8
100
  6
CONTINUOUS
 10
-17.66216216216216
 20
0.03000056052010791
 11
-17.66216216216216
 21
-9.969999439479892
  0
LINE
  8
100
  6
CONTINUOUS
 10
-17.66216216216216
 20
0.03000056052010791
 11
-7.662162162162161
 21
0.03000056052010791
  0
LINE
  8
100
  6
CONTINUOUS
 10
154.2826194629166
 20
-57.45265032312398
 11
154.2826194629166
 21
-56.45265032312398
  0
LINE
  8
100
  6
CONTINUOUS
 10
154.2826194629166
 20
-56.45265032312398
 11
151.8826194629166
 21
-56.45265032312398
  0
LINE
  8
100
  6
CONTINUOUS
 10
154.2826194629166
 20
-57.45265032312398
 11
151.8826194629166
 21
-57.45265032312398
  0
LINE
  8
100
  6
CONTINUOUS
 10
55.64834144661347
 20
-22.32826818082559
 11
52.14834144661347
 21
-22.32826818082559
  0
LINE
  8
100
  6
CONTINUOUS
 10
55.64834144661347
 20
-13.72826818082558
 11
52.14834144661347
 21
-13.72826818082558
  0
LINE
  8
100
  6
CONTINUOUS
 10
52.14834144661347
 20
-13.72826818082558
 11
52.14834144661347
 21
-22.32826818082559
  0
LINE
  8
100
  6
CONTINUOUS
 10
55.64834144661347
 20
-13.72826818082558
 11
55.64834144661347
 21
-22.32826818082559
  0
LINE
  8
100
  6
CONTINUOUS
 10
54.64834144661347
 20
-19.77826818082558
 11
53.14834144661347
 21
-19.77826818082558
  0
LINE
  8
100
  6
CONTINUOUS
 10
53.14834144661347
 20
-16.27826818082558
 11
53.14834144661347
 21
-19.77826818082558
  0
LINE
  8
100
  6
CONTINUOUS
 10
54.64834144661347
 20
-16.27826818082558
 11
54.64834144661347
 21
-19.77826818082558
  0
LINE
  8
100
  6
CONTINUOUS
 10
54.64834144661347
 20
-16.27826818082558
 11
53.14834144661347
 21
-16.27826818082558
  0
CIRCLE
  8
100
  6
CONTINUOUS
 10
55.64834144661347
 20
-20.52826818082558
 40
0.4
  0
CIRCLE
  8
100
  6
CONTINUOUS
 10
55.64834144661347
 20
-15.52826818082558
 40
0.4
  0
CIRCLE
  8
100
  6
CONTINUOUS
 10
52.14834144661347
 20
-18.02826818082558
 40
0.4
  0
LINE
  8
100
  6
CONTINUOUS
 10
54.64834144661347
 20
-18.27826818082558
 11
53.14834144661347
 21
-18.27826818082558
  0
LINE
  8
100
  6
CONTINUOUS
 10
146.7826226528613
 20
-13.72826818082558
 11
150.2826226528614
 21
-13.72826818082558
  0
LINE
  8
100
  6
CONTINUOUS
 10
146.782622182552
 20
-22.32826818082559
 11
150.2826221825521
 21
-22.32826818082559
  0
LINE
  8
100
  6
CONTINUOUS
 10
150.2826194629166
 20
-69.96999943947989
 11
150.2826232910156
 21
0.03000056052010791
  0
LINE
  8
100
  6
CONTINUOUS
 10
146.782622182552
 20
-22.32826818082559
 11
146.7826226528613
 21
-13.72826818082558
  0
LINE
  8
100
  6
CONTINUOUS
 10
144.7826224040349
 20
-18.27826818082558
 11
146.7826224040349
 21
-18.27826818082558
  0
LINE
  8
100
  6
CONTINUOUS
 10
144.7826223220042
 20
-19.77826818082558
 11
146.7826223220042
 21
-19.77826818082558
  0
LINE
  8
100
  6
CONTINUOUS
 10
144.7826223220042
 20
-19.77826818082558
 11
144.7826224040349
 21
-18.27826818082558
  0
LINE
  8
100
  6
CONTINUOUS
 10
140.2826194629166
 20
-3.489999439479892
 11
140.2826194629166
 21
-13.48999943947989
  0
LINE
  8
100
  6
CONTINUOUS
 10
145.2826194629166
 20
-34.96999943947989
 11
150.2826213769661
 21
-34.96999943947989
  0
LINE
  8
100
  6
CONTINUOUS
 10
153.2826222645827
 20
-20.82826818082559
 11
153.282622297395
 21
-20.22826818082558
  0
LINE
  8
100
  6
CONTINUOUS
 10
153.2826224013006
 20
-18.32826818082559
 11
153.2826224341128
 21
-17.72826818082558
  0
LINE
  8
100
  6
CONTINUOUS
 10
153.2826225380184
 20
-15.82826818082559
 11
153.2826225708307
 21
-15.22826818082558
  0
LINE
  8
100
  6
CONTINUOUS
 10
151.8826194629166
 20
-15.82826818082559
 11
153.2826225380184
 21
-15.82826818082559
  0
LINE
  8
100
  6
CONTINUOUS
 10
151.8826194629166
 20
-15.22826818082558
 11
153.2826225708307
 21
-15.22826818082558
  0
LINE
  8
100
  6
CONTINUOUS
 10
151.8826194629166
 20
-17.72826818082558
 11
153.2826224341129
 21
-17.72826818082558
  0
LINE
  8
100
  6
CONTINUOUS
 10
151.8826194629166
 20
-18.32826818082559
 11
153.2826224013006
 21
-18.32826818082559
  0
LINE
  8
100
  6
CONTINUOUS
 10
151.8826194629166
 20
-20.22826818082558
 11
153.282622297395
 21
-20.22826818082558
  0
LINE
  8
100
  6
CONTINUOUS
 10
151.8826194629166
 20
-20.82826818082559
 11
153.2826222645828
 21
-20.82826818082559
  0
POLYLINE
  8
100
  6
CONTINUOUS
 66
     1
 70
     0
 40
0.0
 41
0.0
  0
VERTEX
  8
100
 10
-12.16216216216216
 20
-10.46999943947989
  0
VERTEX
  8
100
 10
-12.16216216216216
 20
-11.46999943947989
  0
VERTEX
  8
100
 10
-13.16216216216216
 20
-11.46999943947989
  0
VERTEX
  8
100
 10
-13.16216216216216
 20
-10.46999943947989
  0
VERTEX
  8
100
 10
-12.16216216216216
 20
-10.46999943947989
  0
SEQEND
  8
100
  0
LINE
  8
100
  6
CONTINUOUS
 10
62.33783783783784
 20
0.03000056052010791
 11
-8.662162162162156
 21
0.03000056052010791
  0
CIRCLE
  8
100
  6
CONTINUOUS
 10
45.19783783783784
 20
-49.96999943947989
 40
1.0
  0
CIRCLE
  8
100
  6
CONTINUOUS
 10
40.11783783783783
 20
-49.96999943947989
 40
1.0
  0
CIRCLE
  8
100
  6
CONTINUOUS
 10
35.03783783783781
 20
-49.96999943947989
 40
1.0
  0
CIRCLE
  8
100
  6
CONTINUOUS
 10
29.95783783783782
 20
-49.96999943947989
 40
1.0
  0
CIRCLE
  8
100
  6
CONTINUOUS
 10
24.87783783783782
 20
-49.96999943947989
 40
1.0
  0
CIRCLE
  8
100
  6
CONTINUOUS
 10
19.79783783783783
 20
-49.96999943947989
 40
1.0
  0
CIRCLE
  8
100
  6
CONTINUOUS
 10
14.71783783783783
 20
-49.96999943947989
 40
1.0
  0
CIRCLE
  8
100
  6
CONTINUOUS
 10
9.637837837837829
 20
-49.96999943947989
 40
1.0
  0
CIRCLE
  8
100
  6
CONTINUOUS
 10
4.55783783783783
 20
-49.96999943947989
 40
1.0
  0
CIRCLE
  8
100
  6
CONTINUOUS
 10
-0.522162162162175
 20
-49.96999943947989
 40
1.0
  0
LINE
  8
100
  6
CONTINUOUS
 10
-11.29105586717159
 20
-47.62370784848314
 11
-2.991055867171578
 21
-47.62370784848314
  0
LINE
  8
100
  6
CONTINUOUS
 10
-2.991055867171593
 20
-47.62370784848314
 11
-2.991055867171593
 21
-37.32370784848315
  0
LINE
  8
100
  6
CONTINUOUS
 10
-11.29105586717159
 20
-37.32370784848315
 11
-2.991055867171593
 21
-37.32370784848315
  0
LINE
  8
100
  6
CONTINUOUS
 10
-13.29105586717159
 20
-45.62370784848314
 11
-13.29105586717159
 21
-39.32370784848315
  0
CIRCLE
  8
100
  6
CONTINUOUS
 10
-8.141055867171598
 20
-42.47370784848314
 40
5.0
  0
LINE
  8
100
  6
CONTINUOUS
 10
-11.29105586717159
 20
-37.32370784848315
 11
-13.29105586717159
 21
-39.32370784848315
  0
LINE
  8
100
  6
CONTINUOUS
 10
15.6272981860783
 20
-15.62007710894913
 11
15.6272981860783
 21
-21.92007710894914
  0
LINE
  8
100
  6
CONTINUOUS
 10
15.6272981860783
 20
-21.92007710894913
 11
23.9272981860783
 21
-21.92007710894913
  0
LINE
  8
100
  6
CONTINUOUS
 10
17.6272981860783
 20
-13.62007710894913
 11
21.9272981860783
 21
-13.62007710894913
  0
LINE
  8
100
  6
CONTINUOUS
 10
23.9272981860783
 20
-15.62007710894913
 11
23.9272981860783
 21
-21.92007710894914
  0
LINE
  8
100
  6
CONTINUOUS
 10
23.9272981860783
 20
-15.62007710894913
 11
21.9272981860783
 21
-13.62007710894913
  0
CIRCLE
  8
100
  6
CONTINUOUS
 10
19.78114360621945
 20
-17.77007710894914
 40
4.0
  0
LINE
  8
100
  6
CONTINUOUS
 10
15.6272981860783
 20
-33.76398111218563
 11
23.92729818607829
 21
-33.76398111218563
  0
LINE
  8
100
  6
CONTINUOUS
 10
15.6272981860783
 20
-27.46398111218564
 11
15.6272981860783
 21
-33.76398111218565
  0
LINE
  8
100
  6
CONTINUOUS
 10
23.92729818607829
 20
-27.46398111218563
 11
23.92729818607829
 21
-33.76398111218565
  0
LINE
  8
100
  6
CONTINUOUS
 10
17.6272981860783
 20
-25.46398111218564
 11
21.9272981860783
 21
-25.46398111218564
  0
LINE
  8
100
  6
CONTINUOUS
 10
23.92729818607829
 20
-27.46398111218563
 11
21.9272981860783
 21
-25.46398111218564
  0
CIRCLE
  8
100
  6
CONTINUOUS
 10
19.78114360621945
 20
-29.61398111218564
 40
4.0
  0
LINE
  8
100
  6
CONTINUOUS
 10
48.19607475871787
 20
-32.28745034727114
 11
48.19607475871787
 21
-25.93745034727114
  0
LINE
  8
100
  6
CONTINUOUS
 10
48.19607475871787
 20
-32.28745034727114
 11
54.54607475871787
 21
-32.28745034727114
  0
LINE
  8
100
  6
CONTINUOUS
 10
48.19607475871787
 20
-25.93745034727114
 11
54.54607475871788
 21
-25.93745034727114
  0
LINE
  8
100
  6
CONTINUOUS
 10
54.54607475871788
 20
-32.28745034727114
 11
54.54607475871788
 21
-25.93745034727114
  0
CIRCLE
  8
100
  6
CONTINUOUS
 10
51.37107475871787
 20
-29.11245034727114
 40
1.5
  0
LINE
  8
100
  6
CONTINUOUS
 10
32.58795754323053
 20
-33.91947084908993
 11
32.58795754323053
 21
-38.91947084908993
  0
LINE
  8
100
  6
CONTINUOUS
 10
32.58795754323053
 20
-33.91947084908993
 11
38.78795754323054
 21
-33.91947084908993
  0
LINE
  8
100
  6
CONTINUOUS
 10
32.58795754323053
 20
-38.91947084908993
 11
38.78795754323054
 21
-38.91947084908993
  0
LINE
  8
100
  6
CONTINUOUS
 10
38.78795754323054
 20
-33.91947084908993
 11
38.78795754323054
 21
-38.91947084908993
  0
LINE
  8
100
  6
CONTINUOUS
 10
34.64617080241568
 20
-17.68245513774047
 11
34.64617080241568
 21
-22.68245513774047
  0
LINE
  8
100
  6
CONTINUOUS
 10
34.64617080241568
 20
-17.68245513774047
 11
40.84617080241568
 21
-17.68245513774047
  0
LINE
  8
100
  6
CONTINUOUS
 10
34.64617080241568
 20
-22.68245513774047
 11
40.84617080241568
 21
-22.68245513774047
  0
LINE
  8
100
  6
CONTINUOUS
 10
40.84617080241568
 20
-17.68245513774047
 11
40.84617080241568
 21
-22.68245513774047
  0
CIRCLE
  8
100
  6
CONTINUOUS
 10
-12.66216216216216
 20
-64.96999943947989
 40
3.0
  0
CIRCLE
  8
100
  6
CONTINUOUS
 10
-12.66216216216216
 20
-4.969999439479892
 40
3.0
  0
POLYLINE
  8
100
  6
CONTINUOUS
 66
     1
 70
     0
 40
0.0
 41
0.0
  0
VERTEX
  8
100
 10
57.83783783783784
 20
-58.46999943947989
  0
VERTEX
  8
100
 10
57.83783783783784
 20
-59.46999943947989
  0
VERTEX
  8
100
 10
56.83783783783784
 20
-59.46999943947989
  0
VERTEX
  8
100
 10
56.83783783783784
 20
-58.46999943947989
  0
VERTEX
  8
100
 10
57.83783783783784
 20
-58.46999943947989
  0
SEQEND
  8
100
  0
LINE
  8
100
  6
CONTINUOUS
 10
-5.525239691015216
 20
-10.6615367861287
 11
-5.525239691015215
 21
-3.661536786128702
  0
LINE
  8
100
  6
CONTINUOUS
 10
15.47476030898479
 20
-10.6615367861287
 11
15.47476030898479
 21
-3.661536786128702
  0
ARC
  8
100
  6
CONTINUOUS
 10
-3.525239691015215
 20
-3.661536786128702
 40
2.0
 50
90.0
 51
180.0
  0
ARC
  8
100
  6
CONTINUOUS
 10
-3.525239691015216
 20
-10.6615367861287
 40
2.0
 50
180.0
 51
270.0
  0
ARC
  8
100
  6
CONTINUOUS
 10
13.47476030898479
 20
-10.6615367861287
 40
2.0
 50
270.0
 51
0.0
  0
ARC
  8
100
  6
CONTINUOUS
 10
13.47476030898479
 20
-3.661536786128702
 40
2.0
 50
0.0
 51
90.0
  0
INSERT
  8
30
  6
CONTINUOUS
  2
HACH1
 10
0.0
 20
0.0
 41
1.0
 42
1.0
 50
0.0
  0
LINE
  8
100
  6
CONTINUOUS
 10
58.73942508233358
 20
-20.03501850133279
 11
58.73942508233358
 21
-16.04193187507381
  0
LINE
  8
100
  6
CONTINUOUS
 10
58.73942508233358
 20
-16.04193187507381
 11
58.23855941444455
 21
-17.04193187507381
  0
LINE
  8
100
  6
CONTINUOUS
 10
59.24029075022261
 20
-17.04193187507381
 11
58.73942508233358
 21
-16.04193187507381
  0
LINE
  8
100
  6
CONTINUOUS
 10
59.24029075022261
 20
-19.03501850133279
 11
58.73942508233358
 21
-20.03501850133279
  0
LINE
  8
100
  6
CONTINUOUS
 10
58.73942508233358
 20
-20.03501850133279
 11
58.23855941444455
 21
-19.03501850133279
  0
LINE
  8
100
  6
CONTINUOUS
 10
153.2826225380184
 20
-8.789999439479896
 11
153.2826225708307
 21
-8.189999439479887
  0
LINE
  8
100
  6
CONTINUOUS
 10
151.8826194629166
 20
-8.189999439479887
 11
153.2826225708307
 21
-8.189999439479887
  0
LINE
  8
100
  6
CONTINUOUS
 10
151.8826194629166
 20
-8.789999439479896
 11
153.2826225380184
 21
-8.789999439479896
  0
LINE
  8
100
  6
CONTINUOUS
 10
145.2826194629166
 20
-16.96999943947989
 11
146.7826225331207
 21
-16.96999943947989
  0
LINE
  8
100
  6
CONTINUOUS
 10
146.2826218709303
 20
-25.93745034727114
 11
150.2826218709303
 21
-25.93745034727114
  0
LINE
  8
100
  6
CONTINUOUS
 10
146.282621523667
 20
-32.28745034727114
 11
150.2826215236671
 21
-32.28745034727114
  0
LINE
  8
100
  6
CONTINUOUS
 10
146.282621523667
 20
-32.28745034727114
 11
146.2826218709303
 21
-25.93745034727114
  0
LINE
  8
100
  6
CONTINUOUS
 10
13.47476030898479
 20
-1.661536786128702
 11
-3.525239691015215
 21
-1.661536786128702
  0
LINE
  8
100
  6
CONTINUOUS
 10
13.47476030898479
 20
-12.6615367861287
 11
-3.525239691015216
 21
-12.6615367861287
  0
LINE
  8
100
  6
CONTINUOUS
 10
154.2826194629166
 20
-62.45265032312398
 11
154.2826194629166
 21
-61.45265032312398
  0
LINE
  8
100
  6
CONTINUOUS
 10
154.2826194629166
 20
-61.45265032312398
 11
151.8826194629166
 21
-61.45265032312398
  0
LINE
  8
100
  6
CONTINUOUS
 10
154.2826194629166
 20
-62.45265032312398
 11
151.8826194629166
 21
-62.45265032312398
  0
LINE
  8
100
  6
CONTINUOUS
 10
17.6272981860783
 20
-13.62007710894913
 11
15.6272981860783
 21
-15.62007710894913
  0
LINE
  8
100
  6
CONTINUOUS
 10
17.6272981860783
 20
-25.46398111218564
 11
15.6272981860783
 21
-27.46398111218564
  0
LINE
  8
100
  6
CONTINUOUS
 10
-13.29105586717159
 20
-45.62370784848314
 11
-11.29105586717159
 21
-47.62370784848314
  0
LINE
  8
100
  6
CONTINUOUS
 10
49.5070081899201
 20
-47.32505074588125
 11
60.0070081899201
 21
-47.32505074588125
  0
LINE
  8
100
  6
CONTINUOUS
 10
49.5070081899201
 20
-55.82505074588125
 11
60.00700818992009
 21
-55.82505074588125
  0
LINE
  8
100
  6
CONTINUOUS
 10
60.0070081899201
 20
-55.82505074588125
 11
60.0070081899201
 21
-47.32505074588125
  0
LINE
  8
100
  6
CONTINUOUS
 10
49.5070081899201
 20
-55.82505074588125
 11
49.5070081899201
 21
-47.32505074588125
  0
LINE
  8
100
  6
CONTINUOUS
 10
51.5070081899201
 20
-57.09505074588125
 11
58.00700818992009
 21
-57.09505074588125
  0
LINE
  8
100
  6
CONTINUOUS
 10
60.00700818992009
 20
-55.82505074588125
 11
60.00700818992009
 21
-56.59505074588125
  0
LINE
  8
100
  6
CONTINUOUS
 10
49.5070081899201
 20
-55.82505074588125
 11
49.5070081899201
 21
-56.59505074588125
  0
LINE
  8
100
  6
CONTINUOUS
 10
60.00700818992009
 20
-56.59505074588125
 11
58.00700818992009
 21
-57.09505074588125
  0
LINE
  8
100
  6
CONTINUOUS
 10
49.5070081899201
 20
-56.59505074588125
 11
51.5070081899201
 21
-57.09505074588125
  0
LINE
  8
100
  6
CONTINUOUS
 10
54.2570081899201
 20
-42.74505074588125
 11
55.2570081899201
 21
-42.74505074588125
  0
LINE
  8
100
  6
CONTINUOUS
 10
55.2570081899201
 20
-47.32505074588125
 11
55.2570081899201
 21
-42.74505074588125
  0
LINE
  8
100
  6
CONTINUOUS
 10
54.2570081899201
 20
-47.32505074588125
 11
54.2570081899201
 21
-42.74505074588125
  0
LINE
  8
100
  6
CONTINUOUS
 10
57.0470081899201
 20
-47.32505074588125
 11
57.0470081899201
 21
-42.74505074588125
  0
LINE
  8
100
  6
CONTINUOUS
 10
57.0470081899201
 20
-42.74505074588125
 11
58.0470081899201
 21
-42.74505074588125
  0
LINE
  8
100
  6
CONTINUOUS
 10
58.0470081899201
 20
-47.32505074588125
 11
58.0470081899201
 21
-42.74505074588125
  0
LINE
  8
100
  6
CONTINUOUS
 10
51.4670081899201
 20
-47.32505074588125
 11
51.4670081899201
 21
-42.74505074588125
  0
LINE
  8
100
  6
CONTINUOUS
 10
51.4670081899201
 20
-42.74505074588125
 11
52.4670081899201
 21
-42.74505074588125
  0
LINE
  8
100
  6
CONTINUOUS
 10
52.4670081899201
 20
-47.32505074588125
 11
52.4670081899201
 21
-42.74505074588125
  0
LINE
  8
100
  6
CONTINUOUS
 10
145.2826194629166
 20
-16.96999943947989
 11
145.2826194629166
 21
-18.27826818082558
  0
LINE
  8
100
  6
CONTINUOUS
 10
145.2826194629166
 20
-19.77826818082558
 11
145.2826194629166
 21
-34.96999943947989
  0
LINE
  8
100
  6
CONTINUOUS
 10
150.282620236463
 20
-55.82505568279522
 11
148.982620236463
 21
-55.82505561170196
  0
LINE
  8
100
  6
CONTINUOUS
 10
150.2826201670104
 20
-57.09505579216948
 11
148.9826201670103
 21
-57.09505572107621
  0
LINE
  8
100
  6
CONTINUOUS
 10
145.6326202589574
 20
-55.41372714947535
 11
145.6326206900385
 21
-47.53104553529478
  0
LINE
  8
100
  6
CONTINUOUS
 10
148.9826201670103
 20
-57.09505572107621
 11
148.982620236463
 21
-55.82505561170196
  0
LINE
  8
100
  6
CONTINUOUS
 10
145.6326202589574
 20
-55.41372714947536
 11
148.982620236463
 21
-55.82505561170196
  0
LINE
  8
100
  6
CONTINUOUS
 10
145.6326206900385
 20
-47.53104553529479
 11
147.310274733298
 21
-47.32505552024618
  0
LINE
  8
100
  6
CONTINUOUS
 10
147.310274733298
 20
-47.3250555202462
 11
150.282620684219
 21
-47.63746166836278
  0
LINE
  8
100
  6
CONTINUOUS
 10
140.2826194629166
 20
-3.489999439479892
 11
150.2826231500592
 21
-3.489999439479892
  0
LINE
  8
100
  6
CONTINUOUS
 10
140.2826194629166
 20
-13.48999943947989
 11
150.2826226031879
 21
-13.48999943947989
  0
LINE
  8
100
  6
CONTINUOUS
 10
140.4026194629166
 20
-1.969999439479892
 11
142.4026194629166
 21
-1.969999439479892
  0
LINE
  8
100
  6
CONTINUOUS
 10
140.4026194629166
 20
-1.969999439479892
 11
140.4026194629166
 21
-3.489999439479892
  0
LINE
  8
100
  6
CONTINUOUS
 10
142.4026194629166
 20
-1.969999439479892
 11
142.4026194629166
 21
-3.489999439479892
  0
LINE
  8
100
  6
CONTINUOUS
 10
41.7376041197746
 20
-1.969999439479892
 11
39.7376041197746
 21
-1.969999439479892
  0
LINE
  8
100
  6
CONTINUOUS
 10
27.84608533479547
 20
-1.969999439479892
 11
25.84608533479547
 21
-1.969999439479892
  0
LINE
  8
100
  6
CONTINUOUS
 10
41.7376041197746
 20
-3.489999439479892
 11
41.7376041197746
 21
-1.969999439479892
  0
LINE
  8
100
  6
CONTINUOUS
 10
39.7376041197746
 20
-3.489999439479892
 11
39.7376041197746
 21
-1.969999439479892
  0
LINE
  8
100
  6
CONTINUOUS
 10
27.84608533479547
 20
-3.489999439479892
 11
27.84608533479547
 21
-1.969999439479892
  0
LINE
  8
100
  6
CONTINUOUS
 10
25.84608533479547
 20
-3.489999439479892
 11
25.84608533479547
 21
-1.969999439479892
  0
LINE
  8
100
  6
CONTINUOUS
 10
153.2826225380184
 20
-6.249999439479896
 11
153.2826225708307
 21
-5.649999439479887
  0
LINE
  8
100
  6
CONTINUOUS
 10
151.8826194629166
 20
-5.649999439479887
 11
153.2826225708307
 21
-5.649999439479887
  0
LINE
  8
100
  6
CONTINUOUS
 10
151.8826194629166
 20
-6.249999439479896
 11
153.2826225380184
 21
-6.249999439479896
  0
LINE
  8
100
  6
CONTINUOUS
 10
151.8826194629166
 20
-11.3299994394799
 11
153.2826225380184
 21
-11.3299994394799
  0
LINE
  8
100
  6
CONTINUOUS
 10
153.2826225380184
 20
-11.3299994394799
 11
153.2826225708307
 21
-10.72999943947989
  0
LINE
  8
100
  6
CONTINUOUS
 10
151.8826194629166
 20
-10.72999943947989
 11
153.2826225708307
 21
-10.72999943947989
  0
INSERT
  8
20
  6
CONTINUOUS
  2
COMP1
 10
0.0
 20
0.0
 41
1.0
 42
1.0
 50
0.0
  0
INSERT
  8
20
  6
CONTINUOUS
  2
COMP2
 10
0.0
 20
0.0
 41
1.0
 42
1.0
 50
0.0
  0
INSERT
  8
20
  6
CONTINUOUS
  2
COMP3
 10
0.0
 20
0.0
 41
1.0
 42
1.0
 50
0.0
  0
INSERT
  8
20
  6
CONTINUOUS
  2
COMP4
 10
0.0
 20
0.0
 41
1.0
 42
1.0
 50
0.0
  0
INSERT
  8
20
  6
CONTINUOUS
  2
COMP5
 10
0.0
 20
0.0
 41
1.0
 42
1.0
 50
0.0
  0
INSERT
  8
20
  6
CONTINUOUS
  2
COMP6
 10
0.0
 20
0.0
 41
1.0
 42
1.0
 50
0.0
  0
INSERT
  8
20
  6
CONTINUOUS
  2
COMP7
 10
0.0
 20
0.0
 41
1.0
 42
1.0
 50
0.0
  0
INSERT
  8
20
  6
CONTINUOUS
  2
COMP8
 10
0.0
 20
0.0
 41
1.0
 42
1.0
 50
0.0
  0
INSERT
  8
20
  6
CONTINUOUS
  2
COMP9
 10
0.0
 20
0.0
 41
1.0
 42
1.0
 50
0.0
  0
INSERT
  8
20
  6
CONTINUOUS
  2
COMP10
 10
0.0
 20
0.0
 41
1.0
 42
1.0
 50
0.0
  0
INSERT
  8
20
  6
CONTINUOUS
  2
COMP11
 10
0.0
 20
0.0
 41
1.0
 42
1.0
 50
0.0
  0
INSERT
  8
20
  6
CONTINUOUS
  2
COMP12
 10
0.0
 20
0.0
 41
1.0
 42
1.0
 50
0.0
  0
INSERT
  8
20
  6
CONTINUOUS
  2
COMP13
 10
0.0
 20
0.0
 41
1.0
 42
1.0
 50
0.0
  0
INSERT
  8
20
  6
CONTINUOUS
  2
COMP14
 10
0.0
 20
0.0
 41
1.0
 42
1.0
 50
0.0
  0
INSERT
  8
20
  6
CONTINUOUS
  2
COMP15
 10
0.0
 20
0.0
 41
1.0
 42
1.0
 50
0.0
  0
INSERT
  8
20
  6
CONTINUOUS
  2
COMP16
 10
0.0
 20
0.0
 41
1.0
 42
1.0
 50
0.0
  0
INSERT
  8
20
  6
CONTINUOUS
  2
COMP17
 10
0.0
 20
0.0
 41
1.0
 42
1.0
 50
0.0
  0
INSERT
  8
20
  6
CONTINUOUS
  2
COMP18
 10
0.0
 20
0.0
 41
1.0
 42
1.0
 50
0.0
  0
INSERT
  8
20
  6
CONTINUOUS
  2
COMP19
 10
0.0
 20
0.0
 41
1.0
 42
1.0
 50
0.0
  0
INSERT
  8
20
  6
CONTINUOUS
  2
COMP20
 10
0.0
 20
0.0
 41
1.0
 42
1.0
 50
0.0
  0
INSERT
  8
20
  6
CONTINUOUS
  2
COMP21
 10
0.0
 20
0.0
 41
1.0
 42
1.0
 50
0.0
  0
INSERT
  8
20
  6
CONTINUOUS
  2
COMP22
 10
0.0
 20
0.0
 41
1.0
 42
1.0
 50
0.0
  0
INSERT
  8
20
  6
CONTINUOUS
  2
COMP23
 10
0.0
 20
0.0
 41
1.0
 42
1.0
 50
0.0
  0
INSERT
  8
20
  6
CONTINUOUS
  2
COMP24
 10
0.0
 20
0.0
 41
1.0
 42
1.0
 50
0.0
  0
INSERT
  8
20
  6
CONTINUOUS
  2
COMP25
 10
0.0
 20
0.0
 41
1.0
 42
1.0
 50
0.0
  0
INSERT
  8
20
  6
CONTINUOUS
  2
COMP26
 10
0.0
 20
0.0
 41
1.0
 42
1.0
 50
0.0
  0
INSERT
  8
20
  6
CONTINUOUS
  2
COMP27
 10
0.0
 20
0.0
 41
1.0
 42
1.0
 50
0.0
  0
INSERT
  8
20
  6
CONTINUOUS
  2
COMP28
 10
0.0
 20
0.0
 41
1.0
 42
1.0
 50
0.0
  0
INSERT
  8
20
  6
CONTINUOUS
  2
COMP29
 10
0.0
 20
0.0
 41
1.0
 42
1.0
 50
0.0
  0
INSERT
  8
20
  6
CONTINUOUS
  2
COMP30
 10
0.0
 20
0.0
 41
1.0
 42
1.0
 50
0.0
  0
INSERT
  8
20
  6
CONTINUOUS
  2
COMP31
 10
0.0
 20
0.0
 41
1.0
 42
1.0
 50
0.0
  0
INSERT
  8
20
  6
CONTINUOUS
  2
COMP32
 10
0.0
 20
0.0
 41
1.0
 42
1.0
 50
0.0
  0
INSERT
  8
20
  6
CONTINUOUS
  2
COMP33
 10
0.0
 20
0.0
 41
1.0
 42
1.0
 50
0.0
  0
INSERT
  8
20
  6
CONTINUOUS
  2
COMP34
 10
0.0
 20
0.0
 41
1.0
 42
1.0
 50
0.0
  0
INSERT
  8
20
  6
CONTINUOUS
  2
COMP35
 10
0.0
 20
0.0
 41
1.0
 42
1.0
 50
0.0
  0
INSERT
  8
20
  6
CONTINUOUS
  2
COMP36
 10
0.0
 20
0.0
 41
1.0
 42
1.0
 50
0.0
  0
INSERT
  8
20
  6
CONTINUOUS
  2
COMP37
 10
0.0
 20
0.0
 41
1.0
 42
1.0
 50
0.0
  0
INSERT
  8
20
  6
CONTINUOUS
  2
COMP38
 10
0.0
 20
0.0
 41
1.0
 42
1.0
 50
0.0
  0
INSERT
  8
20
  6
CONTINUOUS
  2
COMP39
 10
0.0
 20
0.0
 41
1.0
 42
1.0
 50
0.0
  0
INSERT
  8
20
  6
CONTINUOUS
  2
COMP40
 10
0.0
 20
0.0
 41
1.0
 42
1.0
 50
0.0
  0
INSERT
  8
20
  6
CONTINUOUS
  2
COMP41
 10
0.0
 20
0.0
 41
1.0
 42
1.0
 50
0.0
  0
INSERT
  8
20
  6
CONTINUOUS
  2
COMP42
 10
0.0
 20
0.0
 41
1.0
 42
1.0
 50
0.0
  0
INSERT
  8
20
  6
CONTINUOUS
  2
COMP43
 10
0.0
 20
0.0
 41
1.0
 42
1.0
 50
0.0
  0
INSERT
  8
20
  6
CONTINUOUS
  2
COMP44
 10
0.0
 20
0.0
 41
1.0
 42
1.0
 50
0.0
  0
ENDSEC
  0
EOF
