  0
SECTION
  2
HEADER
  9
$ACADVER
  1
AC1006
  9
$INSBASE
 10
0.0
 20
0.0
 30
0.0
  9
$EXTMIN
 10
60.73605680579999
 20
111.6303801656
  9
$EXTMAX
 10
545.8491282079001
 20
320.6303864837
  9
$LIMMIN
 10
60.73605680579999
 20
111.6303801656
  9
$LIMMAX
 10
545.8491282079001
 20
320.6303864837
  9
$ORTHOMODE
 70
     0
  9
$REGENMODE
 70
     1
  9
$FILLMODE
 70
     1
  9
$QTEXTMODE
 70
     0
  9
$MIRRTEXT
 70
     1
  9
$DRAGMODE
 70
     2
  9
$LTSCALE
 40
1.0
  9
$OSMODE
 70
     0
  9
$ATTMODE
 70
     1
  9
$TEXTSIZE
 40
3.0
  9
$TRACEWID
 40
0.5
  9
$TEXTSTYLE
  7
STANDARD
  9
$CLAYER
  8
0
  9
$CELTYPE
  6
BYLAYER
  9
$CECOLOR
 62
   256
  9
$DIMSCALE
 40
1.0
  9
$DIMASZ
 40
3.0
  9
$DIMEXO
 40
1.0
  9
$DIMDLI
 40
5.0
  9
$DIMRND
 40
0.0
  9
$DIMDLE
 40
5.0
  9
$DIMEXE
 40
2.0
  9
$DIMTP
 40
0.0
  9
$DIMTM
 40
0.0
  9
$DIMTXT
 40
3.0
  9
$DIMCEN
 40
2.0
  9
$DIMTSZ
 40
0.0
  9
$DIMTOL
 70
     0
  9
$DIMLIM
 70
     0
  9
$DIMTIH
 70
     0
  9
$DIMTOH
 70
     0
  9
$DIMSE1
 70
     0
  9
$DIMSE2
 70
     0
  9
$DIMTAD
 70
     1
  9
$DIMZIN
 70
     8
  9
$DIMBLK
  1

  9
$DIMASO
 70
     1
  9
$DIMSHO
 70
     0
  9
$DIMPOST
  1

  9
$DIMAPOST
  1

  9
$DIMALT
 70
     0
  9
$DIMALTD
 70
     4
  9
$DIMALTF
 40
25.4
  9
$DIMLFAC
 40
1.0
  9
$DIMTOFL
 70
     1
  9
$DIMTVP
 40
1.0
  9
$DIMTIX
 70
     0
  9
$DIMSOXD
 70
     0
  9
$DIMSAH
 70
     0
  9
$DIMBLK1
  1

  9
$DIMBLK2
  1

  9
$LUNITS
 70
     2
  9
$LUPREC
 70
     4
  9
$AXISMODE
 70
     0
  9
$AXISUNIT
 10
0.0
 20
0.0
  9
$SKETCHINC
 40
1.0
  9
$FILLETRAD
 40
0.0
  9
$AUNITS
 70
     0
  9
$AUPREC
 70
     0
  9
$MENU
  1
acad
  9
$ELEVATION
 40
0.0
  9
$THICKNESS
 40
0.0
  9
$LIMCHECK
 70
     0
  9
$BLIPMODE
 70
     1
  9
$CHAMFERA
 40
0.0
  9
$CHAMFERB
 40
0.0
  9
$SKPOLY
 70
     0
  9
$TDCREATE
 40
2454099.484918981
  9
$TDUPDATE
 40
2454099.484918981
  9
$TDINDWG
 40
0.0
  9
$TDUSRTIMER
 40
0.0
  9
$USRTIMER
 70
     1
  9
$ANGBASE
 50
0.0
  9
$ANGDIR
 70
     0
  9
$PDMODE
 70
     0
  9
$PDSIZE
 40
0.0
  9
$PLINEWID
 40
0.0
  9
$COORDS
 70
     0
  9
$SPLFRAME
 70
     0
  9
$SPLINETYPE
 70
     6
  9
$SPLINESEGS
 70
     8
  9
$ATTDIA
 70
     0
  9
$ATTREQ
 70
     1
  9
$HANDLING
 70
     0
  9
$HANDSEED
  5
0
  9
$SURFTAB1
 70
     6
  9
$SURFTAB2
 70
     6
  9
$SURFTYPE
 70
     6
  9
$SURFU
 70
     6
  9
$SURFV
 70
     6
  9
$FLATLAND
 70
     0
  9
$UCSNAME
  2

  9
$UCSORG
 10
0.0
 20
0.0
 30
0.0
  9
$UCSXDIR
 10
1.0
 20
0.0
 30
0.0
  9
$UCSYDIR
 10
0.0
 20
1.0
 30
0.0
  9
$USERI1
 70
     0
  9
$USERI2
 70
     0
  9
$USERI3
 70
     0
  9
$USERI4
 70
     0
  9
$USERI5
 70
     0
  9
$USERR1
 40
0.0
  9
$USERR2
 40
0.0
  9
$USERR3
 40
0.0
  9
$USERR4
 40
0.0
  9
$USERR5
 40
0.0
  9
$WORLDVIEW
 70
     1
  0
ENDSEC
  0
SECTION
  2
TABLES
  0
TABLE
  2
VPORT
 70
     1
  0
VPORT
  2
*ACTIVE
 70
     0
 10
0.0
 20
0.0
 11
1.0
 21
1.0
 12
303.29259250685
 22
216.13038332465
 13
0.0
 23
0.0
 14
0.0
 24
0.0
 15
0.0
 25
0.0
 16
0.0
 26
0.0
 36
1.0
 17
0.0
 27
0.0
 37
0.0
 40
485.1130714021001
 41
1.5
 42
50.0
 43
0.0
 44
0.0
 50
0.0
 51
0.0
 71
     0
 72
   100
 73
     1
 74
     1
 75
     0
 76
     0
 77
     0
 78
     0
  0
ENDTAB
  0
TABLE
  2
LTYPE
 70
    20
  0
LTYPE
  2
CONTINUOUS
 70
    64
  3
solid line
 72
    65
 73
     0
 40
0.0
  0
ENDTAB
  0
TABLE
  2
LAYER
 70
    20
  0
LAYER
  2
0
 70
    64
 62
     7
  6
CONTINUOUS
  0
LAYER
  2
1
 70
    64
 62
     7
  6
CONTINUOUS
  0
LAYER
  2
4
 70
    64
 62
     7
  6
CONTINUOUS
  0
LAYER
  2
100
 70
    64
 62
     7
  6
CONTINUOUS
  0
ENDTAB
  0
TABLE
  2
STYLE
 70
     4
  0
ENDTAB
  0
TABLE
  2
VIEW
 70
     0
  0
ENDTAB
  0
TABLE
  2
UCS
 70
     0
  0
ENDTAB
  0
TABLE
  2
DWGMGR
 70
     0
  0
ENDTAB
  0
ENDSEC
  0
SECTION
  2
BLOCKS
  0
BLOCK
  8
100
  2
NMB-WAKU_0001
 70
    64
 10
0.0
 20
0.0
  0
POLYLINE
  8
100
  6
CONTINUOUS
 66
     1
 70
     0
 40
0.0
 41
0.0
  0
VERTEX
  8
100
 10
8.640034506372686
 20
2.633903875448596E-006
  0
VERTEX
  8
100
 10
10.07997591262269
 20
2.633903875448596E-006
  0
VERTEX
  8
100
 10
10.07997591262269
 20
0.4799831026538755
  0
VERTEX
  8
100
 10
9.780049154810186
 20
0.4799831026538755
  0
VERTEX
  8
100
 10
9.780049154810186
 20
2.51999164757575
  0
VERTEX
  8
100
 10
10.07997591262269
 20
2.51999164757575
  0
VERTEX
  8
100
 10
10.07997591262269
 20
3.000002633903875
  0
VERTEX
  8
100
 10
8.655598471216436
 20
3.000002633903875
  0
VERTEX
  8
100
 10
7.560078451685186
 20
0.9996669405445005
  0
VERTEX
  8
100
 10
6.464375326685186
 20
3.000002633903875
  0
VERTEX
  8
100
 10
5.039997885278936
 20
3.000002633903875
  0
VERTEX
  8
100
 10
5.039997885278936
 20
2.51999164757575
  0
VERTEX
  8
100
 10
5.340016195825811
 20
2.51999164757575
  0
VERTEX
  8
100
 10
5.340016195825811
 20
0.4799831026538755
  0
VERTEX
  8
100
 10
5.039997885278936
 20
0.4799831026538755
  0
VERTEX
  8
100
 10
5.039997885278936
 20
2.633903875448596E-006
  0
VERTEX
  8
100
 10
6.480030844263311
 20
2.633903875448596E-006
  0
VERTEX
  8
100
 10
6.480030844263311
 20
0.4799831026538755
  0
VERTEX
  8
100
 10
6.180012533716436
 20
0.4799831026538755
  0
VERTEX
  8
100
 10
6.180012533716436
 20
2.520037423942938
  0
VERTEX
  8
100
 10
7.560078451685186
 20
0.0004603975757504486
  0
VERTEX
  8
100
 10
8.939961264185186
 20
2.520037423942938
  0
VERTEX
  8
100
 10
8.939961264185186
 20
0.4799831026538755
  0
VERTEX
  8
100
 10
8.640034506372686
 20
0.4799831026538755
  0
VERTEX
  8
100
 10
8.640034506372686
 20
2.633903875448596E-006
  0
SEQEND
  8
100
  0
POLYLINE
  8
100
  6
CONTINUOUS
 66
     1
 70
     0
 40
0.0
 41
0.0
  0
VERTEX
  8
100
 10
13.64998323684144
 20
0.4799831026538755
  0
VERTEX
  8
100
 10
11.46004183059144
 20
0.4799831026538755
  0
VERTEX
  8
100
 10
11.46004183059144
 20
1.259997140739813
  0
SEQEND
  8
100
  0
POLYLINE
  8
100
  6
CONTINUOUS
 66
     1
 70
     0
 40
0.0
 41
0.0
  0
VERTEX
  8
100
 10
11.46004183059144
 20
1.740008127067938
  0
VERTEX
  8
100
 10
13.65025789504456
 20
1.740008127067938
 42
0.4141791695265545
  0
VERTEX
  8
100
 10
14.03996739726409
 20
2.130221121871216
 42
0.4142249896164592
  0
VERTEX
  8
100
 10
13.6498001241973
 20
2.520006930539097
  0
VERTEX
  8
100
 10
11.46004183059144
 20
2.51999164757575
  0
VERTEX
  8
100
 10
11.46004183059144
 20
1.740008127067938
  0
SEQEND
  8
100
  0
POLYLINE
  8
100
  6
CONTINUOUS
 66
     1
 70
     0
 40
0.0
 41
0.0
  0
VERTEX
  8
100
 10
11.46004183059144
 20
0.4799831026538755
  0
VERTEX
  8
100
 10
13.64998323684144
 20
0.4799831026538755
 42
0.4143166975447304
  0
VERTEX
  8
100
 10
14.03999786110128
 20
0.8701350801844114
 42
0.4142479816141268
  0
VERTEX
  8
100
 10
13.64980012421749
 20
1.260012380720667
  0
VERTEX
  8
100
 10
11.46004183059144
 20
1.259997140739813
  0
VERTEX
  8
100
 10
11.46004183059144
 20
0.4799831026538755
  0
SEQEND
  8
100
  0
POLYLINE
  8
100
  6
CONTINUOUS
 66
     1
 70
     0
 40
0.0
 41
0.0
  0
VERTEX
  8
100
 10
8.939961264185186
 20
0.4799831026538755
  0
VERTEX
  8
100
 10
8.939961264185186
 20
2.520037423942938
  0
VERTEX
  8
100
 10
7.560078451685186
 20
0.0004603975757504486
  0
VERTEX
  8
100
 10
6.180012533716436
 20
2.520037423942938
  0
VERTEX
  8
100
 10
6.180012533716436
 20
0.4799831026538755
  0
VERTEX
  8
100
 10
6.480030844263311
 20
0.4799831026538755
  0
VERTEX
  8
100
 10
6.480030844263311
 20
2.633903875448596E-006
  0
VERTEX
  8
100
 10
5.039997885278936
 20
2.633903875448596E-006
  0
VERTEX
  8
100
 10
5.039997885278936
 20
0.4799831026538755
  0
VERTEX
  8
100
 10
5.340016195825811
 20
0.4799831026538755
  0
VERTEX
  8
100
 10
5.340016195825811
 20
2.51999164757575
  0
VERTEX
  8
100
 10
5.039997885278936
 20
2.51999164757575
  0
VERTEX
  8
100
 10
5.039997885278936
 20
3.000002633903875
  0
VERTEX
  8
100
 10
6.464375326685186
 20
3.000002633903875
  0
VERTEX
  8
100
 10
7.560078451685186
 20
0.9996669405445005
  0
VERTEX
  8
100
 10
8.655598471216436
 20
3.000002633903875
  0
VERTEX
  8
100
 10
10.07997591262269
 20
3.000002633903875
  0
VERTEX
  8
100
 10
10.07997591262269
 20
2.51999164757575
  0
VERTEX
  8
100
 10
9.780049154810186
 20
2.51999164757575
  0
VERTEX
  8
100
 10
9.780049154810186
 20
0.4799831026538755
  0
VERTEX
  8
100
 10
10.07997591262269
 20
0.4799831026538755
  0
VERTEX
  8
100
 10
10.07997591262269
 20
2.633903875448596E-006
  0
VERTEX
  8
100
 10
8.640034506372686
 20
2.633903875448596E-006
  0
VERTEX
  8
100
 10
8.640034506372686
 20
0.4799831026538755
  0
VERTEX
  8
100
 10
8.939961264185186
 20
0.4799831026538755
  0
SEQEND
  8
100
  0
POLYLINE
  8
100
  6
CONTINUOUS
 66
     1
 70
     0
 40
0.0
 41
0.0
  0
VERTEX
  8
100
 10
11.46004183059144
 20
2.51999164757575
  0
VERTEX
  8
100
 10
11.46004183059144
 20
1.740008127067938
  0
VERTEX
  8
100
 10
13.65025789504456
 20
1.740008127067938
  0
VERTEX
  8
100
 10
11.46004183059144
 20
1.740008127067938
  0
VERTEX
  8
100
 10
11.46004183059144
 20
2.51999164757575
  0
SEQEND
  8
100
  0
POLYLINE
  8
100
  6
CONTINUOUS
 66
     1
 70
     0
 40
0.0
 41
0.0
  0
VERTEX
  8
100
 10
13.64998323684144
 20
1.740008127067938
  0
VERTEX
  8
100
 10
11.46004183059144
 20
1.740008127067938
  0
VERTEX
  8
100
 10
11.46004183059144
 20
2.51999164757575
  0
VERTEX
  8
100
 10
13.64998323684144
 20
2.51999164757575
  0
VERTEX
  8
100
 10
11.46004183059144
 20
2.51999164757575
  0
VERTEX
  8
100
 10
11.46004183059144
 20
1.740008127067938
  0
VERTEX
  8
100
 10
13.64998323684144
 20
1.740008127067938
  0
SEQEND
  8
100
  0
POLYLINE
  8
100
  6
CONTINUOUS
 66
     1
 70
     0
 40
0.0
 41
0.0
  0
VERTEX
  8
100
 10
11.46004183059144
 20
1.259997140739813
  0
VERTEX
  8
100
 10
13.64980013137269
 20
1.259997140739813
  0
VERTEX
  8
100
 10
11.46004183059144
 20
1.259997140739813
  0
SEQEND
  8
100
  0
LINE
  8
100
  6
CONTINUOUS
 10
3.360005209497686
 20
2.633903875448596E-006
 11
3.360005209497686
 21
0.4799831026538755
  0
LINE
  8
100
  6
CONTINUOUS
 10
4.800009833060059
 20
2.999999540684996
 11
3.359976874075684
 21
2.999999540684996
  0
LINE
  8
100
  6
CONTINUOUS
 10
3.359976874075684
 20
2.999999540684996
 11
3.359976874075684
 21
2.519988554356871
  0
LINE
  8
100
  6
CONTINUOUS
 10
3.359976874075684
 20
2.519988554356871
 11
3.659995184622559
 21
2.519988554356871
  0
LINE
  8
100
  6
CONTINUOUS
 10
3.659995184622559
 20
2.519988554356871
 11
3.659995184622559
 21
1.09810592496234
  0
LINE
  8
100
  6
CONTINUOUS
 10
3.659995184622559
 20
1.09810592496234
 11
1.310477362356934
 21
2.999999540684996
  0
LINE
  8
100
  6
CONTINUOUS
 10
1.310477362356934
 20
2.999999540684996
 11
-8.477486815650082E-006
 21
2.999999540684996
  0
LINE
  8
100
  6
CONTINUOUS
 10
-8.477486815650082E-006
 20
2.999999540684996
 11
-8.477486815650082E-006
 21
2.519988554356871
  0
LINE
  8
100
  6
CONTINUOUS
 10
-8.477486815650082E-006
 20
2.519988554356871
 11
0.3000098330600594
 21
2.519988554356871
  0
LINE
  8
100
  6
CONTINUOUS
 10
0.3000098330600594
 20
2.519988554356871
 11
0.3000098330600594
 21
0.4799876388295274
  0
LINE
  8
100
  6
CONTINUOUS
 10
0.3000098330600594
 20
0.4799876388295274
 11
-8.477486815650082E-006
 21
0.4799876388295274
  0
LINE
  8
100
  6
CONTINUOUS
 10
-8.477486815650082E-006
 20
0.4799876388295274
 11
-8.477486815650082E-006
 21
-4.593150038090244E-007
  0
LINE
  8
100
  6
CONTINUOUS
 10
-8.477486815650082E-006
 20
-4.593150038090244E-007
 11
1.439932928763184
 21
-4.593150038090244E-007
  0
LINE
  8
100
  6
CONTINUOUS
 10
1.439932928763184
 20
-4.593150038090244E-007
 11
1.439932928763184
 21
0.4799876388295274
  0
LINE
  8
100
  6
CONTINUOUS
 10
1.439932928763184
 20
0.4799876388295274
 11
1.140006170950684
 21
0.4799876388295274
  0
LINE
  8
100
  6
CONTINUOUS
 10
1.140006170950684
 20
0.4799876388295274
 11
1.140006170950684
 21
2.520492094395934
  0
LINE
  8
100
  6
CONTINUOUS
 10
1.140006170950684
 20
2.520492094395934
 11
3.660636053763184
 21
0.4799876388295274
  0
LINE
  8
100
  6
CONTINUOUS
 10
3.660636053763184
 20
0.4799876388295274
 11
3.359999084472662
 21
0.4799892425536996
  0
LINE
  8
100
  6
CONTINUOUS
 10
3.359999084472662
 20
0.4799892425536996
 11
3.359999084472662
 21
-4.593150038090244E-007
  0
LINE
  8
100
  6
CONTINUOUS
 10
3.359999084472662
 20
-4.593150038090244E-007
 11
4.800009833060059
 21
-4.593150038090244E-007
  0
LINE
  8
100
  6
CONTINUOUS
 10
4.800009833060059
 20
-4.593150038090244E-007
 11
4.800009833060059
 21
0.4799876388295274
  0
LINE
  8
100
  6
CONTINUOUS
 10
4.800009833060059
 20
0.4799876388295274
 11
4.499991522513184
 21
0.4799876388295274
  0
LINE
  8
100
  6
CONTINUOUS
 10
4.499991522513184
 20
0.4799876388295274
 11
4.499991522513184
 21
2.519988554356871
  0
LINE
  8
100
  6
CONTINUOUS
 10
4.499991522513184
 20
2.519988554356871
 11
4.800009833060059
 21
2.519988554356871
  0
LINE
  8
100
  6
CONTINUOUS
 10
4.800009833060059
 20
2.519988554356871
 11
4.800009833060059
 21
2.999999540684996
  0
POLYLINE
  8
100
  6
CONTINUOUS
 66
     1
 70
     0
 40
0.0
 41
0.0
  0
VERTEX
  8
100
 10
10.61995393996644
 20
1.499987375114813
  0
VERTEX
  8
100
 10
10.61995393996644
 20
2.51999164757575
  0
VERTEX
  8
100
 10
10.32002718215394
 20
2.51999164757575
  0
VERTEX
  8
100
 10
10.32002718215394
 20
3.000002633903875
  0
VERTEX
  8
100
 10
14.00996858840394
 20
3.000002633903875
 42
-0.6771367208062954
  0
VERTEX
  8
100
 10
14.61000520949769
 20
1.500002633903875
  0
SEQEND
  8
100
  0
POLYLINE
  8
100
  6
CONTINUOUS
 66
     1
 70
     0
 40
0.0
 41
0.0
  0
VERTEX
  8
100
 10
10.61995393996644
 20
1.499987375114813
  0
VERTEX
  8
100
 10
10.61995393996644
 20
0.4799831026538755
  0
VERTEX
  8
100
 10
10.32002718215394
 20
0.4799831026538755
  0
VERTEX
  8
100
 10
10.32002718215394
 20
-2.788367424955141E-005
  0
VERTEX
  8
100
 10
14.00996858840394
 20
-2.788367424955141E-005
 42
0.6771367208062954
  0
VERTEX
  8
100
 10
14.61000520949769
 20
1.49997211632575
  0
SEQEND
  8
100
  0
ENDBLK
  8
100
  0
BLOCK
  8
4
  2
COMP1
 70
    64
 10
0.0
 20
0.0
  0
POLYLINE
  8
4
  6
CONTINUOUS
 66
     1
 70
     0
 40
0.0
 41
0.0
  0
VERTEX
  8
4
 10
512.6207275390625
 20
274.8283386230469
  0
VERTEX
  8
4
 10
512.6207275390625
 20
276.6283264160156
  0
VERTEX
  8
4
 10
513.0707397460938
 20
275.4470825195313
  0
VERTEX
  8
4
 10
513.520751953125
 20
276.6283264160156
  0
VERTEX
  8
4
 10
513.520751953125
 20
274.8283386230469
  0
SEQEND
  8
4
  0
POLYLINE
  8
4
  6
CONTINUOUS
 66
     1
 70
     0
 40
0.0
 41
0.0
  0
VERTEX
  8
4
 10
513.942626953125
 20
274.8283386230469
  0
VERTEX
  8
4
 10
514.392578125
 20
276.6283264160156
  0
VERTEX
  8
4
 10
514.8425903320313
 20
274.8283386230469
  0
SEQEND
  8
4
  0
POLYLINE
  8
4
  6
CONTINUOUS
 66
     1
 70
     0
 40
0.0
 41
0.0
  0
VERTEX
  8
4
 10
514.7019653320313
 20
275.3908386230469
  0
VERTEX
  8
4
 10
514.083251953125
 20
275.3908386230469
  0
SEQEND
  8
4
  0
POLYLINE
  8
4
  6
CONTINUOUS
 66
     1
 70
     0
 40
0.0
 41
0.0
  0
VERTEX
  8
4
 10
515.2644653320313
 20
274.8283386230469
  0
VERTEX
  8
4
 10
515.7426147460938
 20
274.8283386230469
 42
0.466724537037037
  0
VERTEX
  8
4
 10
516.1644897460938
 20
275.2502136230469
  0
VERTEX
  8
4
 10
516.1644897460938
 20
276.2064514160156
 42
0.466724537037037
  0
VERTEX
  8
4
 10
515.7426147460938
 20
276.6283264160156
  0
VERTEX
  8
4
 10
515.2644653320313
 20
276.6283264160156
  0
VERTEX
  8
4
 10
515.2644653320313
 20
274.8283386230469
  0
SEQEND
  8
4
  0
POLYLINE
  8
4
  6
CONTINUOUS
 66
     1
 70
     0
 40
0.0
 41
0.0
  0
VERTEX
  8
4
 10
517.486328125
 20
276.6283264160156
  0
VERTEX
  8
4
 10
516.5863647460938
 20
276.6283264160156
  0
VERTEX
  8
4
 10
516.5863647460938
 20
274.8283386230469
  0
VERTEX
  8
4
 10
517.486328125
 20
274.8283386230469
  0
SEQEND
  8
4
  0
POLYLINE
  8
4
  6
CONTINUOUS
 66
     1
 70
     0
 40
0.0
 41
0.0
  0
VERTEX
  8
4
 10
516.5863647460938
 20
275.7283325195313
  0
VERTEX
  8
4
 10
517.486328125
 20
275.7283325195313
  0
SEQEND
  8
4
  0
POLYLINE
  8
4
  6
CONTINUOUS
 66
     1
 70
     0
 40
0.0
 41
0.0
  0
VERTEX
  8
4
 10
519.5113525390625
 20
276.6283264160156
  0
VERTEX
  8
4
 10
519.848876953125
 20
276.6283264160156
  0
SEQEND
  8
4
  0
POLYLINE
  8
4
  6
CONTINUOUS
 66
     1
 70
     0
 40
0.0
 41
0.0
  0
VERTEX
  8
4
 10
519.5113525390625
 20
274.8283386230469
  0
VERTEX
  8
4
 10
519.848876953125
 20
274.8283386230469
  0
SEQEND
  8
4
  0
POLYLINE
  8
4
  6
CONTINUOUS
 66
     1
 70
     0
 40
0.0
 41
0.0
  0
VERTEX
  8
4
 10
519.6801147460938
 20
274.8283386230469
  0
VERTEX
  8
4
 10
519.6801147460938
 20
276.6283264160156
  0
SEQEND
  8
4
  0
POLYLINE
  8
4
  6
CONTINUOUS
 66
     1
 70
     0
 40
0.0
 41
0.0
  0
VERTEX
  8
4
 10
520.552001953125
 20
274.8283386230469
  0
VERTEX
  8
4
 10
520.552001953125
 20
276.6283264160156
  0
VERTEX
  8
4
 10
521.4519653320313
 20
274.8283386230469
  0
VERTEX
  8
4
 10
521.4519653320313
 20
276.6283264160156
  0
SEQEND
  8
4
  0
POLYLINE
  8
4
  6
CONTINUOUS
 66
     1
 70
     0
 40
0.0
 41
0.0
  0
VERTEX
  8
4
 10
523.1957397460938
 20
275.1658325195313
 42
0.7500678241996744
  0
VERTEX
  8
4
 10
524.095703125
 20
275.1658325195313
  0
VERTEX
  8
4
 10
524.095703125
 20
276.6283264160156
  0
VERTEX
  8
4
 10
523.7582397460938
 20
276.6283264160156
  0
SEQEND
  8
4
  0
POLYLINE
  8
4
  6
CONTINUOUS
 66
     1
 70
     0
 40
0.0
 41
0.0
  0
VERTEX
  8
4
 10
524.517578125
 20
274.8283386230469
  0
VERTEX
  8
4
 10
524.9675903320313
 20
276.6283264160156
  0
VERTEX
  8
4
 10
525.4176025390625
 20
274.8283386230469
  0
SEQEND
  8
4
  0
POLYLINE
  8
4
  6
CONTINUOUS
 66
     1
 70
     0
 40
0.0
 41
0.0
  0
VERTEX
  8
4
 10
525.2769775390625
 20
275.3908386230469
  0
VERTEX
  8
4
 10
524.658203125
 20
275.3908386230469
  0
SEQEND
  8
4
  0
POLYLINE
  8
4
  6
CONTINUOUS
 66
     1
 70
     0
 40
0.0
 41
0.0
  0
VERTEX
  8
4
 10
525.8394775390625
 20
275.7283325195313
  0
VERTEX
  8
4
 10
526.2894897460938
 20
275.7283325195313
 42
0.4142135623729534
  0
VERTEX
  8
4
 10
526.739501953125
 20
276.1783447265625
 42
0.414213562373058
  0
VERTEX
  8
4
 10
526.2894897460938
 20
276.6283569335938
  0
VERTEX
  8
4
 10
525.8394775390625
 20
276.6283264160156
  0
VERTEX
  8
4
 10
525.8394775390625
 20
274.8283386230469
  0
SEQEND
  8
4
  0
POLYLINE
  8
4
  6
CONTINUOUS
 66
     1
 70
     0
 40
0.0
 41
0.0
  0
VERTEX
  8
4
 10
527.161376953125
 20
274.8283386230469
  0
VERTEX
  8
4
 10
527.611328125
 20
276.6283264160156
  0
VERTEX
  8
4
 10
528.0613403320313
 20
274.8283386230469
  0
SEQEND
  8
4
  0
POLYLINE
  8
4
  6
CONTINUOUS
 66
     1
 70
     0
 40
0.0
 41
0.0
  0
VERTEX
  8
4
 10
527.9207153320313
 20
275.3908386230469
  0
VERTEX
  8
4
 10
527.302001953125
 20
275.3908386230469
  0
SEQEND
  8
4
  0
POLYLINE
  8
4
  6
CONTINUOUS
 66
     1
 70
     0
 40
0.0
 41
0.0
  0
VERTEX
  8
4
 10
528.4832153320313
 20
274.8283386230469
  0
VERTEX
  8
4
 10
528.4832153320313
 20
276.6283264160156
  0
VERTEX
  8
4
 10
529.3832397460938
 20
274.8283386230469
  0
VERTEX
  8
4
 10
529.3832397460938
 20
276.6283264160156
  0
SEQEND
  8
4
  0
ENDBLK
  8
4
  0
BLOCK
  8
4
  2
COMP2
 70
    64
 10
0.0
 20
0.0
  0
POLYLINE
  8
4
  6
CONTINUOUS
 66
     1
 70
     0
 40
0.0
 41
0.0
  0
VERTEX
  8
4
 10
504.8528137207031
 20
278.3265075683594
  0
VERTEX
  8
4
 10
504.8528137207031
 20
280.0140075683594
  0
VERTEX
  8
4
 10
505.4434204101563
 20
279.0858764648438
  0
VERTEX
  8
4
 10
506.0340576171875
 20
280.0140075683594
  0
VERTEX
  8
4
 10
506.0340576171875
 20
278.3265075683594
  0
SEQEND
  8
4
  0
POLYLINE
  8
4
  6
CONTINUOUS
 66
     1
 70
     0
 40
0.0
 41
0.0
  0
VERTEX
  8
4
 10
507.6653137207031
 20
280.0140075683594
  0
VERTEX
  8
4
 10
507.6653137207031
 20
278.3265075683594
  0
SEQEND
  8
4
  0
POLYLINE
  8
4
  6
CONTINUOUS
 66
     1
 70
     0
 40
0.0
 41
0.0
  0
VERTEX
  8
4
 10
507.4965515136719
 20
278.3265075683594
  0
VERTEX
  8
4
 10
507.8340454101563
 20
278.3265075683594
  0
SEQEND
  8
4
  0
POLYLINE
  8
4
  6
CONTINUOUS
 66
     1
 70
     0
 40
0.0
 41
0.0
  0
VERTEX
  8
4
 10
507.4965515136719
 20
280.0140075683594
  0
VERTEX
  8
4
 10
507.8340454101563
 20
280.0140075683594
  0
SEQEND
  8
4
  0
POLYLINE
  8
4
  6
CONTINUOUS
 66
     1
 70
     0
 40
0.0
 41
0.0
  0
VERTEX
  8
4
 10
509.3809204101563
 20
278.3265075683594
  0
VERTEX
  8
4
 10
509.3809204101563
 20
280.0140075683594
  0
VERTEX
  8
4
 10
510.3934326171875
 20
278.3265075683594
  0
VERTEX
  8
4
 10
510.3934326171875
 20
280.0140075683594
  0
SEQEND
  8
4
  0
POLYLINE
  8
4
  6
CONTINUOUS
 66
     1
 70
     0
 40
0.0
 41
0.0
  0
VERTEX
  8
4
 10
512.6996459960938
 20
278.3265075683594
  0
VERTEX
  8
4
 10
511.5184326171875
 20
278.3265075683594
  0
VERTEX
  8
4
 10
511.5184326171875
 20
280.0140075683594
  0
VERTEX
  8
4
 10
512.6996459960938
 20
280.0140075683594
  0
SEQEND
  8
4
  0
POLYLINE
  8
4
  6
CONTINUOUS
 66
     1
 70
     0
 40
0.0
 41
0.0
  0
VERTEX
  8
4
 10
511.5184326171875
 20
279.254638671875
  0
VERTEX
  8
4
 10
512.3621826171875
 20
279.254638671875
  0
SEQEND
  8
4
  0
POLYLINE
  8
4
  6
CONTINUOUS
 66
     1
 70
     0
 40
0.0
 41
0.0
  0
VERTEX
  8
4
 10
514.3309326171875
 20
278.3265075683594
  0
VERTEX
  8
4
 10
513.8246459960938
 20
278.3265075683594
  0
VERTEX
  8
4
 10
513.8246459960938
 20
280.0140075683594
  0
VERTEX
  8
4
 10
514.3309326171875
 20
280.0140075683594
  0
SEQEND
  8
4
  0
POLYLINE
  8
4
  6
CONTINUOUS
 66
     1
 70
     0
 40
0.0
 41
0.0
  0
VERTEX
  8
4
 10
514.3309326171875
 20
279.254638671875
  0
VERTEX
  8
4
 10
513.8246459960938
 20
279.254638671875
  0
SEQEND
  8
4
  0
POLYLINE
  8
4
  6
CONTINUOUS
 66
     1
 70
     0
 40
0.0
 41
0.0
  0
VERTEX
  8
4
 10
514.837158203125
 20
278.8046264648438
 42
-0.4495580487659801
  0
VERTEX
  8
4
 10
514.3309326171875
 20
278.3265075683594
  0
SEQEND
  8
4
  0
POLYLINE
  8
4
  6
CONTINUOUS
 66
     1
 70
     0
 40
0.0
 41
0.0
  0
VERTEX
  8
4
 10
514.3309326171875
 20
279.254638671875
 42
0.3959313327013168
  0
VERTEX
  8
4
 10
514.7528076171875
 20
279.6483764648438
  0
SEQEND
  8
4
  0
POLYLINE
  8
4
  6
CONTINUOUS
 66
     1
 70
     0
 40
0.0
 41
0.0
  0
VERTEX
  8
4
 10
514.3309326171875
 20
279.254638671875
 42
-0.4150175780647488
  0
VERTEX
  8
4
 10
514.837158203125
 20
278.8046264648438
  0
SEQEND
  8
4
  0
POLYLINE
  8
4
  6
CONTINUOUS
 66
     1
 70
     0
 40
0.0
 41
0.0
  0
VERTEX
  8
4
 10
514.3309326171875
 20
280.0140075683594
 42
-0.4217165641227754
  0
VERTEX
  8
4
 10
514.7528076171875
 20
279.6483764648438
  0
SEQEND
  8
4
  0
POLYLINE
  8
4
  6
CONTINUOUS
 66
     1
 70
     0
 40
0.0
 41
0.0
  0
VERTEX
  8
4
 10
517.1434326171875
 20
278.3265075683594
  0
VERTEX
  8
4
 10
515.962158203125
 20
278.3265075683594
  0
VERTEX
  8
4
 10
515.962158203125
 20
280.0140075683594
  0
VERTEX
  8
4
 10
517.1434326171875
 20
280.0140075683594
  0
SEQEND
  8
4
  0
POLYLINE
  8
4
  6
CONTINUOUS
 66
     1
 70
     0
 40
0.0
 41
0.0
  0
VERTEX
  8
4
 10
515.962158203125
 20
279.254638671875
  0
VERTEX
  8
4
 10
516.805908203125
 20
279.254638671875
  0
SEQEND
  8
4
  0
POLYLINE
  8
4
  6
CONTINUOUS
 66
     1
 70
     0
 40
0.0
 41
0.0
  0
VERTEX
  8
4
 10
518.1840209960938
 20
278.3265075683594
  0
VERTEX
  8
4
 10
518.774658203125
 20
280.0140075683594
  0
VERTEX
  8
4
 10
519.3652954101563
 20
278.3265075683594
  0
SEQEND
  8
4
  0
POLYLINE
  8
4
  6
CONTINUOUS
 66
     1
 70
     0
 40
0.0
 41
0.0
  0
VERTEX
  8
4
 10
518.3809204101563
 20
278.8890075683594
  0
VERTEX
  8
4
 10
519.1683959960938
 20
278.8890075683594
  0
SEQEND
  8
4
  0
POLYLINE
  8
4
  6
CONTINUOUS
 66
     1
 70
     0
 40
0.0
 41
0.0
  0
VERTEX
  8
4
 10
522.7684326171875
 20
279.7046508789063
 42
0.3088747999862453
  0
VERTEX
  8
4
 10
522.3184204101563
 20
280.0140075683594
 42
0.2701787865308896
  0
VERTEX
  8
4
 10
521.868408203125
 20
279.7046508789063
 42
0.1142195084009147
  0
VERTEX
  8
4
 10
521.727783203125
 20
279.1702575683594
 42
0.1331874277671055
  0
VERTEX
  8
4
 10
521.868408203125
 20
278.6358947753906
 42
0.2701550949101523
  0
VERTEX
  8
4
 10
522.3184204101563
 20
278.3265075683594
  0
SEQEND
  8
4
  0
POLYLINE
  8
4
  6
CONTINUOUS
 66
     1
 70
     0
 40
0.0
 41
0.0
  0
VERTEX
  8
4
 10
522.3465576171875
 20
278.3265075683594
 42
0.3418260274176717
  0
VERTEX
  8
4
 10
522.8246459960938
 20
278.7483825683594
  0
SEQEND
  8
4
  0
POLYLINE
  8
4
  6
CONTINUOUS
 66
     1
 70
     0
 40
0.0
 41
0.0
  0
VERTEX
  8
4
 10
523.977783203125
 20
278.7765197753906
 42
-0.07146178886994264
  0
VERTEX
  8
4
 10
523.977783203125
 20
279.5640258789063
 42
-0.1394383125160368
  0
VERTEX
  8
4
 10
524.0902709960938
 20
279.8733825683594
 42
-0.1559692883462318
  0
VERTEX
  8
4
 10
524.259033203125
 20
279.9859008789063
  0
SEQEND
  8
4
  0
POLYLINE
  8
4
  6
CONTINUOUS
 66
     1
 70
     0
 40
0.0
 41
0.0
  0
VERTEX
  8
4
 10
524.9902954101563
 20
279.8733825683594
 42
0.1565013625246181
  0
VERTEX
  8
4
 10
524.821533203125
 20
279.9859008789063
  0
SEQEND
  8
4
  0
POLYLINE
  8
4
  6
CONTINUOUS
 66
     1
 70
     0
 40
0.0
 41
0.0
  0
VERTEX
  8
4
 10
525.102783203125
 20
279.5640258789063
 42
0.1394383125160368
  0
VERTEX
  8
4
 10
524.9902954101563
 20
279.8733825683594
  0
SEQEND
  8
4
  0
POLYLINE
  8
4
  6
CONTINUOUS
 66
     1
 70
     0
 40
0.0
 41
0.0
  0
VERTEX
  8
4
 10
525.102783203125
 20
278.7765197753906
 42
0.07146178886994264
  0
VERTEX
  8
4
 10
525.102783203125
 20
279.5640258789063
  0
SEQEND
  8
4
  0
POLYLINE
  8
4
  6
CONTINUOUS
 66
     1
 70
     0
 40
0.0
 41
0.0
  0
VERTEX
  8
4
 10
524.259033203125
 20
279.9859008789063
 42
-0.09993489583333333
  0
VERTEX
  8
4
 10
524.821533203125
 20
279.9859008789063
  0
SEQEND
  8
4
  0
POLYLINE
  8
4
  6
CONTINUOUS
 66
     1
 70
     0
 40
0.0
 41
0.0
  0
VERTEX
  8
4
 10
523.977783203125
 20
278.7765197753906
 42
0.1391397522386557
  0
VERTEX
  8
4
 10
524.0902709960938
 20
278.4671325683594
 42
0.1561175380254443
  0
VERTEX
  8
4
 10
524.259033203125
 20
278.3546447753906
 42
0.1000434027777778
  0
VERTEX
  8
4
 10
524.821533203125
 20
278.3546447753906
  0
SEQEND
  8
4
  0
POLYLINE
  8
4
  6
CONTINUOUS
 66
     1
 70
     0
 40
0.0
 41
0.0
  0
VERTEX
  8
4
 10
524.9902954101563
 20
278.4671325683594
 42
-0.1563731039351339
  0
VERTEX
  8
4
 10
524.821533203125
 20
278.3546447753906
  0
SEQEND
  8
4
  0
POLYLINE
  8
4
  6
CONTINUOUS
 66
     1
 70
     0
 40
0.0
 41
0.0
  0
VERTEX
  8
4
 10
525.102783203125
 20
278.7765197753906
 42
-0.1391397522386557
  0
VERTEX
  8
4
 10
524.9902954101563
 20
278.4671325683594
  0
SEQEND
  8
4
  0
POLYLINE
  8
4
  6
CONTINUOUS
 66
     1
 70
     0
 40
0.0
 41
0.0
  0
VERTEX
  8
4
 10
526.1996459960938
 20
278.3265075683594
  0
VERTEX
  8
4
 10
526.1996459960938
 20
278.4952697753906
  0
VERTEX
  8
4
 10
526.3965454101563
 20
278.4952697753906
  0
VERTEX
  8
4
 10
526.3965454101563
 20
278.3265075683594
  0
VERTEX
  8
4
 10
526.1996459960938
 20
278.3265075683594
  0
SEQEND
  8
4
  0
POLYLINE
  8
4
  6
CONTINUOUS
 66
     1
 70
     0
 40
0.0
 41
0.0
  0
VERTEX
  8
4
 10
527.7465209960938
 20
278.270263671875
  0
VERTEX
  8
4
 10
527.5215454101563
 20
278.270263671875
  0
VERTEX
  8
4
 10
527.5215454101563
 20
278.4952697753906
  0
VERTEX
  8
4
 10
527.7465209960938
 20
278.4952697753906
  0
VERTEX
  8
4
 10
527.7465209960938
 20
278.0452575683594
  0
VERTEX
  8
4
 10
527.5778198242188
 20
277.8765258789063
  0
SEQEND
  8
4
  0
POLYLINE
  8
4
  6
CONTINUOUS
 66
     1
 70
     0
 40
0.0
 41
0.0
  0
VERTEX
  8
4
 10
528.899658203125
 20
280.0140075683594
  0
VERTEX
  8
4
 10
528.899658203125
 20
278.3265075683594
  0
VERTEX
  8
4
 10
529.9965209960938
 20
278.3265075683594
  0
SEQEND
  8
4
  0
POLYLINE
  8
4
  6
CONTINUOUS
 66
     1
 70
     0
 40
0.0
 41
0.0
  0
VERTEX
  8
4
 10
531.6278076171875
 20
280.0140075683594
  0
VERTEX
  8
4
 10
531.6278076171875
 20
278.3265075683594
  0
SEQEND
  8
4
  0
POLYLINE
  8
4
  6
CONTINUOUS
 66
     1
 70
     0
 40
0.0
 41
0.0
  0
VERTEX
  8
4
 10
531.0371704101563
 20
280.0140075683594
  0
VERTEX
  8
4
 10
532.2184448242188
 20
280.0140075683594
  0
SEQEND
  8
4
  0
POLYLINE
  8
4
  6
CONTINUOUS
 66
     1
 70
     0
 40
0.0
 41
0.0
  0
VERTEX
  8
4
 10
533.8496704101563
 20
280.0140075683594
 42
-0.3318610374112887
  0
VERTEX
  8
4
 10
534.3558959960938
 20
279.7046508789063
 42
-0.09788220280353809
  0
VERTEX
  8
4
 10
534.4403076171875
 20
279.1702575683594
  0
SEQEND
  8
4
  0
POLYLINE
  8
4
  6
CONTINUOUS
 66
     1
 70
     0
 40
0.0
 41
0.0
  0
VERTEX
  8
4
 10
533.8496704101563
 20
278.3265075683594
 42
0.3318123126063208
  0
VERTEX
  8
4
 10
534.3558959960938
 20
278.6358947753906
 42
0.09788439342618263
  0
VERTEX
  8
4
 10
534.4403076171875
 20
279.1702575683594
  0
SEQEND
  8
4
  0
POLYLINE
  8
4
  6
CONTINUOUS
 66
     1
 70
     0
 40
0.0
 41
0.0
  0
VERTEX
  8
4
 10
533.8496704101563
 20
278.3265075683594
  0
VERTEX
  8
4
 10
533.3434448242188
 20
278.3265075683594
  0
VERTEX
  8
4
 10
533.3434448242188
 20
280.0140075683594
  0
VERTEX
  8
4
 10
533.8496704101563
 20
280.0140075683594
  0
SEQEND
  8
4
  0
POLYLINE
  8
4
  6
CONTINUOUS
 66
     1
 70
     0
 40
0.0
 41
0.0
  0
VERTEX
  8
4
 10
535.509033203125
 20
278.3265075683594
  0
VERTEX
  8
4
 10
535.509033203125
 20
278.4952697753906
  0
VERTEX
  8
4
 10
535.7059326171875
 20
278.4952697753906
  0
VERTEX
  8
4
 10
535.7059326171875
 20
278.3265075683594
  0
VERTEX
  8
4
 10
535.509033203125
 20
278.3265075683594
  0
SEQEND
  8
4
  0
ENDBLK
  8
4
  0
BLOCK
  8
4
  2
COMP3
 70
    64
 10
0.0
 20
0.0
  0
POLYLINE
  8
4
  6
CONTINUOUS
 66
     1
 70
     0
 40
0.0
 41
0.0
  0
VERTEX
  8
4
 10
524.5077514648438
 20
264.5044555664063
 42
0.3601562499999999
  0
VERTEX
  8
4
 10
523.8827514648438
 20
264.9732055664063
 42
0.3984375000000002
  0
VERTEX
  8
4
 10
523.2577514648438
 20
264.4263305664063
 42
0.4142501535576892
  0
VERTEX
  8
4
 10
523.8827514648438
 20
263.7232055664063
 42
-0.3750000000000001
  0
VERTEX
  8
4
 10
524.5077514648438
 20
263.0982055664063
 42
-0.4832215855195624
  0
VERTEX
  8
4
 10
523.9218139648438
 20
262.4732055664063
 42
-0.3193341897119104
  0
VERTEX
  8
4
 10
523.2577514648438
 20
262.9419555664063
  0
SEQEND
  8
4
  0
POLYLINE
  8
4
  6
CONTINUOUS
 66
     1
 70
     0
 40
0.0
 41
0.0
  0
VERTEX
  8
4
 10
525.0936889648438
 20
262.4732055664063
  0
VERTEX
  8
4
 10
526.3436889648438
 20
264.9732055664063
  0
SEQEND
  8
4
  0
POLYLINE
  8
4
  6
CONTINUOUS
 66
     1
 70
     0
 40
0.0
 41
0.0
  0
VERTEX
  8
4
 10
526.9296264648438
 20
262.4732055664063
  0
VERTEX
  8
4
 10
526.9296264648438
 20
264.9732055664063
  0
VERTEX
  8
4
 10
528.1796264648438
 20
262.4732055664063
  0
VERTEX
  8
4
 10
528.1796264648438
 20
264.9732055664063
  0
SEQEND
  8
4
  0
ENDBLK
  8
4
  0
BLOCK
  8
4
  2
COMP4
 70
    64
 10
0.0
 20
0.0
  0
POLYLINE
  8
4
  6
CONTINUOUS
 66
     1
 70
     0
 40
0.0
 41
0.0
  0
VERTEX
  8
4
 10
496.0164794921875
 20
259.1916198730469
  0
VERTEX
  8
4
 10
496.6414794921875
 20
259.1916198730469
 42
0.4142135623731519
  0
VERTEX
  8
4
 10
497.2664794921875
 20
259.8166198730469
 42
0.4142135623731519
  0
VERTEX
  8
4
 10
496.6414794921875
 20
260.4416198730469
  0
VERTEX
  8
4
 10
496.0164794921875
 20
260.4416198730469
  0
VERTEX
  8
4
 10
496.0164794921875
 20
257.9416198730469
  0
SEQEND
  8
4
  0
POLYLINE
  8
4
  6
CONTINUOUS
 66
     1
 70
     0
 40
0.0
 41
0.0
  0
VERTEX
  8
4
 10
497.2664794921875
 20
257.9416198730469
  0
VERTEX
  8
4
 10
496.6414794921875
 20
259.1916198730469
  0
SEQEND
  8
4
  0
POLYLINE
  8
4
  6
CONTINUOUS
 66
     1
 70
     0
 40
0.0
 41
0.0
  0
VERTEX
  8
4
 10
499.1024169921875
 20
259.9728698730469
 42
0.3601562499999999
  0
VERTEX
  8
4
 10
498.4774169921875
 20
260.4416198730469
 42
0.3984375000000002
  0
VERTEX
  8
4
 10
497.8524169921875
 20
259.8947448730469
 42
0.4142501535576892
  0
VERTEX
  8
4
 10
498.4774169921875
 20
259.1916198730469
 42
-0.3750000000000001
  0
VERTEX
  8
4
 10
499.1024169921875
 20
258.5666198730469
 42
-0.4832215855195624
  0
VERTEX
  8
4
 10
498.5164794921875
 20
257.9416198730469
 42
-0.3193970821199557
  0
VERTEX
  8
4
 10
497.8524169921875
 20
258.4103698730469
  0
SEQEND
  8
4
  0
POLYLINE
  8
4
  6
CONTINUOUS
 66
     1
 70
     0
 40
0.0
 41
0.0
  0
VERTEX
  8
4
 10
500.8602294921875
 20
259.1916198730469
  0
VERTEX
  8
4
 10
499.7664794921875
 20
259.1916198730469
  0
SEQEND
  8
4
  0
POLYLINE
  8
4
  6
CONTINUOUS
 66
     1
 70
     0
 40
0.0
 41
0.0
  0
VERTEX
  8
4
 10
501.5242919921875
 20
259.9728698730469
  0
VERTEX
  8
4
 10
501.9149169921875
 20
260.4416198730469
  0
VERTEX
  8
4
 10
502.3836669921875
 20
260.4416198730469
  0
VERTEX
  8
4
 10
502.7742919921875
 20
259.9728698730469
  0
VERTEX
  8
4
 10
502.7742919921875
 20
259.3478698730469
  0
VERTEX
  8
4
 10
501.5242919921875
 20
258.2541198730469
  0
VERTEX
  8
4
 10
501.5242919921875
 20
257.9416198730469
  0
VERTEX
  8
4
 10
502.7742919921875
 20
257.9416198730469
  0
SEQEND
  8
4
  0
POLYLINE
  8
4
  6
CONTINUOUS
 66
     1
 70
     0
 40
0.0
 41
0.0
  0
VERTEX
  8
4
 10
503.3602294921875
 20
259.9728698730469
  0
VERTEX
  8
4
 10
503.7508544921875
 20
260.4416198730469
  0
VERTEX
  8
4
 10
504.2196044921875
 20
260.4416198730469
  0
VERTEX
  8
4
 10
504.6102294921875
 20
259.9728698730469
  0
VERTEX
  8
4
 10
504.6102294921875
 20
259.5822448730469
  0
VERTEX
  8
4
 10
504.1414794921875
 20
259.1916198730469
  0
VERTEX
  8
4
 10
503.6727294921875
 20
259.1916198730469
  0
SEQEND
  8
4
  0
POLYLINE
  8
4
  6
CONTINUOUS
 66
     1
 70
     0
 40
0.0
 41
0.0
  0
VERTEX
  8
4
 10
504.1414794921875
 20
259.1916198730469
  0
VERTEX
  8
4
 10
504.6102294921875
 20
258.7228698730469
  0
VERTEX
  8
4
 10
504.6102294921875
 20
258.3322448730469
  0
VERTEX
  8
4
 10
504.2196044921875
 20
257.9416198730469
  0
VERTEX
  8
4
 10
503.7508544921875
 20
257.9416198730469
  0
VERTEX
  8
4
 10
503.3602294921875
 20
258.3322448730469
  0
SEQEND
  8
4
  0
POLYLINE
  8
4
  6
CONTINUOUS
 66
     1
 70
     0
 40
0.0
 41
0.0
  0
VERTEX
  8
4
 10
505.1961669921875
 20
259.9728698730469
  0
VERTEX
  8
4
 10
505.5867919921875
 20
260.4416198730469
  0
VERTEX
  8
4
 10
506.0555419921875
 20
260.4416198730469
  0
VERTEX
  8
4
 10
506.4461669921875
 20
259.9728698730469
  0
VERTEX
  8
4
 10
506.4461669921875
 20
259.3478698730469
  0
VERTEX
  8
4
 10
505.1961669921875
 20
258.2541198730469
  0
VERTEX
  8
4
 10
505.1961669921875
 20
257.9416198730469
  0
VERTEX
  8
4
 10
506.4461669921875
 20
257.9416198730469
  0
SEQEND
  8
4
  0
POLYLINE
  8
4
  6
CONTINUOUS
 66
     1
 70
     0
 40
0.0
 41
0.0
  0
VERTEX
  8
4
 10
508.2821044921875
 20
259.8947448730469
 42
0.875
  0
VERTEX
  8
4
 10
507.0321044921875
 20
259.8947448730469
  0
VERTEX
  8
4
 10
507.0321044921875
 20
258.4103698730469
 42
0.75
  0
VERTEX
  8
4
 10
508.2821044921875
 20
258.4103698730469
  0
SEQEND
  8
4
  0
ENDBLK
  8
4
  0
BLOCK
  8
4
  2
COMP5
 70
    64
 10
0.0
 20
0.0
  0
POLYLINE
  8
4
  6
CONTINUOUS
 66
     1
 70
     0
 40
0.0
 41
0.0
  0
VERTEX
  8
4
 10
518.9957275390625
 20
215.4257659912109
  0
VERTEX
  8
4
 10
519.4644775390625
 20
215.4257659912109
  0
SEQEND
  8
4
  0
POLYLINE
  8
4
  6
CONTINUOUS
 66
     1
 70
     0
 40
0.0
 41
0.0
  0
VERTEX
  8
4
 10
518.9957275390625
 20
212.9257659912109
  0
VERTEX
  8
4
 10
519.4644775390625
 20
212.9257659912109
  0
SEQEND
  8
4
  0
POLYLINE
  8
4
  6
CONTINUOUS
 66
     1
 70
     0
 40
0.0
 41
0.0
  0
VERTEX
  8
4
 10
519.2301025390625
 20
212.9257659912109
  0
VERTEX
  8
4
 10
519.2301025390625
 20
215.4257659912109
  0
SEQEND
  8
4
  0
POLYLINE
  8
4
  6
CONTINUOUS
 66
     1
 70
     0
 40
0.0
 41
0.0
  0
VERTEX
  8
4
 10
520.4410400390625
 20
212.9257659912109
  0
VERTEX
  8
4
 10
520.4410400390625
 20
215.4257659912109
  0
VERTEX
  8
4
 10
521.6910400390625
 20
212.9257659912109
  0
VERTEX
  8
4
 10
521.6910400390625
 20
215.4257659912109
  0
SEQEND
  8
4
  0
POLYLINE
  8
4
  6
CONTINUOUS
 66
     1
 70
     0
 40
0.0
 41
0.0
  0
VERTEX
  8
4
 10
522.2769775390625
 20
214.1757659912109
  0
VERTEX
  8
4
 10
522.9019775390625
 20
214.1757659912109
 42
0.4142135623729967
  0
VERTEX
  8
4
 10
523.5269775390625
 20
214.8007659912109
 42
0.4142135623730344
  0
VERTEX
  8
4
 10
522.9019775390625
 20
215.4257659912109
  0
VERTEX
  8
4
 10
522.2769775390625
 20
215.4257659912109
  0
VERTEX
  8
4
 10
522.2769775390625
 20
212.9257659912109
  0
SEQEND
  8
4
  0
POLYLINE
  8
4
  6
CONTINUOUS
 66
     1
 70
     0
 40
0.0
 41
0.0
  0
VERTEX
  8
4
 10
524.1129150390625
 20
215.4257659912109
  0
VERTEX
  8
4
 10
524.1129150390625
 20
213.3945159912109
 42
0.75
  0
VERTEX
  8
4
 10
525.3629150390625
 20
213.3945159912109
  0
VERTEX
  8
4
 10
525.3629150390625
 20
215.4257659912109
  0
SEQEND
  8
4
  0
POLYLINE
  8
4
  6
CONTINUOUS
 66
     1
 70
     0
 40
0.0
 41
0.0
  0
VERTEX
  8
4
 10
525.9488525390625
 20
215.4257659912109
  0
VERTEX
  8
4
 10
527.1988525390625
 20
215.4257659912109
  0
SEQEND
  8
4
  0
POLYLINE
  8
4
  6
CONTINUOUS
 66
     1
 70
     0
 40
0.0
 41
0.0
  0
VERTEX
  8
4
 10
526.5738525390625
 20
215.4257659912109
  0
VERTEX
  8
4
 10
526.5738525390625
 20
212.9257659912109
  0
SEQEND
  8
4
  0
ENDBLK
  8
4
  0
BLOCK
  8
4
  2
COMP6
 70
    64
 10
0.0
 20
0.0
  0
POLYLINE
  8
4
  6
CONTINUOUS
 66
     1
 70
     0
 40
0.0
 41
0.0
  0
VERTEX
  8
4
 10
493.4417114257813
 20
214.3440399169922
  0
VERTEX
  8
4
 10
493.4417114257813
 20
216.8440399169922
  0
VERTEX
  8
4
 10
493.0120239257813
 20
216.1018524169922
  0
SEQEND
  8
4
  0
POLYLINE
  8
4
  6
CONTINUOUS
 66
     1
 70
     0
 40
0.0
 41
0.0
  0
VERTEX
  8
4
 10
494.7307739257813
 20
216.3752899169922
  0
VERTEX
  8
4
 10
494.7307739257813
 20
214.8127899169922
 42
0.9230769230769231
  0
VERTEX
  8
4
 10
495.7463989257813
 20
214.8127899169922
  0
VERTEX
  8
4
 10
495.7463989257813
 20
216.3752899169922
 42
0.9230769230769231
  0
VERTEX
  8
4
 10
494.7307739257813
 20
216.3752899169922
  0
SEQEND
  8
4
  0
POLYLINE
  8
4
  6
CONTINUOUS
 66
     1
 70
     0
 40
0.0
 41
0.0
  0
VERTEX
  8
4
 10
496.5667114257813
 20
216.3752899169922
  0
VERTEX
  8
4
 10
496.5667114257813
 20
214.8127899169922
 42
0.9230769230769231
  0
VERTEX
  8
4
 10
497.5823364257813
 20
214.8127899169922
  0
VERTEX
  8
4
 10
497.5823364257813
 20
216.3752899169922
 42
0.9230769230769231
  0
VERTEX
  8
4
 10
496.5667114257813
 20
216.3752899169922
  0
SEQEND
  8
4
  0
POLYLINE
  8
4
  6
CONTINUOUS
 66
     1
 70
     0
 40
0.0
 41
0.0
  0
VERTEX
  8
4
 10
499.5745239257813
 20
216.8440399169922
  0
VERTEX
  8
4
 10
498.9495239257813
 20
214.3440399169922
  0
VERTEX
  8
4
 10
498.3245239257813
 20
216.8440399169922
  0
SEQEND
  8
4
  0
POLYLINE
  8
4
  6
CONTINUOUS
 66
     1
 70
     0
 40
0.0
 41
0.0
  0
VERTEX
  8
4
 10
501.9963989257813
 20
214.3440399169922
  0
VERTEX
  8
4
 10
502.6213989257813
 20
216.8440399169922
  0
VERTEX
  8
4
 10
503.2463989257813
 20
214.3440399169922
  0
SEQEND
  8
4
  0
POLYLINE
  8
4
  6
CONTINUOUS
 66
     1
 70
     0
 40
0.0
 41
0.0
  0
VERTEX
  8
4
 10
503.0510864257813
 20
215.1252899169922
  0
VERTEX
  8
4
 10
502.1917114257813
 20
215.1252899169922
  0
SEQEND
  8
4
  0
POLYLINE
  8
4
  6
CONTINUOUS
 66
     1
 70
     0
 40
0.0
 41
0.0
  0
VERTEX
  8
4
 10
505.0823364257813
 20
216.2971649169922
 42
0.875
  0
VERTEX
  8
4
 10
503.8323364257813
 20
216.2971649169922
  0
VERTEX
  8
4
 10
503.8323364257813
 20
214.8127899169922
 42
0.75
  0
VERTEX
  8
4
 10
505.0823364257813
 20
214.8127899169922
  0
SEQEND
  8
4
  0
ENDBLK
  8
4
  0
BLOCK
  8
4
  2
COMP7
 70
    64
 10
0.0
 20
0.0
  0
POLYLINE
  8
4
  6
CONTINUOUS
 66
     1
 70
     0
 40
0.0
 41
0.0
  0
VERTEX
  8
4
 10
503.478759765625
 20
163.7242584228516
  0
VERTEX
  8
4
 10
504.963134765625
 20
163.7242584228516
 42
0.75
  0
VERTEX
  8
4
 10
504.963134765625
 20
164.9742584228516
  0
VERTEX
  8
4
 10
503.478759765625
 20
164.9742584228516
 42
0.875
  0
VERTEX
  8
4
 10
503.478759765625
 20
163.7242584228516
  0
SEQEND
  8
4
  0
POLYLINE
  8
4
  6
CONTINUOUS
 66
     1
 70
     0
 40
0.0
 41
0.0
  0
VERTEX
  8
4
 10
502.931884765625
 20
165.5601959228516
  0
VERTEX
  8
4
 10
504.963134765625
 20
165.5601959228516
 42
0.75
  0
VERTEX
  8
4
 10
504.963134765625
 20
166.8101959228516
  0
VERTEX
  8
4
 10
502.931884765625
 20
166.8101959228516
  0
SEQEND
  8
4
  0
POLYLINE
  8
4
  6
CONTINUOUS
 66
     1
 70
     0
 40
0.0
 41
0.0
  0
VERTEX
  8
4
 10
502.931884765625
 20
167.3961334228516
  0
VERTEX
  8
4
 10
502.931884765625
 20
168.6461334228516
  0
SEQEND
  8
4
  0
POLYLINE
  8
4
  6
CONTINUOUS
 66
     1
 70
     0
 40
0.0
 41
0.0
  0
VERTEX
  8
4
 10
502.931884765625
 20
168.0211334228516
  0
VERTEX
  8
4
 10
505.431884765625
 20
168.0211334228516
  0
SEQEND
  8
4
  0
POLYLINE
  8
4
  6
CONTINUOUS
 66
     1
 70
     0
 40
0.0
 41
0.0
  0
VERTEX
  8
4
 10
504.181884765625
 20
169.2320709228516
  0
VERTEX
  8
4
 10
504.181884765625
 20
169.8570709228516
 42
0.2478978367415174
  0
VERTEX
  8
4
 10
503.9091186523438
 20
170.3733520507813
  0
SEQEND
  8
4
  0
POLYLINE
  8
4
  6
CONTINUOUS
 66
     1
 70
     0
 40
0.0
 41
0.0
  0
VERTEX
  8
4
 10
503.9091186523438
 20
169.2320709228516
  0
VERTEX
  8
4
 10
505.431884765625
 20
169.2320709228516
  0
SEQEND
  8
4
  0
POLYLINE
  8
4
  6
CONTINUOUS
 66
     1
 70
     0
 40
0.0
 41
0.0
  0
VERTEX
  8
4
 10
503.9091186523438
 20
171.0680084228516
  0
VERTEX
  8
4
 10
504.963134765625
 20
171.0680084228516
 42
0.75
  0
VERTEX
  8
4
 10
504.963134765625
 20
172.3180084228516
  0
VERTEX
  8
4
 10
503.9091186523438
 20
172.3180084228516
  0
SEQEND
  8
4
  0
POLYLINE
  8
4
  6
CONTINUOUS
 66
     1
 70
     0
 40
0.0
 41
0.0
  0
VERTEX
  8
4
 10
503.9091186523438
 20
173.5289459228516
  0
VERTEX
  8
4
 10
505.431884765625
 20
173.5289459228516
  0
SEQEND
  8
4
  0
ENDBLK
  8
4
  0
BLOCK
  8
4
  2
COMP8
 70
    64
 10
0.0
 20
0.0
  0
POLYLINE
  8
4
  6
CONTINUOUS
 66
     1
 70
     0
 40
0.0
 41
0.0
  0
VERTEX
  8
4
 10
84.55107116699219
 20
257.0965881347656
  0
VERTEX
  8
4
 10
85.55107116699219
 20
257.0965881347656
 42
0.4142135623731064
  0
VERTEX
  8
4
 10
86.55107116699219
 20
258.0965881347656
 42
0.4142135623731064
  0
VERTEX
  8
4
 10
85.55107116699219
 20
259.0965881347656
  0
VERTEX
  8
4
 10
84.55107116699219
 20
259.0965881347656
  0
VERTEX
  8
4
 10
84.55107116699219
 20
255.0965881347656
  0
SEQEND
  8
4
  0
POLYLINE
  8
4
  6
CONTINUOUS
 66
     1
 70
     0
 40
0.0
 41
0.0
  0
VERTEX
  8
4
 10
87.48857116699219
 20
258.2215881347656
  0
VERTEX
  8
4
 10
87.48857116699219
 20
255.8465881347656
 42
0.7500000000000001
  0
VERTEX
  8
4
 10
89.48857116699219
 20
255.8465881347656
  0
VERTEX
  8
4
 10
89.48857116699219
 20
258.2215881347656
 42
0.875
  0
VERTEX
  8
4
 10
87.48857116699219
 20
258.2215881347656
  0
SEQEND
  8
4
  0
POLYLINE
  8
4
  6
CONTINUOUS
 66
     1
 70
     0
 40
0.0
 41
0.0
  0
VERTEX
  8
4
 10
92.42607116699219
 20
259.0965881347656
  0
VERTEX
  8
4
 10
91.92607116699219
 20
255.0965881347656
  0
VERTEX
  8
4
 10
91.42607116699219
 20
258.9715881347656
  0
VERTEX
  8
4
 10
90.92607116699219
 20
255.0965881347656
  0
VERTEX
  8
4
 10
90.42607116699219
 20
259.0965881347656
  0
SEQEND
  8
4
  0
POLYLINE
  8
4
  6
CONTINUOUS
 66
     1
 70
     0
 40
0.0
 41
0.0
  0
VERTEX
  8
4
 10
95.36357116699219
 20
259.0965881347656
  0
VERTEX
  8
4
 10
93.36357116699219
 20
259.0965881347656
  0
VERTEX
  8
4
 10
93.36357116699219
 20
255.0965881347656
  0
VERTEX
  8
4
 10
95.36357116699219
 20
255.0965881347656
  0
SEQEND
  8
4
  0
POLYLINE
  8
4
  6
CONTINUOUS
 66
     1
 70
     0
 40
0.0
 41
0.0
  0
VERTEX
  8
4
 10
93.36357116699219
 20
257.0965881347656
  0
VERTEX
  8
4
 10
95.36357116699219
 20
257.0965881347656
  0
SEQEND
  8
4
  0
POLYLINE
  8
4
  6
CONTINUOUS
 66
     1
 70
     0
 40
0.0
 41
0.0
  0
VERTEX
  8
4
 10
96.30107116699219
 20
257.0965881347656
  0
VERTEX
  8
4
 10
97.30107116699219
 20
257.0965881347656
 42
0.4142135623731064
  0
VERTEX
  8
4
 10
98.30107116699219
 20
258.0965881347656
 42
0.4142135623731064
  0
VERTEX
  8
4
 10
97.30107116699219
 20
259.0965881347656
  0
VERTEX
  8
4
 10
96.30107116699219
 20
259.0965881347656
  0
VERTEX
  8
4
 10
96.30107116699219
 20
255.0965881347656
  0
SEQEND
  8
4
  0
POLYLINE
  8
4
  6
CONTINUOUS
 66
     1
 70
     0
 40
0.0
 41
0.0
  0
VERTEX
  8
4
 10
98.30107116699219
 20
255.0965881347656
  0
VERTEX
  8
4
 10
97.30107116699219
 20
257.0965881347656
  0
SEQEND
  8
4
  0
ENDBLK
  8
4
  0
BLOCK
  8
4
  2
COMP9
 70
    64
 10
0.0
 20
0.0
  0
POLYLINE
  8
4
  6
CONTINUOUS
 66
     1
 70
     0
 40
0.0
 41
0.0
  0
VERTEX
  8
4
 10
84.26439666748047
 20
245.1448822021484
  0
VERTEX
  8
4
 10
85.26439666748047
 20
249.1448822021484
  0
VERTEX
  8
4
 10
86.26439666748047
 20
245.1448822021484
  0
SEQEND
  8
4
  0
POLYLINE
  8
4
  6
CONTINUOUS
 66
     1
 70
     0
 40
0.0
 41
0.0
  0
VERTEX
  8
4
 10
85.95189666748047
 20
246.3948822021484
  0
VERTEX
  8
4
 10
84.57689666748047
 20
246.3948822021484
  0
SEQEND
  8
4
  0
POLYLINE
  8
4
  6
CONTINUOUS
 66
     1
 70
     0
 40
0.0
 41
0.0
  0
VERTEX
  8
4
 10
87.20189666748047
 20
249.1448822021484
  0
VERTEX
  8
4
 10
87.20189666748047
 20
245.1448822021484
  0
VERTEX
  8
4
 10
89.20189666748047
 20
245.1448822021484
  0
SEQEND
  8
4
  0
POLYLINE
  8
4
  6
CONTINUOUS
 66
     1
 70
     0
 40
0.0
 41
0.0
  0
VERTEX
  8
4
 10
90.13939666748047
 20
245.1448822021484
  0
VERTEX
  8
4
 10
91.13939666748047
 20
249.1448822021484
  0
VERTEX
  8
4
 10
92.13939666748047
 20
245.1448822021484
  0
SEQEND
  8
4
  0
POLYLINE
  8
4
  6
CONTINUOUS
 66
     1
 70
     0
 40
0.0
 41
0.0
  0
VERTEX
  8
4
 10
91.82689666748047
 20
246.3948822021484
  0
VERTEX
  8
4
 10
90.45189666748047
 20
246.3948822021484
  0
SEQEND
  8
4
  0
POLYLINE
  8
4
  6
CONTINUOUS
 66
     1
 70
     0
 40
0.0
 41
0.0
  0
VERTEX
  8
4
 10
93.07689666748047
 20
247.1448822021484
  0
VERTEX
  8
4
 10
94.07689666748047
 20
247.1448822021484
 42
0.4142135623731064
  0
VERTEX
  8
4
 10
95.07689666748047
 20
248.1448822021484
 42
0.4142135623731064
  0
VERTEX
  8
4
 10
94.07689666748047
 20
249.1448822021484
  0
VERTEX
  8
4
 10
93.07689666748047
 20
249.1448822021484
  0
VERTEX
  8
4
 10
93.07689666748047
 20
245.1448822021484
  0
SEQEND
  8
4
  0
POLYLINE
  8
4
  6
CONTINUOUS
 66
     1
 70
     0
 40
0.0
 41
0.0
  0
VERTEX
  8
4
 10
95.07689666748047
 20
245.1448822021484
  0
VERTEX
  8
4
 10
94.07689666748047
 20
247.1448822021484
  0
SEQEND
  8
4
  0
POLYLINE
  8
4
  6
CONTINUOUS
 66
     1
 70
     0
 40
0.0
 41
0.0
  0
VERTEX
  8
4
 10
96.01439666748047
 20
245.1448822021484
  0
VERTEX
  8
4
 10
96.01439666748047
 20
249.1448822021484
  0
VERTEX
  8
4
 10
97.01439666748047
 20
246.5198822021484
  0
VERTEX
  8
4
 10
98.01439666748047
 20
249.1448822021484
  0
VERTEX
  8
4
 10
98.01439666748047
 20
245.1448822021484
  0
SEQEND
  8
4
  0
ENDBLK
  8
4
  0
BLOCK
  8
4
  2
COMP10
 70
    64
 10
0.0
 20
0.0
  0
POLYLINE
  8
4
  6
CONTINUOUS
 66
     1
 70
     0
 40
0.0
 41
0.0
  0
VERTEX
  8
4
 10
84.30947875976563
 20
271.6984252929688
  0
VERTEX
  8
4
 10
84.18904250526343
 20
272.1271884593205
  0
VERTEX
  8
4
 10
83.94449080919452
 20
272.4801317188801
  0
VERTEX
  8
4
 10
83.60768217697822
 20
272.7118849260866
  0
VERTEX
  8
4
 10
83.41825604881424
 20
272.7719746557102
  0
VERTEX
  8
4
 10
83.22196960449219
 20
272.7921752929688
  0
VERTEX
  8
4
 10
83.02568028674216
 20
272.7719743821409
  0
VERTEX
  8
4
 10
82.83625357457625
 20
272.7118838117684
  0
VERTEX
  8
4
 10
82.49944918632764
 20
272.4801267768418
  0
VERTEX
  8
4
 10
82.25490518040442
 20
272.1271749060726
  0
VERTEX
  8
4
 10
82.13447570800781
 20
271.6983947753906
  0
VERTEX
  8
4
 10
82.13447570800781
 20
268.7296752929688
  0
VERTEX
  8
4
 10
82.29042039373697
 20
268.3532056067944
  0
VERTEX
  8
4
 10
82.54229826165235
 20
268.0525938050548
  0
VERTEX
  8
4
 10
82.86389480893413
 20
267.8588351091133
  0
VERTEX
  8
4
 10
83.22198486328125
 20
267.7921752929688
  0
VERTEX
  8
4
 10
83.58007708406096
 20
267.8588368881132
  0
VERTEX
  8
4
 10
83.90167040440623
 20
268.0526008161747
  0
VERTEX
  8
4
 10
84.15354130626321
 20
268.3532214664843
  0
VERTEX
  8
4
 10
84.30947875976563
 20
268.7297058105469
  0
SEQEND
  8
4
  0
POLYLINE
  8
4
  6
CONTINUOUS
 66
     1
 70
     0
 40
0.0
 41
0.0
  0
VERTEX
  8
4
 10
87.50400543212891
 20
271.8546752929688
  0
VERTEX
  8
4
 10
87.35848645918365
 20
272.2412741767407
  0
VERTEX
  8
4
 10
87.10712233273458
 20
272.5485061224773
  0
VERTEX
  8
4
 10
86.78014156467968
 20
272.7398500621614
  0
VERTEX
  8
4
 10
86.41651153564453
 20
272.7921752929688
  0
VERTEX
  8
4
 10
86.21771669189879
 20
272.7797026965029
  0
VERTEX
  8
4
 10
86.02523404333107
 20
272.724510513899
  0
VERTEX
  8
4
 10
85.84487301069876
 20
272.6282393947711
  0
VERTEX
  8
4
 10
85.68317185389404
 20
272.4943433670082
  0
VERTEX
  8
4
 10
85.43929358929356
 20
272.1352036697793
  0
VERTEX
  8
4
 10
85.32901000976563
 20
271.6984252929688
  0
VERTEX
  8
4
 10
85.39051988770132
 20
271.1846105481585
  0
VERTEX
  8
4
 10
85.61938020767838
 20
270.7364195207215
  0
VERTEX
  8
4
 10
85.97978529799362
 20
270.4226301366796
  0
VERTEX
  8
4
 10
86.41651153564453
 20
270.2921752929688
  0
VERTEX
  8
4
 10
86.62360751431416
 20
270.2544962372013
  0
VERTEX
  8
4
 10
86.82094953003607
 20
270.175112565756
  0
VERTEX
  8
4
 10
87.00310536234289
 20
270.0561888572022
  0
VERTEX
  8
4
 10
87.16416282014021
 20
269.9015544658383
  0
VERTEX
  8
4
 10
87.40215864222486
 20
269.5070520872328
  0
VERTEX
  8
4
 10
87.50400543212891
 20
269.0421752929688
  0
VERTEX
  8
4
 10
87.51140516767732
 20
268.7967710274189
  0
VERTEX
  8
4
 10
87.47094142160645
 20
268.5555990727692
  0
VERTEX
  8
4
 10
87.38468321828972
 20
268.3308856497019
  0
VERTEX
  8
4
 10
87.25698852539063
 20
268.134033203125
  0
VERTEX
  8
4
 10
87.09431105131243
 20
267.9748878317766
  0
VERTEX
  8
4
 10
86.90478169310606
 20
267.8614728004959
  0
VERTEX
  8
4
 10
86.69800944373321
 20
267.799515770482
  0
VERTEX
  8
4
 10
86.48446655273438
 20
267.7921752929688
  0
VERTEX
  8
4
 10
86.11320229457247
 20
267.8569702459642
  0
VERTEX
  8
4
 10
85.7764865030247
 20
268.0488349486114
  0
VERTEX
  8
4
 10
85.50644841483661
 20
268.3492705462729
  0
VERTEX
  8
4
 10
85.32901000976563
 20
268.7296752929688
  0
SEQEND
  8
4
  0
POLYLINE
  8
4
  6
CONTINUOUS
 66
     1
 70
     0
 40
0.0
 41
0.0
  0
VERTEX
  8
4
 10
88.52353668212891
 20
267.7921752929688
  0
VERTEX
  8
4
 10
89.61103820800781
 20
272.7921752929688
  0
VERTEX
  8
4
 10
90.69853973388672
 20
267.7921752929688
  0
SEQEND
  8
4
  0
POLYLINE
  8
4
  6
CONTINUOUS
 66
     1
 70
     0
 40
0.0
 41
0.0
  0
VERTEX
  8
4
 10
90.35869598388672
 20
269.3546752929688
  0
VERTEX
  8
4
 10
88.86338043212891
 20
269.3546752929688
  0
SEQEND
  8
4
  0
POLYLINE
  8
4
  6
CONTINUOUS
 66
     1
 70
     0
 40
0.0
 41
0.0
  0
VERTEX
  8
4
 10
93.75713348388672
 20
270.2921752929688
  0
VERTEX
  8
4
 10
91.85401153564453
 20
270.2921752929688
  0
SEQEND
  8
4
  0
POLYLINE
  8
4
  6
CONTINUOUS
 66
     1
 70
     0
 40
0.0
 41
0.0
  0
VERTEX
  8
4
 10
96.95166778564453
 20
272.6359252929688
  0
VERTEX
  8
4
 10
95.18447875976563
 20
272.6359252929688
  0
VERTEX
  8
4
 10
94.91260528564453
 20
270.4484252929688
  0
VERTEX
  8
4
 10
95.59229278564453
 20
270.7609252929688
  0
VERTEX
  8
4
 10
96.40791320800781
 20
270.7609252929688
  0
VERTEX
  8
4
 10
97.08760070800781
 20
270.1359252929688
  0
VERTEX
  8
4
 10
97.08760070800781
 20
268.5734252929688
  0
VERTEX
  8
4
 10
96.40791320800781
 20
267.7921752929688
  0
VERTEX
  8
4
 10
95.59229278564453
 20
267.7921752929688
  0
VERTEX
  8
4
 10
94.91260528564453
 20
268.5734252929688
  0
SEQEND
  8
4
  0
POLYLINE
  8
4
  6
CONTINUOUS
 66
     1
 70
     0
 40
0.0
 41
0.0
  0
VERTEX
  8
4
 10
98.10713195800781
 20
269.9796752929688
  0
VERTEX
  8
4
 10
98.78681945800781
 20
270.7609252929688
  0
VERTEX
  8
4
 10
99.60244750976563
 20
270.7609252929688
  0
VERTEX
  8
4
 10
100.2821350097656
 20
269.9796752929688
  0
VERTEX
  8
4
 10
100.2821350097656
 20
268.5734252929688
  0
VERTEX
  8
4
 10
99.60244750976563
 20
267.7921752929688
  0
VERTEX
  8
4
 10
98.78681945800781
 20
267.7921752929688
  0
VERTEX
  8
4
 10
98.10713195800781
 20
268.5734252929688
  0
VERTEX
  8
4
 10
98.10713195800781
 20
272.0109252929688
  0
VERTEX
  8
4
 10
98.78681945800781
 20
272.7921752929688
  0
VERTEX
  8
4
 10
99.60244750976563
 20
272.7921752929688
  0
VERTEX
  8
4
 10
100.2821350097656
 20
272.0109252929688
  0
SEQEND
  8
4
  0
POLYLINE
  8
4
  6
CONTINUOUS
 66
     1
 70
     0
 40
0.0
 41
0.0
  0
VERTEX
  8
4
 10
101.3016662597656
 20
271.8546752929688
  0
VERTEX
  8
4
 10
101.9813537597656
 20
272.7921752929688
  0
VERTEX
  8
4
 10
102.7969741821289
 20
272.7921752929688
  0
VERTEX
  8
4
 10
103.4766616821289
 20
271.8546752929688
  0
VERTEX
  8
4
 10
103.4766616821289
 20
270.6046752929688
  0
VERTEX
  8
4
 10
101.3016662597656
 20
268.4171752929688
  0
VERTEX
  8
4
 10
101.3016662597656
 20
267.7921752929688
  0
VERTEX
  8
4
 10
103.4766616821289
 20
267.7921752929688
  0
SEQEND
  8
4
  0
POLYLINE
  8
4
  6
CONTINUOUS
 66
     1
 70
     0
 40
0.0
 41
0.0
  0
VERTEX
  8
4
 10
104.4961929321289
 20
267.7921752929688
  0
VERTEX
  8
4
 10
105.7196350097656
 20
267.7921752929688
  0
VERTEX
  8
4
 10
105.9118495574712
 20
267.8421436478415
  0
VERTEX
  8
4
 10
106.0926575654504
 20
267.9306018021628
  0
VERTEX
  8
4
 10
106.399717470286
 20
268.2116917966856
  0
VERTEX
  8
4
 10
106.6013431010987
 20
268.5988272208072
  0
VERTEX
  8
4
 10
106.6711959838867
 20
269.0421752929688
  0
VERTEX
  8
4
 10
106.601342890083
 20
269.4855208154958
  0
VERTEX
  8
4
 10
106.3997166292103
 20
269.8726561357669
  0
VERTEX
  8
4
 10
106.092656084794
 20
270.1537477225097
  0
VERTEX
  8
4
 10
105.9118483966996
 20
270.2422065717
  0
VERTEX
  8
4
 10
105.7196350097656
 20
270.2921752929688
  0
VERTEX
  8
4
 10
105.9118495574712
 20
270.3421436478415
  0
VERTEX
  8
4
 10
106.0926575654504
 20
270.4306018021628
  0
VERTEX
  8
4
 10
106.399717470286
 20
270.7116917966856
  0
VERTEX
  8
4
 10
106.6013431010987
 20
271.0988272208072
  0
VERTEX
  8
4
 10
106.6711959838867
 20
271.5421752929688
  0
VERTEX
  8
4
 10
106.601342890083
 20
271.9855208154958
  0
VERTEX
  8
4
 10
106.3997166292103
 20
272.3726561357669
  0
VERTEX
  8
4
 10
106.092656084794
 20
272.6537477225097
  0
VERTEX
  8
4
 10
105.9118483966996
 20
272.7422065717
  0
VERTEX
  8
4
 10
105.7196350097656
 20
272.7921752929688
  0
VERTEX
  8
4
 10
104.4961929321289
 20
272.7921752929688
  0
VERTEX
  8
4
 10
104.4961929321289
 20
267.7921752929688
  0
SEQEND
  8
4
  0
POLYLINE
  8
4
  6
CONTINUOUS
 66
     1
 70
     0
 40
0.0
 41
0.0
  0
VERTEX
  8
4
 10
104.4961929321289
 20
270.2921752929688
  0
VERTEX
  8
4
 10
105.7196350097656
 20
270.2921752929688
  0
SEQEND
  8
4
  0
ENDBLK
  8
4
  0
BLOCK
  8
4
  2
COMP11
 70
    64
 10
0.0
 20
0.0
  0
POLYLINE
  8
4
  6
CONTINUOUS
 66
     1
 70
     0
 40
0.0
 41
0.0
  0
VERTEX
  8
4
 10
79.38117218017578
 20
278.8123474121094
  0
VERTEX
  8
4
 10
81.25617218017578
 20
278.8123474121094
  0
SEQEND
  8
4
  0
POLYLINE
  8
4
  6
CONTINUOUS
 66
     1
 70
     0
 40
0.0
 41
0.0
  0
VERTEX
  8
4
 10
80.31867218017578
 20
278.8123474121094
  0
VERTEX
  8
4
 10
80.31867218017578
 20
273.8123474121094
  0
SEQEND
  8
4
  0
POLYLINE
  8
4
  6
CONTINUOUS
 66
     1
 70
     0
 40
0.0
 41
0.0
  0
VERTEX
  8
4
 10
82.13507843017578
 20
276.3123474121094
  0
VERTEX
  8
4
 10
82.72101593017578
 20
277.0935974121094
  0
VERTEX
  8
4
 10
83.42414093017578
 20
277.0935974121094
  0
VERTEX
  8
4
 10
84.01007843017578
 20
276.3123474121094
  0
SEQEND
  8
4
  0
POLYLINE
  8
4
  6
CONTINUOUS
 66
     1
 70
     0
 40
0.0
 41
0.0
  0
VERTEX
  8
4
 10
82.13507843017578
 20
273.8123474121094
  0
VERTEX
  8
4
 10
82.13507843017578
 20
277.0935974121094
  0
SEQEND
  8
4
  0
POLYLINE
  8
4
  6
CONTINUOUS
 66
     1
 70
     0
 40
0.0
 41
0.0
  0
VERTEX
  8
4
 10
86.76398468017578
 20
273.8123474121094
  0
VERTEX
  8
4
 10
86.64679718017578
 20
274.5935974121094
  0
VERTEX
  8
4
 10
86.06085968017578
 20
273.8123474121094
  0
VERTEX
  8
4
 10
85.47492218017578
 20
273.8123474121094
  0
VERTEX
  8
4
 10
84.88898468017578
 20
274.5935974121094
  0
VERTEX
  8
4
 10
84.88898468017578
 20
276.3123474121094
  0
VERTEX
  8
4
 10
85.47492218017578
 20
277.0935974121094
  0
VERTEX
  8
4
 10
86.06085968017578
 20
277.0935974121094
  0
VERTEX
  8
4
 10
86.64679718017578
 20
276.3123474121094
  0
SEQEND
  8
4
  0
POLYLINE
  8
4
  6
CONTINUOUS
 66
     1
 70
     0
 40
0.0
 41
0.0
  0
VERTEX
  8
4
 10
86.64679718017578
 20
276.9373474121094
  0
VERTEX
  8
4
 10
86.64679718017578
 20
274.5935974121094
  0
SEQEND
  8
4
  0
POLYLINE
  8
4
  6
CONTINUOUS
 66
     1
 70
     0
 40
0.0
 41
0.0
  0
VERTEX
  8
4
 10
87.64289093017578
 20
277.0935974121094
  0
VERTEX
  8
4
 10
87.64289093017578
 20
273.8123474121094
  0
SEQEND
  8
4
  0
POLYLINE
  8
4
  6
CONTINUOUS
 66
     1
 70
     0
 40
0.0
 41
0.0
  0
VERTEX
  8
4
 10
87.64289093017578
 20
275.9998474121094
  0
VERTEX
  8
4
 10
88.34601593017578
 20
277.0935974121094
  0
VERTEX
  8
4
 10
88.81476593017578
 20
277.0935974121094
  0
VERTEX
  8
4
 10
89.51789093017578
 20
275.9998474121094
  0
VERTEX
  8
4
 10
89.51789093017578
 20
273.8123474121094
  0
SEQEND
  8
4
  0
POLYLINE
  8
4
  6
CONTINUOUS
 66
     1
 70
     0
 40
0.0
 41
0.0
  0
VERTEX
  8
4
 10
92.15460968017578
 20
276.6248474121094
  0
VERTEX
  8
4
 10
91.97537432807829
 20
276.8111524825905
  0
VERTEX
  8
4
 10
91.77490347155124
 20
276.9539434255467
  0
VERTEX
  8
4
 10
91.55909563093513
 20
277.0490260058346
  0
VERTEX
  8
4
 10
91.33429718017578
 20
277.0935974121094
  0
VERTEX
  8
4
 10
91.06902430445713
 20
277.0858812656504
  0
VERTEX
  8
4
 10
90.82310468918368
 20
276.9516022458134
  0
VERTEX
  8
4
 10
90.62938569357881
 20
276.7090479279769
  0
VERTEX
  8
4
 10
90.51398468017578
 20
276.3904724121094
  0
VERTEX
  8
4
 10
90.53407443348426
 20
276.0302825920548
  0
VERTEX
  8
4
 10
90.66852569580078
 20
275.7167358398438
  0
VERTEX
  8
4
 10
90.89112944019635
 20
275.5109154177967
  0
VERTEX
  8
4
 10
91.15850830078125
 20
275.4529724121094
  0
VERTEX
  8
4
 10
91.39577243638642
 20
275.4448629681749
  0
VERTEX
  8
4
 10
91.62726418858448
 20
275.3748477622921
  0
VERTEX
  8
4
 10
91.84396395832843
 20
275.2456684586554
  0
VERTEX
  8
4
 10
92.03742218017578
 20
275.0623474121094
  0
VERTEX
  8
4
 10
92.13844598555622
 20
274.7878411299195
  0
VERTEX
  8
4
 10
92.15161895751953
 20
274.4825744628906
  0
VERTEX
  8
4
 10
92.07487083838433
 20
274.1944117319868
  0
VERTEX
  8
4
 10
91.92023468017578
 20
273.9685974121094
  0
VERTEX
  8
4
 10
91.74439410309128
 20
273.867891720783
  0
VERTEX
  8
4
 10
91.55897990728649
 20
273.8067298131881
  0
VERTEX
  8
4
 10
91.36831636431704
 20
273.7865512205923
  0
VERTEX
  8
4
 10
91.17749962400912
 20
273.8079132830591
  0
VERTEX
  8
4
 10
90.81634781160504
 20
273.9717593932591
  0
VERTEX
  8
4
 10
90.51398468017578
 20
274.2810974121094
  0
SEQEND
  8
4
  0
POLYLINE
  8
4
  6
CONTINUOUS
 66
     1
 70
     0
 40
0.0
 41
0.0
  0
VERTEX
  8
4
 10
93.15070343017578
 20
277.0935974121094
  0
VERTEX
  8
4
 10
93.15070343017578
 20
273.8123474121094
  0
SEQEND
  8
4
  0
POLYLINE
  8
4
  6
CONTINUOUS
 66
     1
 70
     0
 40
0.0
 41
0.0
  0
VERTEX
  8
4
 10
95.02570343017578
 20
273.8123474121094
  0
VERTEX
  8
4
 10
95.02570343017578
 20
275.9998474121094
  0
VERTEX
  8
4
 10
94.55695343017578
 20
277.0935974121094
  0
VERTEX
  8
4
 10
94.08820343017578
 20
275.9998474121094
  0
VERTEX
  8
4
 10
93.61945343017578
 20
277.0935974121094
  0
VERTEX
  8
4
 10
93.15070343017578
 20
275.9998474121094
  0
SEQEND
  8
4
  0
POLYLINE
  8
4
  6
CONTINUOUS
 66
     1
 70
     0
 40
0.0
 41
0.0
  0
VERTEX
  8
4
 10
94.08820343017578
 20
275.9998474121094
  0
VERTEX
  8
4
 10
94.08820343017578
 20
273.8123474121094
  0
SEQEND
  8
4
  0
POLYLINE
  8
4
  6
CONTINUOUS
 66
     1
 70
     0
 40
0.0
 41
0.0
  0
VERTEX
  8
4
 10
96.72492218017578
 20
277.0935974121094
  0
VERTEX
  8
4
 10
96.72492218017578
 20
274.1248474121094
  0
VERTEX
  8
4
 10
96.95929718017578
 20
273.8123474121094
  0
VERTEX
  8
4
 10
97.19367218017578
 20
273.8123474121094
  0
SEQEND
  8
4
  0
POLYLINE
  8
4
  6
CONTINUOUS
 66
     1
 70
     0
 40
0.0
 41
0.0
  0
VERTEX
  8
4
 10
96.49054718017578
 20
278.8123474121094
  0
VERTEX
  8
4
 10
96.95929718017578
 20
278.8123474121094
  0
VERTEX
  8
4
 10
96.95929718017578
 20
278.1873474121094
  0
VERTEX
  8
4
 10
96.49054718017578
 20
278.1873474121094
  0
VERTEX
  8
4
 10
96.49054718017578
 20
278.8123474121094
  0
SEQEND
  8
4
  0
POLYLINE
  8
4
  6
CONTINUOUS
 66
     1
 70
     0
 40
0.0
 41
0.0
  0
VERTEX
  8
4
 10
98.65851593017578
 20
276.9373474121094
  0
VERTEX
  8
4
 10
100.0647659301758
 20
276.9373474121094
  0
SEQEND
  8
4
  0
POLYLINE
  8
4
  6
CONTINUOUS
 66
     1
 70
     0
 40
0.0
 41
0.0
  0
VERTEX
  8
4
 10
99.36164093017578
 20
278.8123474121094
  0
VERTEX
  8
4
 10
99.36164093017578
 20
274.2810974121094
  0
VERTEX
  8
4
 10
99.71320343017578
 20
273.8123474121094
  0
VERTEX
  8
4
 10
100.0647659301758
 20
273.8123474121094
  0
SEQEND
  8
4
  0
POLYLINE
  8
4
  6
CONTINUOUS
 66
     1
 70
     0
 40
0.0
 41
0.0
  0
VERTEX
  8
4
 10
101.4124221801758
 20
276.9373474121094
  0
VERTEX
  8
4
 10
102.8186721801758
 20
276.9373474121094
  0
SEQEND
  8
4
  0
POLYLINE
  8
4
  6
CONTINUOUS
 66
     1
 70
     0
 40
0.0
 41
0.0
  0
VERTEX
  8
4
 10
102.1155471801758
 20
278.8123474121094
  0
VERTEX
  8
4
 10
102.1155471801758
 20
274.2810974121094
  0
VERTEX
  8
4
 10
102.4671096801758
 20
273.8123474121094
  0
VERTEX
  8
4
 10
102.8186721801758
 20
273.8123474121094
  0
SEQEND
  8
4
  0
POLYLINE
  8
4
  6
CONTINUOUS
 66
     1
 70
     0
 40
0.0
 41
0.0
  0
VERTEX
  8
4
 10
106.0413284301758
 20
274.5935974121094
  0
VERTEX
  8
4
 10
105.4553909301758
 20
273.8123474121094
  0
VERTEX
  8
4
 10
104.7522659301758
 20
273.8123474121094
  0
VERTEX
  8
4
 10
104.1663284301758
 20
274.5935974121094
  0
VERTEX
  8
4
 10
104.1663284301758
 20
276.3123474121094
  0
VERTEX
  8
4
 10
104.7522659301758
 20
277.0935974121094
  0
VERTEX
  8
4
 10
105.4553909301758
 20
277.0935974121094
  0
VERTEX
  8
4
 10
106.0413284301758
 20
276.3123474121094
  0
VERTEX
  8
4
 10
106.0413284301758
 20
275.4529724121094
  0
VERTEX
  8
4
 10
104.1663284301758
 20
275.4529724121094
  0
SEQEND
  8
4
  0
POLYLINE
  8
4
  6
CONTINUOUS
 66
     1
 70
     0
 40
0.0
 41
0.0
  0
VERTEX
  8
4
 10
106.9202346801758
 20
276.3123474121094
  0
VERTEX
  8
4
 10
107.5061721801758
 20
277.0935974121094
  0
VERTEX
  8
4
 10
108.2092971801758
 20
277.0935974121094
  0
VERTEX
  8
4
 10
108.7952346801758
 20
276.3123474121094
  0
SEQEND
  8
4
  0
POLYLINE
  8
4
  6
CONTINUOUS
 66
     1
 70
     0
 40
0.0
 41
0.0
  0
VERTEX
  8
4
 10
106.9202346801758
 20
273.8123474121094
  0
VERTEX
  8
4
 10
106.9202346801758
 20
277.0935974121094
  0
SEQEND
  8
4
  0
ENDBLK
  8
4
  0
ENDSEC
  0
SECTION
  2
ENTITIES
  0
ARC
  8
1
  6
CONTINUOUS
 10
123.7360568058
 20
317.6303833247001
 40
2.999999999999972
 50
359.9999999999989
 51
90.0
  0
LINE
  8
1
  6
CONTINUOUS
 10
126.7360568058
 20
295.6303833247
 11
126.7360568058
 21
317.6303833247
  0
LINE
  8
1
  6
CONTINUOUS
 10
60.7360568058
 20
295.6303833247
 11
60.7360568058
 21
317.6303833247
  0
ARC
  8
1
  6
CONTINUOUS
 10
63.73605680579997
 20
317.6303833247001
 40
2.999999999999943
 50
90.0
 51
180.0000000000011
  0
LINE
  8
1
  6
CONTINUOUS
 10
123.7360568058
 20
320.6303833247
 11
63.7360568058
 21
320.6303833247
  0
ARC
  8
1
  6
CONTINUOUS
 10
113.7360568058
 20
314.3803833247
 40
2.750000000000014
 50
0.0
 51
180.0
  0
LINE
  8
1
  6
CONTINUOUS
 10
110.9860568058
 20
314.3803833247
 11
110.9860568058
 21
311.8803833247
  0
ARC
  8
1
  6
CONTINUOUS
 10
113.7360568058
 20
311.8803833247
 40
2.750000000000014
 50
180.0
 51
0.0
  0
LINE
  8
1
  6
CONTINUOUS
 10
116.4860568058
 20
311.8803833247
 11
116.4860568058
 21
314.3803833247
  0
ARC
  8
1
  6
CONTINUOUS
 10
73.7360568058
 20
314.3803833247
 40
2.75
 50
0.0
 51
180.0
  0
LINE
  8
1
  6
CONTINUOUS
 10
70.9860568058
 20
314.3803833247
 11
70.9860568058
 21
311.8803833247
  0
ARC
  8
1
  6
CONTINUOUS
 10
73.7360568058
 20
311.8803833247
 40
2.75
 50
180.0
 51
0.0
  0
LINE
  8
1
  6
CONTINUOUS
 10
76.4860568058
 20
311.8803833247
 11
76.4860568058
 21
314.3803833247
  0
LINE
  8
1
  6
CONTINUOUS
 10
126.7360568058
 20
295.6303833247
 11
123.1339725675
 21
295.6303833247
  0
LINE
  8
1
  6
CONTINUOUS
 10
64.3381410442
 20
295.6303833247
 11
60.7360568058
 21
295.6303833247
  0
LINE
  8
1
  6
CONTINUOUS
 10
60.7360568058
 20
136.6303833247
 11
64.3381410442
 21
136.6303833247
  0
LINE
  8
1
  6
CONTINUOUS
 10
123.1339725675
 20
136.6303833247
 11
126.7360568058
 21
136.6303833247
  0
LINE
  8
1
  6
CONTINUOUS
 10
60.7360568058
 20
114.6303833247
 11
60.7360568058
 21
136.6303833247
  0
LINE
  8
1
  6
CONTINUOUS
 10
126.7360568058
 20
114.6303833247
 11
126.7360568058
 21
136.6303833247
  0
ARC
  8
1
  6
CONTINUOUS
 10
63.73605680579998
 20
114.6303833247
 40
2.999999999999993
 50
179.9999999999997
 51
270.0
  0
ARC
  8
1
  6
CONTINUOUS
 10
123.7360568058
 20
114.6303833247
 40
2.999999999999986
 50
270.0
 51
2.714073328182214E-013
  0
LINE
  8
1
  6
CONTINUOUS
 10
63.7360568058
 20
111.6303833247
 11
123.7360568058
 21
111.6303833247
  0
ARC
  8
1
  6
CONTINUOUS
 10
73.7360568058
 20
117.8803833247
 40
2.75
 50
180.0
 51
0.0
  0
LINE
  8
1
  6
CONTINUOUS
 10
76.4860568058
 20
117.8803833247
 11
76.4860568058
 21
120.3803833247
  0
ARC
  8
1
  6
CONTINUOUS
 10
73.7360568058
 20
120.3803833247
 40
2.75
 50
0.0
 51
180.0
  0
LINE
  8
1
  6
CONTINUOUS
 10
70.9860568058
 20
120.3803833247
 11
70.9860568058
 21
117.8803833247
  0
ARC
  8
1
  6
CONTINUOUS
 10
113.7360568058
 20
117.8803833247
 40
2.75
 50
180.0
 51
0.0
  0
LINE
  8
1
  6
CONTINUOUS
 10
116.4860568058
 20
117.8803833247
 11
116.4860568058
 21
120.3803833247
  0
ARC
  8
1
  6
CONTINUOUS
 10
113.7360568058
 20
120.3803833247
 40
2.75
 50
0.0
 51
180.0
  0
LINE
  8
1
  6
CONTINUOUS
 10
110.9860568058
 20
120.3803833247
 11
110.9860568058
 21
117.8803833247
  0
LINE
  8
1
  6
CONTINUOUS
 10
86.2902526183
 20
167.7303833247
 11
101.1818609934
 21
167.7303833247
  0
ARC
  8
1
  6
CONTINUOUS
 10
93.73605680590001
 20
168.6303833247
 40
6.50000000000002
 50
187.9588318815001
 51
352.0411681185001
  0
ARC
  8
1
  6
CONTINUOUS
 10
93.73605680590001
 20
168.6303833247
 40
6.500000000000015
 50
7.958831881499873
 51
172.0411681185001
  0
LINE
  8
1
  6
CONTINUOUS
 10
86.2902526183
 20
169.5303833247
 11
101.1818609934
 21
169.5303833247
  0
CIRCLE
  8
1
  6
CONTINUOUS
 10
93.73605680590003
 20
168.6303833247
 40
7.499999999999988
  0
LINE
  8
1
  6
CONTINUOUS
 10
86.2902526183
 20
237.5303833247
 11
101.1818609934
 21
237.5303833247
  0
ARC
  8
1
  6
CONTINUOUS
 10
93.73605680590001
 20
236.6303833247
 40
6.499999999999997
 50
7.958831881499642
 51
172.0411681185004
  0
CIRCLE
  8
1
  6
CONTINUOUS
 10
93.73605680590001
 20
236.6303833247
 40
7.500000000000016
  0
LINE
  8
1
  6
CONTINUOUS
 10
86.2902526183
 20
235.7303833247
 11
101.1818609934
 21
235.7303833247
  0
ARC
  8
1
  6
CONTINUOUS
 10
93.73605680590001
 20
236.6303833247
 40
6.50000000000002
 50
187.9588318815001
 51
352.0411681185001
  0
ARC
  8
1
  6
CONTINUOUS
 10
111.7360568059
 20
167.6303833247
 40
5.0
 50
270.0
 51
3.256887993818641E-013
  0
ARC
  8
1
  6
CONTINUOUS
 10
111.7360568059
 20
237.6303833247
 40
5.0
 50
359.9999999999997
 51
90.0
  0
LINE
  8
1
  6
CONTINUOUS
 10
75.73605680590001
 20
162.6303833247
 11
89.23605680590001
 21
162.6303833247
  0
LINE
  8
1
  6
CONTINUOUS
 10
98.23605680590001
 20
162.6303833247
 11
111.7360568059
 21
162.6303833247
  0
LINE
  8
1
  6
CONTINUOUS
 10
111.7360568059
 20
242.6303833247
 11
98.23605680590001
 21
242.6303833247
  0
LINE
  8
1
  6
CONTINUOUS
 10
89.23605680590001
 20
242.6303833247
 11
75.73605680590001
 21
242.6303833247
  0
LINE
  8
1
  6
CONTINUOUS
 10
70.73605680590001
 20
237.6303833247
 11
70.73605680590001
 21
167.6303833247
  0
ARC
  8
1
  6
CONTINUOUS
 10
75.73605680590001
 20
237.6303833247
 40
4.999999999999972
 50
90.0
 51
180.0000000000003
  0
LINE
  8
1
  6
CONTINUOUS
 10
116.7360568059
 20
167.6303833247
 11
116.7360568059
 21
237.6303833247
  0
ARC
  8
1
  6
CONTINUOUS
 10
75.73605680590001
 20
167.6303833247
 40
5.0
 50
179.9999999999997
 51
270.0
  0
LINE
  8
1
  6
CONTINUOUS
 10
118.7360568058
 20
289.6303833247
 11
68.7360568058
 21
289.6303833247
  0
LINE
  8
1
  6
CONTINUOUS
 10
60.7360568058
 20
282.6303833247
 11
126.7360568058
 21
282.6303833247
  0
ARC
  8
1
  6
CONTINUOUS
 10
66.73605680580005
 20
290.1303833247
 40
6.0
 50
90.0
 51
180.0
  0
LINE
  8
1
  6
CONTINUOUS
 10
66.7360568058
 20
296.1303833247
 11
120.7360568058
 21
296.1303833247
  0
ARC
  8
1
  6
CONTINUOUS
 10
120.7360568058001
 20
290.1303833247001
 40
5.999999999999957
 50
359.9999999999994
 51
90.0
  0
LINE
  8
1
  6
CONTINUOUS
 10
118.7360568058
 20
284.1303833247
 11
68.7360568058
 21
284.1303833247
  0
ARC
  8
1
  6
CONTINUOUS
 10
66.73605680590003
 20
142.1303833247
 40
6.00000000000005
 50
180.0
 51
270.0
  0
LINE
  8
1
  6
CONTINUOUS
 10
60.7360568059
 20
149.6303833247
 11
126.7360568059
 21
149.6303833247
  0
LINE
  8
1
  6
CONTINUOUS
 10
68.73605680590001
 20
142.6303833247
 11
118.7360568059
 21
142.6303833247
  0
LINE
  8
1
  6
CONTINUOUS
 10
120.7360568059
 20
136.1303833247
 11
66.73605680590001
 21
136.1303833247
  0
ARC
  8
1
  6
CONTINUOUS
 10
120.7360568059001
 20
142.1303833247
 40
6.0
 50
270.0
 51
2.714073328182201E-013
  0
LINE
  8
1
  6
CONTINUOUS
 10
68.73605680590001
 20
148.1303833247
 11
118.7360568059
 21
148.1303833247
  0
LINE
  8
1
  6
CONTINUOUS
 10
68.7360568058
 20
142.6303833247
 11
68.73605680590001
 21
289.6303833247
  0
LINE
  8
1
  6
CONTINUOUS
 10
60.7360568058
 20
142.1303833247
 11
60.7360568059
 21
290.1303833247
  0
LINE
  8
1
  6
CONTINUOUS
 10
118.7360568058
 20
142.6303833247
 11
118.7360568059
 21
289.6303833247
  0
LINE
  8
1
  6
CONTINUOUS
 10
126.7360568058
 20
142.1303833247
 11
126.7360568059
 21
290.1303833247
  0
CIRCLE
  8
1
  6
CONTINUOUS
 10
80.7360568058
 20
247.1303833247
 40
2.5
  0
CIRCLE
  8
1
  6
CONTINUOUS
 10
80.7360568058
 20
257.1303833247
 40
2.5
  0
LINE
  8
1
  6
CONTINUOUS
 10
215.8526146217
 20
130.6303814173
 11
215.8526146217
 21
133.4303841114
  0
LINE
  8
1
  6
CONTINUOUS
 10
207.8526133104
 20
133.4303841114
 11
207.8526133104
 21
130.6303814173
  0
LINE
  8
1
  6
CONTINUOUS
 10
207.8526133104
 20
301.630385232
 11
207.8526133104
 21
298.8303825379
  0
LINE
  8
1
  6
CONTINUOUS
 10
215.8526146217
 20
298.8303825379
 11
215.8526146217
 21
301.630385232
  0
LINE
  8
1
  6
CONTINUOUS
 10
242.8526171847
 20
301.630385232
 11
242.8526171847
 21
298.8303825379
  0
LINE
  8
1
  6
CONTINUOUS
 10
250.852618496
 20
298.8303825379
 11
250.852618496
 21
301.630385232
  0
LINE
  8
1
  6
CONTINUOUS
 10
250.852618496
 20
130.6303814173
 11
250.852618496
 21
133.4303841114
  0
LINE
  8
1
  6
CONTINUOUS
 10
242.8526171847
 20
133.4303841114
 11
242.8526171847
 21
130.6303814173
  0
LINE
  8
1
  6
CONTINUOUS
 10
432.05262361
 20
157.6303839803
 11
434.0526276631
 21
157.6303839803
  0
LINE
  8
1
  6
CONTINUOUS
 10
432.05262361
 20
165.6303815663
 11
434.0526276631
 21
165.6303815663
  0
LINE
  8
1
  6
CONTINUOUS
 10
154.1526151253
 20
161.1303836227
 11
161.1526148757
 21
161.1303836227
  0
LINE
  8
1
  6
CONTINUOUS
 10
161.1526148757
 20
176.1303842187
 11
154.1526151253
 21
176.1303842187
  0
LINE
  8
1
  6
CONTINUOUS
 10
153.1526149614
 20
162.130381924
 11
154.1526151253
 21
161.1303836227
  0
LINE
  8
1
  6
CONTINUOUS
 10
154.1526151253
 20
176.1303842187
 11
153.1526149614
 21
175.1303821922
  0
LINE
  8
1
  6
CONTINUOUS
 10
161.1526148757
 20
163.6303849638
 11
161.8526150836
 21
163.6303849638
  0
LINE
  8
1
  6
CONTINUOUS
 10
161.8526150836
 20
173.6303828776
 11
161.1526148757
 21
173.6303828776
  0
LINE
  8
1
  6
CONTINUOUS
 10
154.1526151253
 20
229.1303835929
 11
161.1526148757
 21
229.1303835929
  0
LINE
  8
1
  6
CONTINUOUS
 10
161.1526148757
 20
244.1303841889
 11
154.1526151253
 21
244.1303841889
  0
LINE
  8
1
  6
CONTINUOUS
 10
153.1526149614
 20
230.1303837568
 11
154.1526151253
 21
229.1303835929
  0
LINE
  8
1
  6
CONTINUOUS
 10
154.1526151253
 20
244.1303841889
 11
153.1526149614
 21
243.130384025
  0
LINE
  8
1
  6
CONTINUOUS
 10
161.1526148757
 20
231.6303830713
 11
161.8526150836
 21
231.6303830713
  0
LINE
  8
1
  6
CONTINUOUS
 10
161.8526150836
 20
241.6303828478
 11
161.1526148757
 21
241.6303828478
  0
ARC
  8
1
  6
CONTINUOUS
 10
434.0526148839
 20
158.6303833247
 40
1.0
 50
270.0
 51
1.628443996909321E-012
  0
ARC
  8
1
  6
CONTINUOUS
 10
434.0526148839
 20
164.6303833247
 40
1.0
 50
359.9999999999984
 51
90.0
  0
ARC
  8
1
  6
CONTINUOUS
 10
432.1026148839001
 20
187.0703833247
 40
3.750000000000012
 50
306.8698976457994
 51
53.13010235420062
  0
LINE
  8
1
  6
CONTINUOUS
 10
434.3526178403
 20
190.0703832627
 11
433.3526009126
 21
190.0703832627
  0
LINE
  8
1
  6
CONTINUOUS
 10
433.3526009126
 20
184.0703822792
 11
434.3526178403
 21
184.0703822792
  0
ARC
  8
1
  6
CONTINUOUS
 10
432.1026148839001
 20
194.6903833247
 40
3.750000000000012
 50
306.8698976457994
 51
53.13010235420062
  0
LINE
  8
1
  6
CONTINUOUS
 10
434.3526178403
 20
197.6903826118
 11
433.3526009126
 21
197.6903826118
  0
LINE
  8
1
  6
CONTINUOUS
 10
433.3526009126
 20
191.690383491
 11
434.3526178403
 21
191.690383491
  0
LINE
  8
1
  6
CONTINUOUS
 10
443.0526011987
 20
211.810383492
 11
442.3526042504
 21
211.810383492
  0
LINE
  8
1
  6
CONTINUOUS
 10
442.3526042504
 20
205.8103829742
 11
443.0526011987
 21
205.8103829742
  0
ARC
  8
1
  6
CONTINUOUS
 10
443.9417350255
 20
207.0603833247
 40
1.0
 50
270.0
 51
343.0422367000018
  0
ARC
  8
1
  6
CONTINUOUS
 10
443.9417350255
 20
210.5603833247
 40
1.000000000000086
 50
16.95776330000037
 51
90.0
  0
LINE
  8
1
  6
CONTINUOUS
 10
443.9417236848
 20
211.560383451
 11
443.0526011987
 21
211.560383451
  0
LINE
  8
1
  6
CONTINUOUS
 10
443.0526011987
 20
206.0603834808
 11
443.9417236848
 21
206.0603834808
  0
ARC
  8
1
  6
CONTINUOUS
 10
438.2026148839001
 20
208.8103833247
 40
6.999999999999947
 50
343.0422366999997
 51
16.95776330000031
  0
LINE
  8
1
  6
CONTINUOUS
 10
442.3526042504
 20
210.3103832461
 11
440.8526235623
 21
210.3103832461
  0
LINE
  8
1
  6
CONTINUOUS
 10
440.0526100202
 20
210.3103832461
 11
437.0526188417
 21
210.3103832461
  0
LINE
  8
1
  6
CONTINUOUS
 10
437.0526188417
 20
207.3103832201
 11
440.0526100202
 21
207.3103832201
  0
LINE
  8
1
  6
CONTINUOUS
 10
440.8526235623
 20
207.3103832201
 11
442.3526042504
 21
207.3103832201
  0
LINE
  8
1
  6
CONTINUOUS
 10
434.1526144548
 20
199.3103828401
 11
434.852611403
 21
199.3103828401
  0
ARC
  8
1
  6
CONTINUOUS
 10
435.7417350254999
 20
200.5603833247002
 40
1.000000000000227
 50
270.0
 51
343.0422366999937
  0
ARC
  8
1
  6
CONTINUOUS
 10
435.7417350255025
 20
204.0603833247012
 40
0.9999999999973374
 50
16.95776329997519
 51
30.00000000001112
  0
LINE
  8
1
  6
CONTINUOUS
 10
434.852611403
 20
199.5603833467
 11
435.7417338891
 21
199.5603833467
  0
ARC
  8
1
  6
CONTINUOUS
 10
430.0026148839002
 20
202.3103833247
 40
6.99999999999983
 50
343.0422366999997
 51
16.95776330000036
  0
LINE
  8
1
  6
CONTINUOUS
 10
443.0526011987
 20
176.1603839815
 11
442.3526042504
 21
176.1603839815
  0
LINE
  8
1
  6
CONTINUOUS
 10
442.3526042504
 20
170.160382998
 11
443.0526011987
 21
170.160382998
  0
LINE
  8
1
  6
CONTINUOUS
 10
443.9417236848
 20
175.9103834749
 11
443.0526011987
 21
175.9103834749
  0
LINE
  8
1
  6
CONTINUOUS
 10
443.0526011987
 20
170.4103835047
 11
443.9417236848
 21
170.4103835047
  0
ARC
  8
1
  6
CONTINUOUS
 10
443.9417350254999
 20
171.4103833247002
 40
1.000000000000199
 50
270.0
 51
343.0422366999953
  0
ARC
  8
1
  6
CONTINUOUS
 10
443.9417350255001
 20
174.9103833247001
 40
0.9999999999999443
 50
16.95776329999604
 51
90.0
  0
ARC
  8
1
  6
CONTINUOUS
 10
438.2026148839002
 20
173.1603833247
 40
6.99999999999983
 50
343.0422366999997
 51
16.95776330000036
  0
LINE
  8
1
  6
CONTINUOUS
 10
440.0526100202
 20
174.660384667
 11
437.0526188417
 21
174.660384667
  0
LINE
  8
1
  6
CONTINUOUS
 10
437.0526188417
 20
171.6603823126
 11
440.0526100202
 21
171.6603823126
  0
LINE
  8
1
  6
CONTINUOUS
 10
434.852611403
 20
182.4503839136
 11
434.1526144548
 21
182.4503839136
  0
LINE
  8
1
  6
CONTINUOUS
 10
435.7417338891
 20
182.2003834069
 11
434.852611403
 21
182.2003834069
  0
ARC
  8
1
  6
CONTINUOUS
 10
435.7417350255025
 20
177.7003833246988
 40
0.9999999999973334
 50
329.9999999999889
 51
343.0422367000248
  0
ARC
  8
1
  6
CONTINUOUS
 10
435.7417350255
 20
181.2003833247
 40
1.000000000000032
 50
16.95776330000132
 51
90.0
  0
ARC
  8
1
  6
CONTINUOUS
 10
430.0026148839017
 20
179.4503833246998
 40
6.999999999998296
 50
343.0422366999978
 51
16.95776330000585
  0
LINE
  8
1
  6
CONTINUOUS
 10
432.05262361
 20
155.8803841591
 11
436.8526154561
 21
155.8803841591
  0
LINE
  8
1
  6
CONTINUOUS
 10
436.8526154561
 20
207.8803833694
 11
432.05262361
 21
207.8803833694
  0
LINE
  8
1
  6
CONTINUOUS
 10
215.8526146217
 20
130.6303814173
 11
207.8526133104
 21
130.6303814173
  0
LINE
  8
1
  6
CONTINUOUS
 10
207.8526133104
 20
301.630385232
 11
215.8526146217
 21
301.630385232
  0
LINE
  8
1
  6
CONTINUOUS
 10
242.8526171847
 20
301.630385232
 11
250.852618496
 21
301.630385232
  0
LINE
  8
1
  6
CONTINUOUS
 10
242.8526171847
 20
130.6303814173
 11
250.852618496
 21
130.6303814173
  0
LINE
  8
1
  6
CONTINUOUS
 10
256.8526157541
 20
298.8303825379
 11
256.8526157541
 21
295.6303805233
  0
LINE
  8
1
  6
CONTINUOUS
 10
185.4526141091
 20
298.8303825379
 11
256.8526157541
 21
298.8303825379
  0
LINE
  8
1
  6
CONTINUOUS
 10
181.8526146366
 20
295.6303805233
 11
429.3526226087
 21
295.6303805233
  0
ARC
  8
1
  6
CONTINUOUS
 10
185.4526148838999
 20
299.2303833247
 40
0.3999999999999488
 50
180.0
 51
270.0
  0
ARC
  8
1
  6
CONTINUOUS
 10
185.4526148839
 20
299.2303833247
 40
3.600000000000023
 50
180.0
 51
270.0
  0
LINE
  8
1
  6
CONTINUOUS
 10
181.8526146366
 20
320.6303864837
 11
185.0526147885
 21
320.6303864837
  0
LINE
  8
1
  6
CONTINUOUS
 10
181.8526146366
 20
299.2303818584
 11
181.8526146366
 21
320.6303864837
  0
LINE
  8
1
  6
CONTINUOUS
 10
185.0526147885
 20
299.2303818584
 11
185.0526147885
 21
320.6303864837
  0
LINE
  8
1
  6
CONTINUOUS
 10
256.8526157541
 20
136.6303861261
 11
256.8526157541
 21
133.4303841114
  0
LINE
  8
1
  6
CONTINUOUS
 10
181.8526146366
 20
136.6303861261
 11
429.3526226087
 21
136.6303861261
  0
LINE
  8
1
  6
CONTINUOUS
 10
185.4526141091
 20
133.4303841114
 11
256.8526157541
 21
133.4303841114
  0
ARC
  8
1
  6
CONTINUOUS
 10
185.4526148839
 20
133.0303833247
 40
0.4000000000000625
 50
90.0
 51
179.9999999999959
  0
ARC
  8
1
  6
CONTINUOUS
 10
185.4526148839
 20
133.0303833247
 40
3.599999999999966
 50
90.0
 51
180.0000000000005
  0
LINE
  8
1
  6
CONTINUOUS
 10
185.0526147885
 20
111.6303801656
 11
181.8526146366
 21
111.6303801656
  0
LINE
  8
1
  6
CONTINUOUS
 10
181.8526146366
 20
111.6303801656
 11
181.8526146366
 21
133.0303847909
  0
LINE
  8
1
  6
CONTINUOUS
 10
185.0526147885
 20
111.6303801656
 11
185.0526147885
 21
133.0303847909
  0
LINE
  8
1
  6
CONTINUOUS
 10
432.3526137872
 20
157.6303839803
 11
432.3526137872
 21
165.6303815663
  0
LINE
  8
1
  6
CONTINUOUS
 10
153.1526149614
 20
167.7303835869
 11
155.1526152892
 21
167.7303835869
  0
LINE
  8
1
  6
CONTINUOUS
 10
155.1526152892
 20
167.7303835869
 11
155.1526152892
 21
169.5303842545
  0
LINE
  8
1
  6
CONTINUOUS
 10
153.1526149614
 20
169.5303842545
 11
155.1526152892
 21
169.5303842545
  0
LINE
  8
1
  6
CONTINUOUS
 10
154.1526151253
 20
169.5303842545
 11
154.1526151253
 21
176.1303842187
  0
LINE
  8
1
  6
CONTINUOUS
 10
154.1526151253
 20
161.1303836227
 11
154.1526151253
 21
167.7303835869
  0
LINE
  8
1
  6
CONTINUOUS
 10
161.1526148757
 20
161.1303836227
 11
161.1526148757
 21
176.1303842187
  0
LINE
  8
1
  6
CONTINUOUS
 10
153.1526149614
 20
162.130381924
 11
153.1526149614
 21
167.7303835869
  0
LINE
  8
1
  6
CONTINUOUS
 10
153.1526149614
 20
169.5303842545
 11
153.1526149614
 21
175.1303821922
  0
LINE
  8
1
  6
CONTINUOUS
 10
161.1526148757
 20
229.1303835929
 11
161.1526148757
 21
244.1303841889
  0
LINE
  8
1
  6
CONTINUOUS
 10
153.1526149614
 20
235.7303835571
 11
155.1526152892
 21
235.7303835571
  0
LINE
  8
1
  6
CONTINUOUS
 10
155.1526152892
 20
235.7303835571
 11
155.1526152892
 21
237.5303842247
  0
LINE
  8
1
  6
CONTINUOUS
 10
153.1526149614
 20
237.5303842247
 11
155.1526152892
 21
237.5303842247
  0
LINE
  8
1
  6
CONTINUOUS
 10
154.1526151253
 20
237.5303842247
 11
154.1526151253
 21
244.1303841889
  0
LINE
  8
1
  6
CONTINUOUS
 10
154.1526151253
 20
229.1303835929
 11
154.1526151253
 21
235.7303835571
  0
LINE
  8
1
  6
CONTINUOUS
 10
153.1526149614
 20
230.1303837568
 11
153.1526149614
 21
235.7303835571
  0
LINE
  8
1
  6
CONTINUOUS
 10
153.1526149614
 20
237.5303842247
 11
153.1526149614
 21
243.130384025
  0
LINE
  8
1
  6
CONTINUOUS
 10
435.0526147885
 20
158.6303822816
 11
435.0526147885
 21
164.6303832651
  0
LINE
  8
1
  6
CONTINUOUS
 10
429.3526226087
 20
280.8803841591
 11
429.3526226087
 21
296.1303815365
  0
LINE
  8
1
  6
CONTINUOUS
 10
429.3526226087
 20
280.8803841591
 11
432.05262361
 21
280.8803841591
  0
LINE
  8
1
  6
CONTINUOUS
 10
429.3526226087
 20
151.3803824902
 11
432.05262361
 21
151.3803824902
  0
LINE
  8
1
  6
CONTINUOUS
 10
429.3526226087
 20
137.880384934
 11
181.8526146366
 21
137.880384934
  0
LINE
  8
1
  6
CONTINUOUS
 10
432.05262361
 20
151.3803824902
 11
432.05262361
 21
280.8803841591
  0
LINE
  8
1
  6
CONTINUOUS
 10
429.3526226087
 20
294.3803817153
 11
181.8526146366
 21
294.3803817153
  0
LINE
  8
1
  6
CONTINUOUS
 10
440.8526235623
 20
168.9103841901
 11
440.8526235623
 21
212.8103834231
  0
LINE
  8
1
  6
CONTINUOUS
 10
440.8526235623
 20
207.260383305
 11
442.3526042504
 21
207.260383305
  0
LINE
  8
1
  6
CONTINUOUS
 10
442.3526042504
 20
168.9103841901
 11
440.8526235623
 21
168.9103841901
  0
LINE
  8
1
  6
CONTINUOUS
 10
442.3526042504
 20
207.260383305
 11
442.3526042504
 21
168.9103841901
  0
LINE
  8
1
  6
CONTINUOUS
 10
442.3526042504
 20
212.8103834231
 11
440.8526235623
 21
212.8103834231
  0
LINE
  8
1
  6
CONTINUOUS
 10
440.8526235623
 20
210.3603831612
 11
442.3526042504
 21
210.3603831612
  0
LINE
  8
1
  6
CONTINUOUS
 10
442.3526042504
 20
212.8103834231
 11
442.3526042504
 21
210.3603831612
  0
LINE
  8
1
  6
CONTINUOUS
 10
440.0526100202
 20
169.400382799
 11
440.8526235623
 21
169.400382799
  0
LINE
  8
1
  6
CONTINUOUS
 10
440.0526100202
 20
176.2003824234
 11
440.0526100202
 21
169.400382799
  0
ARC
  8
1
  6
CONTINUOUS
 10
439.8526148839
 20
176.2003833247
 40
1.0
 50
359.9999999999984
 51
90.0
  0
ARC
  8
1
  6
CONTINUOUS
 10
439.8526148839
 20
176.2003833247
 40
0.2000000000000455
 50
8.142219984544752E-012
 51
90.0
  0
LINE
  8
1
  6
CONTINUOUS
 10
434.3526178403
 20
177.20038445
 11
439.8526066346
 21
177.20038445
  0
LINE
  8
1
  6
CONTINUOUS
 10
434.3526178403
 20
176.4003820837
 11
439.8526066346
 21
176.4003820837
  0
ARC
  8
1
  6
CONTINUOUS
 10
434.3526148839001
 20
177.4003833247
 40
0.2000000000000455
 50
180.0000000000081
 51
270.0
  0
ARC
  8
1
  6
CONTINUOUS
 10
434.3526148839
 20
177.4003833247
 40
1.0
 50
179.9999999999984
 51
270.0
  0
LINE
  8
1
  6
CONTINUOUS
 10
434.1526144548
 20
182.5003847599
 11
433.3526009126
 21
182.5003847599
  0
LINE
  8
1
  6
CONTINUOUS
 10
434.1526144548
 20
182.5003847599
 11
434.1526144548
 21
177.4003841103
  0
ARC
  8
1
  6
CONTINUOUS
 10
439.8526148839
 20
205.5603833247
 40
0.9999999999999716
 50
270.0
 51
1.628443996909413E-012
  0
ARC
  8
1
  6
CONTINUOUS
 10
439.8526148839
 20
205.5603833247
 40
0.2000000000000171
 50
270.0
 51
359.9999999999919
  0
LINE
  8
1
  6
CONTINUOUS
 10
440.0526100202
 20
212.3603832562
 11
440.8526235623
 21
212.3603832562
  0
LINE
  8
1
  6
CONTINUOUS
 10
440.0526100202
 20
205.5603833989
 11
440.0526100202
 21
212.3603832562
  0
LINE
  8
1
  6
CONTINUOUS
 10
434.3526178403
 20
205.3603837386
 11
439.8526066346
 21
205.3603837386
  0
LINE
  8
1
  6
CONTINUOUS
 10
434.3526178403
 20
204.560383235
 11
439.8526066346
 21
204.560383235
  0
LINE
  8
1
  6
CONTINUOUS
 10
434.1526144548
 20
199.2603838563
 11
433.3526009126
 21
199.2603838563
  0
LINE
  8
1
  6
CONTINUOUS
 10
434.1526144548
 20
199.2603838563
 11
434.1526144548
 21
204.3603835747
  0
ARC
  8
1
  6
CONTINUOUS
 10
434.3526148838999
 20
204.3603833247001
 40
0.1999999999999034
 50
90.0
 51
180.0000000000326
  0
ARC
  8
1
  6
CONTINUOUS
 10
434.3526148839
 20
204.3603833247
 40
0.9999999999999716
 50
90.0
 51
180.0000000000016
  0
LINE
  8
1
  6
CONTINUOUS
 10
439.8526066346
 20
199.21038301
 11
433.3526009126
 21
199.21038301
  0
LINE
  8
1
  6
CONTINUOUS
 10
439.8526066346
 20
197.7903824419
 11
433.3526009126
 21
197.7903824419
  0
LINE
  8
1
  6
CONTINUOUS
 10
433.3526009126
 20
197.7903824419
 11
433.3526009126
 21
191.5903836608
  0
LINE
  8
1
  6
CONTINUOUS
 10
439.8526066346
 20
191.5903836608
 11
433.3526009126
 21
191.5903836608
  0
LINE
  8
1
  6
CONTINUOUS
 10
439.8526066346
 20
177.20038445
 11
439.8526066346
 21
204.560383235
  0
LINE
  8
1
  6
CONTINUOUS
 10
439.8526066346
 20
190.1703830928
 11
433.3526009126
 21
190.1703830928
  0
LINE
  8
1
  6
CONTINUOUS
 10
433.3526009126
 20
190.1703830928
 11
433.3526009126
 21
183.9703843117
  0
LINE
  8
1
  6
CONTINUOUS
 10
439.8526066346
 20
183.9703843117
 11
433.3526009126
 21
183.9703843117
  0
LINE
  8
1
  6
CONTINUOUS
 10
439.8526066346
 20
182.550381881
 11
433.3526009126
 21
182.550381881
  0
LINE
  8
1
  6
CONTINUOUS
 10
433.3526009126
 20
182.550381881
 11
433.3526009126
 21
176.3503849626
  0
LINE
  8
1
  6
CONTINUOUS
 10
439.8526066346
 20
176.3503849626
 11
433.3526009126
 21
176.3503849626
  0
LINE
  8
1
  6
CONTINUOUS
 10
439.8526066346
 20
174.9053821087
 11
439.8526066346
 21
176.4003820837
  0
LINE
  8
1
  6
CONTINUOUS
 10
439.8526066346
 20
206.8553837136
 11
432.05262361
 21
206.8553837136
  0
LINE
  8
1
  6
CONTINUOUS
 10
439.8526066346
 20
205.3603837386
 11
439.8526066346
 21
206.8553837136
  0
LINE
  8
1
  6
CONTINUOUS
 10
439.8526066346
 20
205.4103836537
 11
433.3526009126
 21
205.4103836537
  0
LINE
  8
1
  6
CONTINUOUS
 10
433.3526009126
 20
205.4103836537
 11
433.3526009126
 21
199.21038301
  0
LINE
  8
1
  6
CONTINUOUS
 10
439.8526066346
 20
174.9053821087
 11
432.05262361
 21
174.9053821087
  0
LINE
  8
1
  6
CONTINUOUS
 10
434.3526178403
 20
190.0703832627
 11
434.3526178403
 21
184.0703822792
  0
LINE
  8
1
  6
CONTINUOUS
 10
434.3526178403
 20
197.6903826118
 11
434.3526178403
 21
191.690383491
  0
LINE
  8
1
  6
CONTINUOUS
 10
442.3526042504
 20
210.3103832461
 11
442.3526042504
 21
207.3103832201
  0
LINE
  8
1
  6
CONTINUOUS
 10
443.0526011987
 20
211.810383492
 11
443.0526011987
 21
205.8103829742
  0
LINE
  8
1
  6
CONTINUOUS
 10
437.0526188417
 20
210.3103832461
 11
437.0526188417
 21
207.3103832201
  0
LINE
  8
1
  6
CONTINUOUS
 10
434.852611403
 20
204.560383235
 11
434.852611403
 21
199.3103828401
  0
LINE
  8
1
  6
CONTINUOUS
 10
443.0526011987
 20
170.160382998
 11
443.0526011987
 21
176.1603839815
  0
LINE
  8
1
  6
CONTINUOUS
 10
437.0526188417
 20
171.6603823126
 11
437.0526188417
 21
174.660384667
  0
LINE
  8
1
  6
CONTINUOUS
 10
434.852611403
 20
182.4503839136
 11
434.852611403
 21
177.20038445
  0
LINE
  8
1
  6
CONTINUOUS
 10
436.8526154561
 20
174.9053821087
 11
436.8526154561
 21
155.8803841591
  0
LINE
  8
1
  6
CONTINUOUS
 10
436.8526154561
 20
207.8803833694
 11
436.8526154561
 21
206.8553837136
  0
LINE
  8
1
  6
CONTINUOUS
 10
429.3526226087
 20
295.1303869606
 11
441.8526106877
 21
295.1303869606
  0
LINE
  8
1
  6
CONTINUOUS
 10
441.8526106877
 20
281.1303809405
 11
441.8526106877
 21
295.1303869606
  0
LINE
  8
1
  6
CONTINUOUS
 10
441.8526106877
 20
281.1303809405
 11
429.3526226087
 21
281.1303809405
  0
LINE
  8
1
  6
CONTINUOUS
 10
436.8526154561
 20
296.1303815365
 11
429.3526226087
 21
296.1303815365
  0
LINE
  8
1
  6
CONTINUOUS
 10
436.8526154561
 20
295.1303869606
 11
436.8526154561
 21
296.1303815365
  0
LINE
  8
1
  6
CONTINUOUS
 10
441.8526106877
 20
151.1303857089
 11
429.3526226087
 21
151.1303857089
  0
LINE
  8
1
  6
CONTINUOUS
 10
429.3526226087
 20
136.1303851128
 11
429.3526226087
 21
151.3803824902
  0
LINE
  8
1
  6
CONTINUOUS
 10
441.8526106877
 20
137.1303796888
 11
441.8526106877
 21
151.1303857089
  0
LINE
  8
1
  6
CONTINUOUS
 10
441.8526106877
 20
137.1303796888
 11
429.3526226087
 21
137.1303796888
  0
LINE
  8
1
  6
CONTINUOUS
 10
436.8526154561
 20
137.1303796888
 11
436.8526154561
 21
136.1303851128
  0
LINE
  8
1
  6
CONTINUOUS
 10
436.8526154561
 20
136.1303851128
 11
429.3526226087
 21
136.1303851128
  0
LINE
  8
1
  6
CONTINUOUS
 10
181.8526146366
 20
136.1303851128
 11
181.8526146366
 21
296.1303815365
  0
LINE
  8
1
  6
CONTINUOUS
 10
161.8526150836
 20
140.1303857685
 11
161.8526150836
 21
292.1303808809
  0
LINE
  8
1
  6
CONTINUOUS
 10
161.8526150836
 20
282.6303839803
 11
181.8526146366
 21
282.6303839803
  0
LINE
  8
1
  6
CONTINUOUS
 10
165.8526149243
 20
296.1303815365
 11
181.8526146366
 21
296.1303815365
  0
ARC
  8
1
  6
CONTINUOUS
 10
165.8526148839
 20
292.1303833247001
 40
3.999999999999943
 50
90.0
 51
180.0000000000008
  0
LINE
  8
1
  6
CONTINUOUS
 10
181.8526146366
 20
136.1303851128
 11
165.8526149243
 21
136.1303851128
  0
ARC
  8
1
  6
CONTINUOUS
 10
165.8526148839
 20
140.1303833247
 40
4.0
 50
180.0
 51
270.0
  0
LINE
  8
1
  6
CONTINUOUS
 10
161.8526150836
 20
149.630382669
 11
181.8526146366
 21
149.630382669
  0
LINE
  8
1
  6
CONTINUOUS
 10
508.8491282079
 20
301.6303833247
 11
508.8491282079
 21
298.8303833247
  0
LINE
  8
1
  6
CONTINUOUS
 10
516.8491282079
 20
298.8303833247
 11
516.8491282079
 21
301.6303833247
  0
LINE
  8
1
  6
CONTINUOUS
 10
516.8491282079
 20
130.6303833247
 11
516.8491282079
 21
133.4303833247
  0
LINE
  8
1
  6
CONTINUOUS
 10
508.8491282079
 20
133.4303833247
 11
508.8491282079
 21
130.6303833247
  0
LINE
  8
1
  6
CONTINUOUS
 10
505.2991282079
 20
275.7801224502
 11
505.2991282079
 21
275.6303833247
  0
LINE
  8
1
  6
CONTINUOUS
 10
504.0991282079
 20
275.6303833247
 11
504.0991282079
 21
275.8303833247
  0
LINE
  8
1
  6
CONTINUOUS
 10
500.5991282079
 20
275.8303833247
 11
500.5991282079
 21
275.6303833247
  0
LINE
  8
1
  6
CONTINUOUS
 10
499.3991282079
 20
275.6303833247
 11
499.3991282079
 21
275.7715660969
  0
LINE
  8
1
  6
CONTINUOUS
 10
520.6920680519
 20
245.4396687654
 11
523.8662508006
 21
248.6138515141
  0
LINE
  8
1
  6
CONTINUOUS
 10
518.9563630496
 20
243.7039637631
 11
519.9588402650001
 21
244.7064409785
  0
LINE
  8
1
  6
CONTINUOUS
 10
518.9566472435
 20
245.4013042318
 11
518.1078349122
 21
244.5524919005
  0
LINE
  8
1
  6
CONTINUOUS
 10
522.9190380370001
 20
249.3636950254
 11
519.7045573745
 21
246.1492143628
  0
LINE
  8
1
  6
CONTINUOUS
 10
522.8246898672001
 20
223.0772062314
 11
528.5447310025
 21
217.3571650961
  0
LINE
  8
1
  6
CONTINUOUS
 10
522.3189596191
 20
229.9468975102
 11
525.4919320976001
 21
226.7739250317
  0
LINE
  8
1
  6
CONTINUOUS
 10
520.5827086463
 20
231.6831484829
 11
521.5858905182
 21
230.679966611
  0
LINE
  8
1
  6
CONTINUOUS
 10
522.283559095
 20
231.6793543091
 11
521.4312367837
 21
232.5316766204
  0
LINE
  8
1
  6
CONTINUOUS
 10
526.2433251158001
 20
227.7195882883
 11
523.0331912823
 21
230.9297221218
  0
LINE
  8
1
  6
CONTINUOUS
 10
523.5491254379
 20
241.9327651207
 11
526.8165199768
 21
245.2001596597
  0
LINE
  8
1
  6
CONTINUOUS
 10
522.1383435649
 20
240.5219832478
 11
522.7778264946001
 21
241.1614661774
  0
LINE
  8
1
  6
CONTINUOUS
 10
522.1742308114
 20
242.2549267691
 11
521.2898154275
 21
241.3705113852
  0
LINE
  8
1
  6
CONTINUOUS
 10
526.1255053251
 20
246.2062012828
 11
522.9216554116
 21
243.0023513693
  0
LINE
  8
1
  6
CONTINUOUS
 10
518.8104878882
 20
227.0914082104
 11
522.0807798614001
 21
223.8211162372
  0
LINE
  8
1
  6
CONTINUOUS
 10
517.4007281310001
 20
228.5011679676
 11
518.0416377371
 21
227.8602583615
  0
LINE
  8
1
  6
CONTINUOUS
 10
519.1340733854
 20
228.464878988
 11
518.2492562684
 21
229.349696105
  0
LINE
  8
1
  6
CONTINUOUS
 10
523.0800742267001
 20
224.5188781468
 11
519.8781055934001
 21
227.7208467801
  0
LINE
  8
1
  6
CONTINUOUS
 10
526.9830362426001
 20
226.9798771615
 11
530.1022124442001
 21
223.8607009599
  0
LINE
  8
1
  6
CONTINUOUS
 10
506.8245342762
 20
228.3194437962
 11
503.6503428455
 21
225.1452523656
  0
LINE
  8
1
  6
CONTINUOUS
 10
508.5618933661
 20
230.0568028862
 11
507.5564488904
 21
229.0513584105
  0
LINE
  8
1
  6
CONTINUOUS
 10
508.5600931510001
 20
228.3579463962
 11
509.4104215036
 21
229.2082747488
  0
LINE
  8
1
  6
CONTINUOUS
 10
504.5987275521
 20
224.3965807973
 11
507.8093435587
 21
227.6071968039
  0
LINE
  8
1
  6
CONTINUOUS
 10
508.7066127786
 20
246.6705141879
 11
505.4370282436
 21
249.9400987229
  0
LINE
  8
1
  6
CONTINUOUS
 10
510.1175282848
 20
245.2595986817
 11
509.4666357514
 21
245.9104912151
  0
LINE
  8
1
  6
CONTINUOUS
 10
508.3830188942
 20
245.2970517974
 11
509.2690001473
 21
244.4110705443
  0
LINE
  8
1
  6
CONTINUOUS
 10
504.4332100037
 20
249.246860688
 11
507.638675087
 21
246.0413956046
  0
LINE
  8
1
  6
CONTINUOUS
 10
500.75885025
 20
252.9212204417
 11
503.700069016
 21
249.9800016756
  0
LINE
  8
1
  6
CONTINUOUS
 10
500.5315738305
 20
222.0264833506
 11
502.9212318498
 21
224.4161413698
  0
LINE
  8
1
  6
CONTINUOUS
 10
500.7394458431
 20
220.5372990883
 11
503.8588176432
 21
223.6566708884
  0
LINE
  8
1
  6
CONTINUOUS
 10
498.9052282338
 20
250.107937702
 11
501.2937568084
 21
247.7194091274
  0
LINE
  8
1
  6
CONTINUOUS
 10
505.1996175268
 20
243.813548409
 11
502.0184340507
 21
246.9947318851
  0
LINE
  8
1
  6
CONTINUOUS
 10
506.9355477694001
 20
242.0776181664
 11
505.9346126669
 21
243.0785532689
  0
LINE
  8
1
  6
CONTINUOUS
 10
505.2373075321
 20
242.0788021288
 11
506.087019632
 21
241.229090029
  0
LINE
  8
1
  6
CONTINUOUS
 10
501.2746844143
 20
246.0414252466
 11
504.4896914742
 21
242.8264181868
  0
LINE
  8
1
  6
CONTINUOUS
 10
494.2359099793
 20
222.0947805301
 11
499.9546923951
 21
227.8135629459
  0
LINE
  8
1
  6
CONTINUOUS
 10
503.9682038206
 20
231.8270743713
 11
500.7007412376
 21
228.5596117884
  0
LINE
  8
1
  6
CONTINUOUS
 10
505.3799128508
 20
233.2387834016
 11
504.739569096
 21
232.5984396468
  0
LINE
  8
1
  6
CONTINUOUS
 10
505.344981628
 20
231.5067959039
 11
506.2284409882
 21
232.3902552641
  0
LINE
  8
1
  6
CONTINUOUS
 10
501.3927207906
 20
227.5545350665
 11
504.5985749525
 21
230.7603892284
  0
ARC
  8
1
  6
CONTINUOUS
 10
513.7591282079001
 20
236.8803833247002
 40
9.900000000000148
 50
238.2342457486004
 51
295.7148153511994
  0
ARC
  8
1
  6
CONTINUOUS
 10
513.7591282078978
 20
236.8803833247025
 40
9.900000000003413
 50
302.0381489591034
 51
322.2488194297969
  0
ARC
  8
1
  6
CONTINUOUS
 10
513.7591282078998
 20
236.8803833247
 40
9.900000000000285
 50
328.7315878885005
 51
25.2215606729993
  0
ARC
  8
1
  6
CONTINUOUS
 10
513.7591282079028
 20
236.8803833247025
 40
9.899999999996364
 50
31.91897685339637
 51
52.17128477940391
  0
ARC
  8
1
  6
CONTINUOUS
 10
513.7591282079001
 20
236.8803833247001
 40
9.900000000000008
 50
58.18798184389958
 51
115.7593437970999
  0
ARC
  8
1
  6
CONTINUOUS
 10
513.7591282079005
 20
236.8803833246995
 40
9.900000000000613
 50
122.4570315598006
 51
142.1378038778993
  0
ARC
  8
1
  6
CONTINUOUS
 10
513.7591282079001
 20
236.8803833247
 40
9.899999999999963
 50
148.2509140651001
 51
205.6718874858
  0
ARC
  8
1
  6
CONTINUOUS
 10
513.7591282079005
 20
236.8803833247003
 40
9.90000000000048
 50
211.9983074002001
 51
231.6706298166992
  0
ARC
  8
1
  6
CONTINUOUS
 10
513.7591282078988
 20
236.8803833246989
 40
11.10000000000174
 50
33.36543530680106
 51
51.34364877589862
  0
ARC
  8
1
  6
CONTINUOUS
 10
513.7591282079003
 20
236.8803833247
 40
11.09999999999988
 50
326.8387289243992
 51
27.4341442965001
  0
ARC
  8
1
  6
CONTINUOUS
 10
513.7591282079021
 20
236.8803833246978
 40
11.09999999999708
 50
303.4235363607976
 51
320.9467201539021
  0
ARC
  8
1
  6
CONTINUOUS
 10
513.7591282079001
 20
236.8803833246999
 40
11.09999999999998
 50
237.2226818088996
 51
297.4341442964999
  0
ARC
  8
1
  6
CONTINUOUS
 10
513.7591282079002
 20
236.8803833247001
 40
11.10000000000015
 50
213.8315770866002
 51
231.3624522872
  0
ARC
  8
1
  6
CONTINUOUS
 10
513.7591282079003
 20
236.8803833247
 40
11.10000000000011
 50
146.7652859387005
 51
207.8844445386993
  0
ARC
  8
1
  6
CONTINUOUS
 10
513.7591282079002
 20
236.8803833246998
 40
11.10000000000022
 50
123.4158897974997
 51
140.9467201538994
  0
ARC
  8
1
  6
CONTINUOUS
 10
513.7591282079001
 20
236.8803833247
 40
11.1000000000001
 50
57.22268180889999
 51
117.4341442965
  0
ARC
  8
1
  6
CONTINUOUS
 10
513.75912820792
 20
236.8803833247213
 40
15.40000000002865
 50
216.6519350664193
 51
229.5956506016949
  0
ARC
  8
1
  6
CONTINUOUS
 10
513.7591282079001
 20
236.8803833246998
 40
15.39999999999993
 50
233.4577872417996
 51
302.7875198402001
  0
ARC
  8
1
  6
CONTINUOUS
 10
513.7591282078971
 20
236.8803833247032
 40
15.4000000000044
 50
306.6606681076019
 51
319.6332856788982
  0
ARC
  8
1
  6
CONTINUOUS
 10
513.7591282079001
 20
236.8803833247
 40
15.40000000000008
 50
323.477051114
 51
32.43585584430006
  0
ARC
  8
1
  6
CONTINUOUS
 10
513.7591282078986
 20
236.8803833246988
 40
15.400000000002
 50
36.62831230550041
 51
49.2825674655987
  0
ARC
  8
1
  6
CONTINUOUS
 10
513.7591282079001
 20
236.8803833247002
 40
15.39999999999995
 50
53.4348891261995
 51
122.7464776407002
  0
ARC
  8
1
  6
CONTINUOUS
 10
513.759128207899
 20
236.8803833247012
 40
15.39999999999839
 50
126.6454205943995
 51
139.5778215259008
  0
ARC
  8
1
  6
CONTINUOUS
 10
513.7591282079002
 20
236.8803833247
 40
15.40000000000009
 50
143.4242410627001
 51
212.7492911425997
  0
ARC
  8
1
  6
CONTINUOUS
 10
513.7591282078907
 20
236.8803833246918
 40
16.60000000001246
 50
37.25070041620317
 51
49.26048837619392
  0
ARC
  8
1
  6
CONTINUOUS
 10
513.7591282078997
 20
236.8803833247
 40
16.60000000000042
 50
322.8836314519007
 51
33.35733920949934
  0
ARC
  8
1
  6
CONTINUOUS
 10
513.7591282078956
 20
236.8803833247049
 40
16.60000000000662
 50
307.3101050165019
 51
318.9724677841974
  0
ARC
  8
1
  6
CONTINUOUS
 10
513.7591282079001
 20
236.8803833247
 40
16.59999999999998
 50
233.138489399
 51
303.3573392095
  0
ARC
  8
1
  6
CONTINUOUS
 10
513.759128207898
 20
236.8803833246982
 40
16.59999999999724
 50
217.5582555458992
 51
229.2606201685011
  0
ARC
  8
1
  6
CONTINUOUS
 10
513.7591282079002
 20
236.8803833247
 40
16.60000000000002
 50
142.8587109926004
 51
213.6136105522999
  0
ARC
  8
1
  6
CONTINUOUS
 10
513.7591282079013
 20
236.8803833246987
 40
16.60000000000179
 50
127.2680161359008
 51
138.9724677841996
  0
ARC
  8
1
  6
CONTINUOUS
 10
513.7591282079001
 20
236.8803833247
 40
16.59999999999999
 50
53.13848939900026
 51
123.3573392094999
  0
LINE
  8
1
  6
CONTINUOUS
 10
527.5658726136001
 20
245.9495122965
 11
533.2823464364001
 21
251.6659861193
  0
LINE
  8
1
  6
CONTINUOUS
 10
523.8170619408
 20
223.7818904327
 11
526.7594061658
 21
220.8395462077
  0
LINE
  8
1
  6
CONTINUOUS
 10
497.4160439715
 20
249.9000656895
 11
500.5391275242
 21
246.7769821367
  0
LINE
  8
1
  6
CONTINUOUS
 10
526.8610508487001
 20
246.9417468064
 11
529.7999653249
 21
249.8806612826
  0
ARC
  8
1
  6
CONTINUOUS
 10
530.5670563967003
 20
219.3794904902998
 40
1.639999999999629
 50
314.9999999999986
 51
350.774504194607
  0
ARC
  8
1
  6
CONTINUOUS
 10
530.5670563967001
 20
219.3794904903
 40
2.839999999999908
 50
314.9999999999996
 51
40.04000934820292
  0
ARC
  8
1
  6
CONTINUOUS
 10
531.2741631779001
 20
253.6741693778
 40
1.639999999999991
 50
334.7637361216013
 51
45.00000000000281
  0
ARC
  8
1
  6
CONTINUOUS
 10
531.2741631779001
 20
253.6741693778
 40
2.839999999999908
 50
314.9999999999996
 51
45.00000000000041
  0
ARC
  8
1
  6
CONTINUOUS
 10
531.2600210422003
 20
253.6883115135002
 40
1.63999999999973
 50
44.9999999999993
 51
80.77450419510649
  0
ARC
  8
1
  6
CONTINUOUS
 10
531.2600210422
 20
253.6883115135
 40
2.840000000000069
 50
45.00000000000041
 51
130.0400093480006
  0
LINE
  8
1
  6
CONTINUOUS
 10
533.2823464364001
 20
255.6823526364
 11
533.2682043008
 21
255.696494772
  0
LINE
  8
1
  6
CONTINUOUS
 10
532.4196761634
 20
254.8479666346
 11
532.433818299
 21
254.833824499
  0
LINE
  8
1
  6
CONTINUOUS
 10
523.6550962481
 20
250.0997532365
 11
526.7788105727
 21
253.223467561
  0
LINE
  8
1
  6
CONTINUOUS
 10
524.5976440693
 20
249.3452447829
 11
526.9866825852
 21
251.7342832987
  0
LINE
  8
1
  6
CONTINUOUS
 10
532.5610975196
 20
217.3571650961
 11
532.5752396552
 21
217.3713072317
  0
LINE
  8
1
  6
CONTINUOUS
 10
531.7267115178
 20
218.2198353692
 11
531.7125693822001
 21
218.2056932335
  0
LINE
  8
1
  6
CONTINUOUS
 10
526.2236967437
 20
226.0421603856
 11
528.6130281819001
 21
223.6528289473
  0
ARC
  8
1
  6
CONTINUOUS
 10
530.5529142610001
 20
219.3653483546999
 40
1.639999999999869
 50
244.7637361213984
 51
315.0000000000014
  0
ARC
  8
1
  6
CONTINUOUS
 10
530.5529142610001
 20
219.3653483546999
 40
2.839999999999928
 50
224.9999999999976
 51
315.0000000000024
  0
LINE
  8
1
  6
CONTINUOUS
 10
498.9735254133
 20
256.4036015532
 11
504.6911146755001
 21
250.686012291
  0
LINE
  8
1
  6
CONTINUOUS
 10
494.9571588961
 20
256.4036015532
 11
494.9430167605
 21
256.3894594176
  0
LINE
  8
1
  6
CONTINUOUS
 10
495.7915448979
 20
255.5409312802
 11
495.8056870335
 21
255.5550734158
  0
LINE
  8
1
  6
CONTINUOUS
 10
494.2359099793
 20
218.0784140129
 11
494.2500521149
 21
218.0642718773
  0
LINE
  8
1
  6
CONTINUOUS
 10
495.0985802524
 20
218.9128000147
 11
495.0844381167
 21
218.9269421503
  0
ARC
  8
1
  6
CONTINUOUS
 10
496.2440932378999
 20
220.0865972715
 40
1.639999999999856
 50
154.7637361213971
 51
225.0000000000042
  0
ARC
  8
1
  6
CONTINUOUS
 10
496.2440932379001
 20
220.0865972715
 40
2.840000000000089
 50
135.0000000000008
 51
224.9999999999992
  0
LINE
  8
1
  6
CONTINUOUS
 10
497.7182910909
 20
223.8801053668
 11
500.6572757417
 21
226.8190900176
  0
ARC
  8
1
  6
CONTINUOUS
 10
496.9512000191003
 20
254.3812761589998
 40
1.640000000000332
 50
135.0000000000021
 51
170.7745041946954
  0
ARC
  8
1
  6
CONTINUOUS
 10
496.9512000191
 20
254.381276159
 40
2.839999999999968
 50
135.0
 51
220.0400093481013
  0
ARC
  8
1
  6
CONTINUOUS
 10
496.2582353735
 20
220.0724551359
 40
1.640000000000011
 50
224.9999999999979
 51
260.7745041946996
  0
ARC
  8
1
  6
CONTINUOUS
 10
496.2582353735
 20
220.0724551359
 40
2.840000000000049
 50
225.0
 51
310.0400093482003
  0
ARC
  8
1
  6
CONTINUOUS
 10
496.9653421547
 20
254.3954182947001
 40
1.639999999999936
 50
64.76373612149827
 51
135.0000000000014
  0
ARC
  8
1
  6
CONTINUOUS
 10
496.9653421547
 20
254.3954182946999
 40
2.840000000000089
 50
45.00000000000081
 51
134.9999999999992
  0
ARC
  8
1
  6
CONTINUOUS
 10
494.1382483495003
 20
268.8803833247002
 40
0.9999999999997645
 50
16.95776329999578
 51
41.40147712960168
  0
ARC
  8
1
  6
CONTINUOUS
 10
488.3991282079009
 20
267.1303833247003
 40
6.999999999999105
 50
6.852238334998502
 51
16.95776329999976
  0
LINE
  8
1
  6
CONTINUOUS
 10
508.8491282079
 20
301.6303833247
 11
516.8491282079
 21
301.6303833247
  0
LINE
  8
1
  6
CONTINUOUS
 10
516.8491282079
 20
130.6303833247
 11
508.8491282079
 21
130.6303833247
  0
LINE
  8
1
  6
CONTINUOUS
 10
479.8491282079
 20
298.8303833247
 11
545.8491282079
 21
298.8303833247
  0
LINE
  8
1
  6
CONTINUOUS
 10
545.8491282079
 20
295.6303833247
 11
545.8491282079
 21
317.6303833247
  0
LINE
  8
1
  6
CONTINUOUS
 10
530.3491282079
 20
295.6303833247
 11
545.8491282079
 21
295.6303833247
  0
LINE
  8
1
  6
CONTINUOUS
 10
479.8491282079
 20
295.6303833247
 11
495.3491282079
 21
295.6303833247
  0
LINE
  8
1
  6
CONTINUOUS
 10
479.8491282079
 20
295.6303833247
 11
479.8491282079
 21
317.6303833247
  0
ARC
  8
1
  6
CONTINUOUS
 10
482.8491282079
 20
317.6303833247001
 40
2.999999999999943
 50
90.0
 51
180.0000000000011
  0
LINE
  8
1
  6
CONTINUOUS
 10
482.8491282079
 20
320.6303833247
 11
542.8491282079
 21
320.6303833247
  0
ARC
  8
1
  6
CONTINUOUS
 10
542.8491282079001
 20
317.6303833247001
 40
2.999999999999886
 50
359.9999999999989
 51
90.0
  0
LINE
  8
1
  6
CONTINUOUS
 10
495.5991282079
 20
311.8803833247
 11
495.5991282079
 21
314.3803833247
  0
ARC
  8
1
  6
CONTINUOUS
 10
492.8491282079
 20
314.3803833247
 40
2.75
 50
0.0
 51
180.0
  0
LINE
  8
1
  6
CONTINUOUS
 10
490.0991282079
 20
314.3803833247
 11
490.0991282079
 21
311.8803833247
  0
ARC
  8
1
  6
CONTINUOUS
 10
492.8491282079
 20
311.8803833247
 40
2.75
 50
180.0
 51
0.0
  0
LINE
  8
1
  6
CONTINUOUS
 10
535.5991282079
 20
311.8803833247
 11
535.5991282079
 21
314.3803833247
  0
ARC
  8
1
  6
CONTINUOUS
 10
532.8491282079
 20
314.3803833247
 40
2.75
 50
0.0
 51
180.0
  0
LINE
  8
1
  6
CONTINUOUS
 10
530.0991282079
 20
314.3803833247
 11
530.0991282079
 21
311.8803833247
  0
ARC
  8
1
  6
CONTINUOUS
 10
532.8491282079
 20
311.8803833247
 40
2.75
 50
180.0
 51
0.0
  0
LINE
  8
1
  6
CONTINUOUS
 10
545.8491282079
 20
114.6303833247
 11
545.8491282079
 21
136.6303833247
  0
LINE
  8
1
  6
CONTINUOUS
 10
479.8491282079
 20
133.4303833247
 11
545.8491282079
 21
133.4303833247
  0
LINE
  8
1
  6
CONTINUOUS
 10
530.3491282079
 20
136.6303833247
 11
545.8491282079
 21
136.6303833247
  0
LINE
  8
1
  6
CONTINUOUS
 10
479.8491282079
 20
136.6303833247
 11
495.3491282079
 21
136.6303833247
  0
LINE
  8
1
  6
CONTINUOUS
 10
479.8491282079
 20
114.6303833247
 11
479.8491282079
 21
136.6303833247
  0
LINE
  8
1
  6
CONTINUOUS
 10
542.8491282079
 20
111.6303833247
 11
482.8491282079
 21
111.6303833247
  0
ARC
  8
1
  6
CONTINUOUS
 10
482.8491282079
 20
114.6303833247
 40
2.999999999999943
 50
179.9999999999992
 51
270.0
  0
LINE
  8
1
  6
CONTINUOUS
 10
530.0991282079
 20
120.3803833247
 11
530.0991282079
 21
117.8803833247
  0
ARC
  8
1
  6
CONTINUOUS
 10
532.8491282079
 20
117.8803833247
 40
2.75
 50
180.0
 51
0.0
  0
LINE
  8
1
  6
CONTINUOUS
 10
535.5991282079
 20
117.8803833247
 11
535.5991282079
 21
120.3803833247
  0
ARC
  8
1
  6
CONTINUOUS
 10
532.8491282079
 20
120.3803833247
 40
2.75
 50
0.0
 51
180.0
  0
LINE
  8
1
  6
CONTINUOUS
 10
490.0991282079
 20
120.3803833247
 11
490.0991282079
 21
117.8803833247
  0
ARC
  8
1
  6
CONTINUOUS
 10
492.8491282079
 20
117.8803833247
 40
2.75
 50
180.0
 51
0.0
  0
LINE
  8
1
  6
CONTINUOUS
 10
495.5991282079
 20
117.8803833247
 11
495.5991282079
 21
120.3803833247
  0
ARC
  8
1
  6
CONTINUOUS
 10
492.8491282079
 20
120.3803833247
 40
2.75
 50
0.0
 51
180.0
  0
ARC
  8
1
  6
CONTINUOUS
 10
542.8491282079001
 20
114.6303833247
 40
2.999999999999957
 50
270.0
 51
8.142219984546603E-013
  0
LINE
  8
1
  6
CONTINUOUS
 10
509.3491282079
 20
269.9303833247
 11
509.7852644846
 21
269.9303833247
  0
LINE
  8
1
  6
CONTINUOUS
 10
509.3491282079
 20
269.4303833247
 11
509.8389343551
 21
269.4303833247
  0
LINE
  8
1
  6
CONTINUOUS
 10
497.9265781517
 20
262.8303833247
 11
506.791678264
 21
262.8303833247
  0
LINE
  8
1
  6
CONTINUOUS
 10
495.3491282079
 20
271.5468228983
 11
495.3491282079
 21
266.213943751
  0
CIRCLE
  8
1
  6
CONTINUOUS
 10
502.3491282079
 20
269.1303833247
 40
4.499999999999943
  0
LINE
  8
1
  6
CONTINUOUS
 10
509.3491282079
 20
266.1619462737
 11
509.3491282079
 21
271.5988203756
  0
LINE
  8
1
  6
CONTINUOUS
 10
505.6283024155
 20
275.6303833247
 11
499.0899540002
 21
275.6303833247
  0
CIRCLE
  8
1
  6
CONTINUOUS
 10
502.3491282079
 20
269.1303833247
 40
3.999999999999943
  0
LINE
  8
1
  6
CONTINUOUS
 10
501.2491282079
 20
275.8303833247
 11
501.2491282079
 21
275.6303833247
  0
LINE
  8
1
  6
CONTINUOUS
 10
503.4491282079
 20
275.8303833247
 11
503.4491282079
 21
275.6303833247
  0
LINE
  8
1
  6
CONTINUOUS
 10
509.5735235394
 20
270.9303833247
 11
509.3491282079
 21
270.9303833247
  0
LINE
  8
1
  6
CONTINUOUS
 10
505.1782592797
 20
275.8303833247
 11
499.5399971361
 21
275.8303833247
  0
LINE
  8
1
  6
CONTINUOUS
 10
499.3991282079
 20
275.6803833247
 11
500.5991282079
 21
275.6803833247
  0
LINE
  8
1
  6
CONTINUOUS
 10
504.0991282079
 20
275.6803833247
 11
505.2991282079
 21
275.6803833247
  0
LINE
  8
1
  6
CONTINUOUS
 10
509.7542279367
 20
267.6303833247
 11
509.3491282079
 21
267.6303833247
  0
CIRCLE
  8
1
  6
CONTINUOUS
 10
501.8491282079
 20
143.6303833247
 40
4.000000000000057
  0
LINE
  8
1
  6
CONTINUOUS
 10
499.9185885113
 20
144.288423202
 11
499.8139993044
 21
143.495289482
  0
LINE
  8
1
  6
CONTINUOUS
 10
503.7796679044
 20
142.9723434473
 11
503.8842571113
 21
143.7654771673
  0
LINE
  8
1
  6
CONTINUOUS
 10
503.8842571113
 20
143.7654771673
 11
502.2979896713
 21
143.9746555812
  0
LINE
  8
1
  6
CONTINUOUS
 10
502.1934004644
 20
143.1815218612
 11
503.7796679044
 21
142.9723434473
  0
LINE
  8
1
  6
CONTINUOUS
 10
501.9842220505
 20
141.5952544212
 11
502.1934004644
 21
143.1815218612
  0
LINE
  8
1
  6
CONTINUOUS
 10
501.1910883305
 20
141.6998436282
 11
501.9842220505
 21
141.5952544212
  0
LINE
  8
1
  6
CONTINUOUS
 10
501.4002667444
 20
143.2861110681
 11
501.1910883305
 21
141.6998436282
  0
LINE
  8
1
  6
CONTINUOUS
 10
502.2979896713
 20
143.9746555812
 11
502.5071680852
 21
145.5609230212
  0
LINE
  8
1
  6
CONTINUOUS
 10
501.5048559513
 20
144.0792447881
 11
499.9185885113
 21
144.288423202
  0
LINE
  8
1
  6
CONTINUOUS
 10
499.8139993044
 20
143.495289482
 11
501.4002667444
 21
143.2861110681
  0
LINE
  8
1
  6
CONTINUOUS
 10
501.7140343652
 20
145.6655122281
 11
501.5048559513
 21
144.0792447881
  0
LINE
  8
1
  6
CONTINUOUS
 10
502.5071680852
 20
145.5609230212
 11
501.7140343652
 21
145.6655122281
  0
LINE
  8
1
  6
CONTINUOUS
 10
523.1910883305001
 20
286.6998436282
 11
523.9842220505
 21
286.5952544212
  0
LINE
  8
1
  6
CONTINUOUS
 10
523.9842220505
 20
286.5952544212
 11
524.1934004644
 21
288.1815218612
  0
LINE
  8
1
  6
CONTINUOUS
 10
524.1934004644
 20
288.1815218612
 11
525.7796679044001
 21
287.9723434473
  0
LINE
  8
1
  6
CONTINUOUS
 10
525.7796679044001
 20
287.9723434473
 11
525.8842571113
 21
288.7654771673
  0
LINE
  8
1
  6
CONTINUOUS
 10
525.8842571113
 20
288.7654771673
 11
524.2979896713
 21
288.9746555812
  0
LINE
  8
1
  6
CONTINUOUS
 10
524.2979896713
 20
288.9746555812
 11
524.5071680852
 21
290.5609230212
  0
LINE
  8
1
  6
CONTINUOUS
 10
524.5071680852
 20
290.5609230212
 11
523.7140343652001
 21
290.6655122281
  0
LINE
  8
1
  6
CONTINUOUS
 10
523.7140343652001
 20
290.6655122281
 11
523.5048559513
 21
289.0792447881
  0
LINE
  8
1
  6
CONTINUOUS
 10
523.5048559513
 20
289.0792447881
 11
521.9185885113001
 21
289.288423202
  0
LINE
  8
1
  6
CONTINUOUS
 10
521.9185885113001
 20
289.288423202
 11
521.8139993044
 21
288.495289482
  0
LINE
  8
1
  6
CONTINUOUS
 10
521.8139993044
 20
288.495289482
 11
523.4002667444
 21
288.2861110681
  0
LINE
  8
1
  6
CONTINUOUS
 10
523.4002667444
 20
288.2861110681
 11
523.1910883305001
 21
286.6998436282
  0
CIRCLE
  8
1
  6
CONTINUOUS
 10
523.8491282079
 20
288.6303833247
 40
4.0
  0
LINE
  8
1
  6
CONTINUOUS
 10
523.1910883305001
 20
141.6998436282
 11
523.9842220505
 21
141.5952544212
  0
LINE
  8
1
  6
CONTINUOUS
 10
523.9842220505
 20
141.5952544212
 11
524.1934004644
 21
143.1815218612
  0
LINE
  8
1
  6
CONTINUOUS
 10
524.2979896713
 20
143.9746555812
 11
524.5071680852
 21
145.5609230212
  0
LINE
  8
1
  6
CONTINUOUS
 10
524.5071680852
 20
145.5609230212
 11
523.7140343652001
 21
145.6655122281
  0
LINE
  8
1
  6
CONTINUOUS
 10
523.7140343652001
 20
145.6655122281
 11
523.5048559513
 21
144.0792447881
  0
LINE
  8
1
  6
CONTINUOUS
 10
523.5048559513
 20
144.0792447881
 11
521.9185885113001
 21
144.288423202
  0
LINE
  8
1
  6
CONTINUOUS
 10
521.9185885113001
 20
144.288423202
 11
521.8139993044
 21
143.495289482
  0
LINE
  8
1
  6
CONTINUOUS
 10
521.8139993044
 20
143.495289482
 11
523.4002667444
 21
143.2861110681
  0
LINE
  8
1
  6
CONTINUOUS
 10
523.4002667444
 20
143.2861110681
 11
523.1910883305001
 21
141.6998436282
  0
LINE
  8
1
  6
CONTINUOUS
 10
524.1934004644
 20
143.1815218612
 11
525.7796679044001
 21
142.9723434473
  0
LINE
  8
1
  6
CONTINUOUS
 10
525.7796679044001
 20
142.9723434473
 11
525.8842571113
 21
143.7654771673
  0
LINE
  8
1
  6
CONTINUOUS
 10
525.8842571113
 20
143.7654771673
 11
524.2979896713
 21
143.9746555812
  0
CIRCLE
  8
1
  6
CONTINUOUS
 10
523.8491282079
 20
143.6303833247
 40
4.000000000000114
  0
CIRCLE
  8
1
  6
CONTINUOUS
 10
496.8491282079
 20
161.6303833247
 40
4.000000000000114
  0
LINE
  8
1
  6
CONTINUOUS
 10
497.1950668716
 20
161.1828049059
 11
498.7821010366
 21
160.979525396
  0
LINE
  8
1
  6
CONTINUOUS
 10
498.7821010366
 20
160.979525396
 11
498.8837407916
 21
161.7730424785
  0
LINE
  8
1
  6
CONTINUOUS
 10
497.2967066266
 20
161.9763219884
 11
497.4999861365
 21
163.5633561534
  0
LINE
  8
1
  6
CONTINUOUS
 10
496.706469054
 20
163.6649959084
 11
496.5031895441
 21
162.0779617434
  0
LINE
  8
1
  6
CONTINUOUS
 10
496.5031895441
 20
162.0779617434
 11
494.9161553791
 21
162.2812412533
  0
LINE
  8
1
  6
CONTINUOUS
 10
494.9161553791
 20
162.2812412533
 11
494.8145156241
 21
161.4877241708
  0
LINE
  8
1
  6
CONTINUOUS
 10
494.8145156241
 20
161.4877241708
 11
496.4015497891001
 21
161.2844446609
  0
LINE
  8
1
  6
CONTINUOUS
 10
496.9917873617
 20
159.595770741
 11
497.1950668716
 21
161.1828049059
  0
LINE
  8
1
  6
CONTINUOUS
 10
497.4999861365
 20
163.5633561534
 11
496.706469054
 21
163.6649959084
  0
LINE
  8
1
  6
CONTINUOUS
 10
498.8837407916
 20
161.7730424785
 11
497.2967066266
 21
161.9763219884
  0
LINE
  8
1
  6
CONTINUOUS
 10
496.1982702792
 20
159.6974104959
 11
496.9917873617
 21
159.595770741
  0
LINE
  8
1
  6
CONTINUOUS
 10
496.4015497891001
 20
161.2844446609
 11
496.1982702792
 21
159.6974104959
  0
CIRCLE
  8
1
  6
CONTINUOUS
 10
501.8491282079
 20
288.6303833247
 40
4.000000000000114
  0
LINE
  8
1
  6
CONTINUOUS
 10
503.7796679044
 20
287.9723434473
 11
503.8842571113
 21
288.7654771673
  0
LINE
  8
1
  6
CONTINUOUS
 10
503.8842571113
 20
288.7654771673
 11
502.2979896713
 21
288.9746555812
  0
LINE
  8
1
  6
CONTINUOUS
 10
502.5071680852
 20
290.5609230212
 11
501.7140343652
 21
290.6655122281
  0
LINE
  8
1
  6
CONTINUOUS
 10
499.9185885113
 20
289.288423202
 11
499.8139993044
 21
288.495289482
  0
LINE
  8
1
  6
CONTINUOUS
 10
501.1910883305
 20
286.6998436282
 11
501.9842220505
 21
286.5952544212
  0
LINE
  8
1
  6
CONTINUOUS
 10
502.2979896713
 20
288.9746555812
 11
502.5071680852
 21
290.5609230212
  0
LINE
  8
1
  6
CONTINUOUS
 10
499.8139993044
 20
288.495289482
 11
501.4002667444
 21
288.2861110681
  0
LINE
  8
1
  6
CONTINUOUS
 10
501.5048559513
 20
289.0792447881
 11
499.9185885113
 21
289.288423202
  0
LINE
  8
1
  6
CONTINUOUS
 10
502.1934004644
 20
288.1815218612
 11
503.7796679044
 21
287.9723434473
  0
LINE
  8
1
  6
CONTINUOUS
 10
501.7140343652
 20
290.6655122281
 11
501.5048559513
 21
289.0792447881
  0
LINE
  8
1
  6
CONTINUOUS
 10
501.9842220505
 20
286.5952544212
 11
502.1934004644
 21
288.1815218612
  0
LINE
  8
1
  6
CONTINUOUS
 10
501.4002667444
 20
288.2861110681
 11
501.1910883305
 21
286.6998436282
  0
LINE
  8
1
  6
CONTINUOUS
 10
481.3491282079
 20
151.3803833247
 11
488.0991282079
 21
151.3803833247
  0
LINE
  8
1
  6
CONTINUOUS
 10
481.3491282079
 20
280.8803833247
 11
488.0991282079
 21
280.8803833247
  0
LINE
  8
1
  6
CONTINUOUS
 10
488.0991282079
 20
151.3803833247
 11
488.0991282079
 21
280.8803833247
  0
LINE
  8
1
  6
CONTINUOUS
 10
481.3491282079
 20
151.1303833247
 11
481.3491282079
 21
281.1303833247
  0
LINE
  8
1
  6
CONTINUOUS
 10
482.3491282079
 20
151.3803833247
 11
482.3491282079
 21
151.1303833247
  0
LINE
  8
1
  6
CONTINUOUS
 10
482.3491282079
 20
281.1303833247
 11
482.3491282079
 21
280.8803833247
  0
CIRCLE
  8
1
  6
CONTINUOUS
 10
529.7591282079001
 20
220.8803833247
 40
2.75
  0
CIRCLE
  8
1
  6
CONTINUOUS
 10
529.7591282079001
 20
220.8803833247
 40
3.0
  0
CIRCLE
  8
1
  6
CONTINUOUS
 10
497.7591282079
 20
220.8803833247
 40
2.75
  0
CIRCLE
  8
1
  6
CONTINUOUS
 10
497.7591282079
 20
220.8803833247
 40
3.0
  0
CIRCLE
  8
1
  6
CONTINUOUS
 10
529.7591282079001
 20
252.8803833247
 40
2.75
  0
CIRCLE
  8
1
  6
CONTINUOUS
 10
529.7591282079001
 20
252.8803833247
 40
3.0
  0
CIRCLE
  8
1
  6
CONTINUOUS
 10
497.7591282079
 20
252.8803833247
 40
2.749999999999943
  0
CIRCLE
  8
1
  6
CONTINUOUS
 10
497.7591282079
 20
252.8803833247
 40
2.999999999999943
  0
ARC
  8
1
  6
CONTINUOUS
 10
528.7851473081
 20
248.0173151284
 40
0.6000000000000691
 50
315.0
 51
135.0
  0
ARC
  8
1
  6
CONTINUOUS
 10
525.3520294260994
 20
247.8139573132006
 40
1.691162193527812
 50
119.5444446979915
 51
151.665349089107
  0
ARC
  8
1
  6
CONTINUOUS
 10
522.0760429643004
 20
250.9498505013996
 40
1.798063518806687
 50
298.0069685287935
 51
331.6586609910062
  0
POLYLINE
  8
1
  6
CONTINUOUS
 66
     1
 70
     0
 40
0.0
 41
0.0
  0
VERTEX
  8
1
 10
524.5970208329001
 20
249.3458680193
  0
VERTEX
  8
1
 10
524.5357933404
 20
249.2969460026
  0
VERTEX
  8
1
 10
524.5181197952001
 20
249.285223535
  0
SEQEND
  8
1
  0
LINE
  8
1
  6
CONTINUOUS
 10
518.9563630496
 20
243.7039637631
 11
518.1078349122
 21
244.5524919005
  0
ARC
  8
1
  6
CONTINUOUS
 10
521.4306379342993
 20
243.9395447398007
 40
1.661801433710862
 50
117.8460383448914
 51
152.4539943452107
  0
ARC
  8
1
  6
CONTINUOUS
 10
518.0508669143001
 20
247.0678073833003
 40
1.89704919884304
 50
298.5276804993962
 51
330.9024579510945
  0
POLYLINE
  8
1
  6
CONTINUOUS
 66
     1
 70
     0
 40
0.0
 41
0.0
  0
VERTEX
  8
1
 10
520.68999754
 20
245.4417392773
  0
VERTEX
  8
1
 10
520.6716010469
 20
245.4220051792
  0
VERTEX
  8
1
 10
520.6544150232
 20
245.4089194358
  0
SEQEND
  8
1
  0
ARC
  8
1
  6
CONTINUOUS
 10
524.8960600116001
 20
221.8543642245
 40
0.600000000000029
 50
224.9999999999962
 51
44.99999999999808
  0
ARC
  8
1
  6
CONTINUOUS
 10
523.9786070818999
 20
232.63358052
 40
1.94808015387899
 50
209.4011379022012
 51
240.9230827375043
  0
ARC
  8
1
  6
CONTINUOUS
 10
520.7428624289003
 20
229.1053353528002
 40
1.789129854139366
 50
28.12373766609701
 51
61.80689612110265
  0
LINE
  8
1
  6
CONTINUOUS
 10
520.5827086463
 20
231.6831484829
 11
521.4312367837
 21
232.5316766204
  0
ARC
  8
1
  6
CONTINUOUS
 10
527.9340746159994
 20
228.6997308890993
 40
1.956850946646982
 50
210.1210742549937
 51
239.7230042423059
  0
ARC
  8
1
  6
CONTINUOUS
 10
524.6657410134997
 20
225.2205941148998
 40
1.762557118355389
 50
27.81688946980179
 51
61.96069781329231
  0
LINE
  8
1
  6
CONTINUOUS
 10
526.9829514786001
 20
226.9797923975
 11
526.9474676857001
 21
227.0097982299
  0
ARC
  8
1
  6
CONTINUOUS
 10
525.2563676767995
 20
247.7979742119005
 40
1.818944770293452
 50
298.6848022711068
 51
331.9153719720941
  0
ARC
  8
1
  6
CONTINUOUS
 10
528.4022839826994
 20
244.3591859923008
 40
1.796286830484297
 50
117.802790351492
 51
152.0487987667094
  0
LINE
  8
1
  6
CONTINUOUS
 10
521.2898154275
 20
241.3705113852
 11
522.1383435649
 21
240.5219832478
  0
ARC
  8
1
  6
CONTINUOUS
 10
521.3090378947993
 20
243.8605590622008
 40
1.826795530580137
 50
298.3451571461068
 51
331.9785183897905
  0
ARC
  8
1
  6
CONTINUOUS
 10
524.4183617970007
 20
240.2824095717992
 40
1.862553035193374
 50
118.0876331816069
 51
151.803525055489
  0
ARC
  8
1
  6
CONTINUOUS
 10
517.1119440200995
 20
226.1589315577994
 40
1.941119079287397
 50
28.79580848380736
 51
61.32520322009224
  0
ARC
  8
1
  6
CONTINUOUS
 10
520.7056245446001
 20
229.3056687658001
 40
1.7861988363407
 50
208.1846508517008
 51
242.2306162829977
  0
LINE
  8
1
  6
CONTINUOUS
 10
518.2492562684
 20
229.349696105
 11
517.4007281310001
 21
228.5011679676
  0
LINE
  8
1
  6
CONTINUOUS
 10
523.7764695769
 20
223.8147854326
 11
523.8150222062001
 21
223.779850698
  0
ARC
  8
1
  6
CONTINUOUS
 10
521.2015758304996
 20
222.1951000393996
 40
1.85123071433138
 50
28.55829609040488
 51
61.57419283399336
  0
ARC
  8
1
  6
CONTINUOUS
 10
524.5420169040996
 20
225.2704086356995
 40
1.64465851150808
 50
207.2156268319929
 51
242.2590361141071
  0
ARC
  8
1
  6
CONTINUOUS
 10
528.0780405269001
 20
225.0363447398
 40
0.600000000000029
 50
224.9999999999962
 51
44.99999999999808
  0
ARC
  8
1
  6
CONTINUOUS
 10
525.6031667927
 20
251.1992956437
 40
0.6000000000000691
 50
315.0
 51
135.0
  0
ARC
  8
1
  6
CONTINUOUS
 10
505.5032489573
 20
222.7274015779
 40
1.889184322113982
 50
120.0671743494982
 51
150.526229733599
  0
ARC
  8
1
  6
CONTINUOUS
 10
502.0733519490004
 20
226.0019315400997
 40
1.799764930228418
 50
298.147049384396
 51
331.4394630409037
  0
POLYLINE
  8
1
  6
CONTINUOUS
 66
     1
 70
     0
 40
0.0
 41
0.0
  0
VERTEX
  8
1
 10
504.5971070081
 20
224.3982013413
  0
VERTEX
  8
1
 10
504.587066325
 20
224.3860483436
  0
VERTEX
  8
1
 10
504.5567392816
 20
224.3623746165
  0
SEQEND
  8
1
  0
LINE
  8
1
  6
CONTINUOUS
 10
508.5618933661
 20
230.0568028862
 11
509.4104215036
 21
229.2082747488
  0
ARC
  8
1
  6
CONTINUOUS
 10
509.5180762862007
 20
226.6316303033993
 40
1.969082681708561
 50
119.7242806533056
 51
150.2649778934904
  0
ARC
  8
1
  6
CONTINUOUS
 10
505.9640431120998
 20
229.9204979758002
 40
1.819140916586709
 50
298.2701448231026
 51
331.3280309753981
  0
POLYLINE
  8
1
  6
CONTINUOUS
 66
     1
 70
     0
 40
0.0
 41
0.0
  0
VERTEX
  8
1
 10
508.5589725097
 20
228.3590670375
  0
VERTEX
  8
1
 10
508.5528107961
 20
228.3511519287
  0
VERTEX
  8
1
 10
508.5417524573
 20
228.3416239909
  0
SEQEND
  8
1
  0
ARC
  8
1
  6
CONTINUOUS
 10
506.3325140794995
 20
251.5672604190995
 40
1.864345406228922
 50
208.2432365841946
 51
241.8242233396076
  0
ARC
  8
1
  6
CONTINUOUS
 10
502.8493280324002
 20
248.3868317207001
 40
1.808129844517222
 50
28.556018032198
 51
61.87844954770273
  0
LINE
  8
1
  6
CONTINUOUS
 10
509.2690001473
 20
244.4110705443
 11
510.1175282848
 21
245.2595986817
  0
ARC
  8
1
  6
CONTINUOUS
 10
510.4930519660999
 20
247.7012809064999
 40
2.064750213638921
 50
210.0015958999975
 51
240.1737735808011
  0
ARC
  8
1
  6
CONTINUOUS
 10
506.7712717263004
 20
244.4200995363003
 40
1.8400071013016
 50
28.59778703349646
 51
61.84105655590668
  0
ARC
  8
1
  6
CONTINUOUS
 10
502.6221964042001
 20
251.9064024249
 40
0.600000000000029
 50
45.00000000000384
 51
224.9999999999942
  0
ARC
  8
1
  6
CONTINUOUS
 10
501.915089623
 20
222.5614710056
 40
0.6000000000000691
 50
135.0
 51
315.0
  0
ARC
  8
1
  6
CONTINUOUS
 10
499.6910248079003
 20
245.1969345070002
 40
1.797405729528633
 50
28.09461844269676
 51
61.73527296430303
  0
ARC
  8
1
  6
CONTINUOUS
 10
502.7965900239998
 20
248.4977646429997
 40
1.692885499577825
 50
207.3856016183951
 51
242.5949137956024
  0
ARC
  8
1
  6
CONTINUOUS
 10
503.5871774703
 20
241.1856585835
 40
1.877242985673395
 50
28.43299820690025
 51
61.14547934450022
  0
ARC
  8
1
  6
CONTINUOUS
 10
506.7912969077001
 20
244.6642783600001
 40
1.807413709630201
 50
208.1493181488014
 51
242.0920589369985
  0
LINE
  8
1
  6
CONTINUOUS
 10
506.9355477694001
 20
242.0776181664
 11
506.087019632
 21
241.229090029
  0
ARC
  8
1
  6
CONTINUOUS
 10
499.0925984090001
 20
229.4193669112999
 40
1.825614103096143
 50
298.2582854020988
 51
331.8501490618017
  0
ARC
  8
1
  6
CONTINUOUS
 10
502.2617249942005
 20
225.9629369867995
 40
1.818763998006708
 50
118.6840963694062
 51
151.9133891765925
  0
ARC
  8
1
  6
CONTINUOUS
 10
503.0545087702001
 20
233.5138302356
 40
1.919668004599983
 50
298.4557495617992
 51
331.4696059409001
  0
ARC
  8
1
  6
CONTINUOUS
 10
506.1506053168998
 20
229.9436078956003
 40
1.755447654518142
 50
117.6429982824985
 51
152.2273209051052
  0
LINE
  8
1
  6
CONTINUOUS
 10
506.2284409882
 20
232.3902552641
 11
505.3799128508
 21
233.2387834016
  0
ARC
  8
1
  6
CONTINUOUS
 10
499.4402158888
 20
248.7244219095
 40
0.6000000000000691
 50
45.0
 51
225.0
  0
ARC
  8
1
  6
CONTINUOUS
 10
498.7331091077
 20
225.743451521
 40
0.6000000000000089
 50
134.9999999999981
 51
314.9999999999981
  0
LINE
  8
1
  6
CONTINUOUS
 10
499.6665458043
 20
261.8803833247
 11
505.0517106114
 21
261.8803833247
  0
LINE
  8
1
  6
CONTINUOUS
 10
489.9091282079
 20
168.9103833247
 11
495.3591282079
 21
168.9103833247
  0
LINE
  8
1
  6
CONTINUOUS
 10
489.9091282079
 20
207.2603833247
 11
489.9091282079
 21
168.9103833247
  0
LINE
  8
1
  6
CONTINUOUS
 10
489.9091282079
 20
207.2603833247
 11
494.2905683001
 21
207.2603833247
  0
LINE
  8
1
  6
CONTINUOUS
 10
494.2905683001
 20
210.3603833247
 11
489.9091282079
 21
210.3603833247
  0
LINE
  8
1
  6
CONTINUOUS
 10
489.9091282079
 20
212.8103833247
 11
489.9091282079
 21
210.3603833247
  0
LINE
  8
1
  6
CONTINUOUS
 10
503.9091282079
 20
212.8103833247
 11
489.9091282079
 21
212.8103833247
  0
LINE
  8
1
  6
CONTINUOUS
 10
503.9091282079
 20
168.9103833247
 11
503.9091282079
 21
212.8103833247
  0
LINE
  8
1
  6
CONTINUOUS
 10
498.4591282079
 20
168.9103833247
 11
503.9091282079
 21
168.9103833247
  0
LINE
  8
1
  6
CONTINUOUS
 10
498.4591282079
 20
168.9103833247
 11
498.4591282079
 21
170.5918234169
  0
LINE
  8
1
  6
CONTINUOUS
 10
495.3591282079
 20
170.5918234169
 11
495.3591282079
 21
168.9103833247
  0
LINE
  8
1
  6
CONTINUOUS
 10
498.4591282079
 20
169.4003833247
 11
495.3591282079
 21
169.4003833247
  0
LINE
  8
1
  6
CONTINUOUS
 10
492.8591282079
 20
207.2603833247
 11
492.8591282079
 21
210.3603833247
  0
LINE
  8
1
  6
CONTINUOUS
 10
489.9091282079
 20
174.9053833247
 11
489.8591282079
 21
174.9053833247
  0
LINE
  8
1
  6
CONTINUOUS
 10
530.9122529102
 20
228.7090729679
 11
528.8263381316
 21
229.9133764268
  0
LINE
  8
1
  6
CONTINUOUS
 10
527.7825038147
 20
230.5160344507
 11
525.256220838
 21
231.9745846073
  0
LINE
  8
1
  6
CONTINUOUS
 10
525.7204576744
 20
228.2424557298
 11
526.2825038147
 21
227.9179582393
  0
LINE
  8
1
  6
CONTINUOUS
 10
527.3263381316
 20
227.3153002155
 11
529.4122529102
 21
226.1109967566
  0
ARC
  8
1
  6
CONTINUOUS
 10
513.7591282079002
 20
236.8803833247001
 40
12.50000000000014
 50
216.8921025793001
 51
230.2786761032998
  0
ARC
  8
1
  6
CONTINUOUS
 10
513.7591282079001
 20
236.8803833247
 40
12.49999999999998
 50
235.8360894383999
 51
299.4547102064
  0
ARC
  8
1
  6
CONTINUOUS
 10
513.7591282078979
 20
236.8803833247024
 40
12.50000000000319
 50
305.0958763153017
 51
320.2786761032981
  0
LINE
  8
1
  6
CONTINUOUS
 10
498.1060035055
 20
226.1109967566
 11
498.4517335264
 21
226.3106040772
  0
LINE
  8
1
  6
CONTINUOUS
 10
502.4670117844
 20
228.6288260603
 11
503.7620355778
 21
229.376508396
  0
LINE
  8
1
  6
CONTINUOUS
 10
502.2620355778
 20
231.9745846073
 11
499.7357526010001
 21
230.5160344507
  0
LINE
  8
1
  6
CONTINUOUS
 10
498.6919182841
 20
229.9133764268
 11
496.6060035055
 21
228.7090729679
  0
ARC
  8
1
  6
CONTINUOUS
 10
513.7591282078996
 20
236.8803833247011
 40
12.49999999999885
 50
103.8865403625992
 51
119.4547102064006
  0
ARC
  8
1
  6
CONTINUOUS
 10
513.7591282078997
 20
236.8803833247004
 40
12.49999999999946
 50
125.0958763152998
 51
140.2786761033005
  0
ARC
  8
1
  6
CONTINUOUS
 10
513.7591282079002
 20
236.8803833247
 40
12.50000000000008
 50
145.8360894384002
 51
203.1078974206999
  0
LINE
  8
1
  6
CONTINUOUS
 10
510.7591282079
 20
255.642046364
 11
510.7591282079
 21
253.2070486302
  0
LINE
  8
1
  6
CONTINUOUS
 10
510.7591282079
 20
251.9853493955
 11
510.7591282079
 21
249.0150444242
  0
LINE
  8
1
  6
CONTINUOUS
 10
516.7591282079001
 20
249.0150444242
 11
516.7591282079001
 21
251.9853493955
  0
LINE
  8
1
  6
CONTINUOUS
 10
516.7591282079001
 20
253.2070486302
 11
516.7591282079001
 21
255.642046364
  0
ARC
  8
1
  6
CONTINUOUS
 10
513.7591282079004
 20
236.8803833247
 40
12.49999999999967
 50
336.8921025792992
 51
29.45471020640071
  0
ARC
  8
1
  6
CONTINUOUS
 10
513.7591282078986
 20
236.8803833246985
 40
12.5000000000022
 50
35.0958763153016
 51
50.27867610329919
  0
ARC
  8
1
  6
CONTINUOUS
 10
513.7591282079003
 20
236.8803833247005
 40
12.4999999999995
 50
55.83608943839965
 51
76.1134596374005
  0
CIRCLE
  8
1
  6
CONTINUOUS
 10
509.2591282079
 20
185.3803833247
 40
2.750000000000057
  0
CIRCLE
  8
1
  6
CONTINUOUS
 10
509.2591282079
 20
185.3803833247
 40
2.999999999999943
  0
CIRCLE
  8
1
  6
CONTINUOUS
 10
496.8591282079
 20
208.8103833247
 40
2.75
  0
CIRCLE
  8
1
  6
CONTINUOUS
 10
496.8591282079
 20
208.8103833247
 40
3.0
  0
CIRCLE
  8
1
  6
CONTINUOUS
 10
496.9091282079
 20
173.1603833247
 40
2.75
  0
CIRCLE
  8
1
  6
CONTINUOUS
 10
496.9091282079
 20
173.1603833247
 40
2.999999999999943
  0
CIRCLE
  8
1
  6
CONTINUOUS
 10
509.2591282079
 20
208.3803833247
 40
2.75
  0
CIRCLE
  8
1
  6
CONTINUOUS
 10
509.2591282079
 20
208.3803833247
 40
2.999999999999943
  0
CIRCLE
  8
1
  6
CONTINUOUS
 10
532.2591282079001
 20
208.3803833247
 40
2.75
  0
CIRCLE
  8
1
  6
CONTINUOUS
 10
532.2591282079001
 20
208.3803833247
 40
3.0
  0
CIRCLE
  8
1
  6
CONTINUOUS
 10
532.2591282079001
 20
185.3803833247
 40
2.75
  0
CIRCLE
  8
1
  6
CONTINUOUS
 10
532.2591282079001
 20
185.3803833247
 40
3.0
  0
CIRCLE
  8
1
  6
CONTINUOUS
 10
532.2591282079001
 20
178.3803833247
 40
2.75
  0
CIRCLE
  8
1
  6
CONTINUOUS
 10
532.2591282079001
 20
178.3803833247
 40
3.0
  0
CIRCLE
  8
1
  6
CONTINUOUS
 10
509.2591282079
 20
178.3803833247
 40
2.750000000000057
  0
CIRCLE
  8
1
  6
CONTINUOUS
 10
509.2591282079
 20
178.3803833247
 40
2.999999999999943
  0
CIRCLE
  8
1
  6
CONTINUOUS
 10
509.2591282079
 20
155.3803833247
 40
2.750000000000057
  0
CIRCLE
  8
1
  6
CONTINUOUS
 10
509.2591282079
 20
155.3803833247
 40
2.999999999999943
  0
CIRCLE
  8
1
  6
CONTINUOUS
 10
532.2591282079001
 20
155.3803833247
 40
2.75
  0
CIRCLE
  8
1
  6
CONTINUOUS
 10
532.2591282079001
 20
155.3803833247
 40
3.0
  0
CIRCLE
  8
1
  6
CONTINUOUS
 10
520.7591282079001
 20
166.8803833247
 40
11.0
  0
ARC
  8
1
  6
CONTINUOUS
 10
508.2591282079
 20
154.3803833247
 40
2.000000000000114
 50
180.0
 51
270.0
  0
LINE
  8
1
  6
CONTINUOUS
 10
506.2591282079
 20
179.3803833247
 11
506.2591282079
 21
154.3803833247
  0
ARC
  8
1
  6
CONTINUOUS
 10
508.2591282079
 20
179.3803833247
 40
1.999999999999972
 50
90.0
 51
180.0000000000008
  0
LINE
  8
1
  6
CONTINUOUS
 10
533.2591282079001
 20
181.3803833247
 11
508.2591282079
 21
181.3803833247
  0
LINE
  8
1
  6
CONTINUOUS
 10
508.2591282079
 20
152.3803833247
 11
533.2591282079001
 21
152.3803833247
  0
ARC
  8
1
  6
CONTINUOUS
 10
533.2591282079001
 20
179.3803833247
 40
2.0
 50
359.9999999999992
 51
90.0
  0
LINE
  8
1
  6
CONTINUOUS
 10
535.2591282079001
 20
154.3803833247
 11
535.2591282079001
 21
179.3803833247
  0
ARC
  8
1
  6
CONTINUOUS
 10
533.2591282079
 20
154.3803833247002
 40
2.000000000000199
 50
270.0
 51
359.9999999999959
  0
CIRCLE
  8
1
  6
CONTINUOUS
 10
520.7591282079001
 20
196.8803833247
 40
11.0
  0
ARC
  8
1
  6
CONTINUOUS
 10
533.2591282079
 20
184.3803833247002
 40
2.000000000000199
 50
270.0
 51
359.9999999999959
  0
ARC
  8
1
  6
CONTINUOUS
 10
508.2591282079
 20
184.3803833247
 40
2.000000000000171
 50
180.0
 51
270.0
  0
LINE
  8
1
  6
CONTINUOUS
 10
506.2591282079
 20
209.3803833247
 11
506.2591282079
 21
184.3803833247
  0
ARC
  8
1
  6
CONTINUOUS
 10
508.2591282079
 20
209.3803833247
 40
1.999999999999972
 50
90.0
 51
180.0000000000008
  0
ARC
  8
1
  6
CONTINUOUS
 10
533.2591282079001
 20
209.3803833247
 40
2.0
 50
359.9999999999992
 51
90.0
  0
LINE
  8
1
  6
CONTINUOUS
 10
533.2591282079001
 20
211.3803833247
 11
508.2591282079
 21
211.3803833247
  0
LINE
  8
1
  6
CONTINUOUS
 10
508.2591282079
 20
182.3803833247
 11
533.2591282079001
 21
182.3803833247
  0
LINE
  8
1
  6
CONTINUOUS
 10
535.2591282079001
 20
184.3803833247
 11
535.2591282079001
 21
209.3803833247
  0
ARC
  8
1
  6
CONTINUOUS
 10
513.7591282079001
 20
236.8803833247
 40
19.0
 50
232.1047769512999
 51
304.9599008535998
  0
ARC
  8
1
  6
CONTINUOUS
 10
513.7591282078976
 20
236.8803833247026
 40
19.0000000000036
 50
308.5026133817012
 51
318.4700233482993
  0
ARC
  8
1
  6
CONTINUOUS
 10
513.7591282079001
 20
236.8803833247
 40
19.00000000000003
 50
322.1047769513002
 51
34.84476198220023
  0
ARC
  8
1
  6
CONTINUOUS
 10
513.7591282079051
 20
236.8803833247048
 40
18.99999999999317
 50
38.13004379209801
 51
48.47002334830172
  0
ARC
  8
1
  6
CONTINUOUS
 10
513.7591282079001
 20
236.8803833247
 40
19.00000000000002
 50
52.10477695129995
 51
124.8447619822
  0
ARC
  8
1
  6
CONTINUOUS
 10
513.7591282078985
 20
236.8803833247017
 40
18.99999999999773
 50
128.1300437920994
 51
138.4700233483007
  0
ARC
  8
1
  6
CONTINUOUS
 10
513.7591282079
 20
236.8803833247
 40
18.99999999999994
 50
141.7180619998999
 51
214.8447619822002
  0
ARC
  8
1
  6
CONTINUOUS
 10
513.7591282079043
 20
236.8803833247038
 40
19.00000000000571
 50
218.1300437921012
 51
228.4700233482982
  0
CIRCLE
  8
1
  6
CONTINUOUS
 10
496.8591282079
 20
161.8803833247
 40
5.0
  0
CIRCLE
  8
1
  6
CONTINUOUS
 10
502.3591282079
 20
268.8803833247
 40
7.5
  0
LINE
  8
1
  6
CONTINUOUS
 10
516.5737232505001
 20
212.7987453318
 11
515.1999696438001
 21
215.1628455428
  0
LINE
  8
1
  6
CONTINUOUS
 10
517.9683722959001
 20
215.1579861385
 11
516.5737232505001
 21
212.7987453318
  0
LINE
  8
1
  6
CONTINUOUS
 10
515.1999696438001
 20
215.1628455428
 11
517.9683722959001
 21
215.1579861385
  0
LINE
  8
1
  6
CONTINUOUS
 10
490.9943131109
 20
214.2987453318
 11
489.6205595042
 21
216.6628455428
  0
LINE
  8
1
  6
CONTINUOUS
 10
492.3889621562
 20
216.6579861385
 11
490.9943131109
 21
214.2987453318
  0
LINE
  8
1
  6
CONTINUOUS
 10
489.6205595042
 20
216.6628455428
 11
492.3889621562
 21
216.6579861385
  0
LINE
  8
1
  6
CONTINUOUS
 10
505.4407662008
 20
161.8552732975
 11
503.0766659897
 21
160.4815196908
  0
LINE
  8
1
  6
CONTINUOUS
 10
503.0815253941
 20
163.2499223428
 11
505.4407662008
 21
161.8552732975
  0
LINE
  8
1
  6
CONTINUOUS
 10
503.0766659897
 20
160.4815196908
 11
503.0815253941
 21
163.2499223428
  0
LINE
  8
1
  6
CONTINUOUS
 10
533.6591282079
 20
268.8803833247
 11
517.6591282079
 21
268.8803833247
  0
ARC
  8
1
  6
CONTINUOUS
 10
517.6591282078999
 20
266.8803833247001
 40
2.000000000000057
 50
90.0
 51
180.0000000000016
  0
LINE
  8
1
  6
CONTINUOUS
 10
515.6591282079
 20
266.8803833247
 11
515.6591282079
 21
260.8803833247
  0
ARC
  8
1
  6
CONTINUOUS
 10
517.6591282078999
 20
260.8803833247
 40
2.0
 50
179.9999999999984
 51
270.0
  0
LINE
  8
1
  6
CONTINUOUS
 10
517.6591282079
 20
258.8803833247
 11
533.6591282079
 21
258.8803833247
  0
ARC
  8
1
  6
CONTINUOUS
 10
533.6591282079
 20
260.8803833247
 40
1.999999999999943
 50
270.0
 51
1.628443996909321E-012
  0
LINE
  8
1
  6
CONTINUOUS
 10
535.6591282079
 20
260.8803833247
 11
535.6591282079
 21
266.8803833247
  0
ARC
  8
1
  6
CONTINUOUS
 10
533.6591282079
 20
266.8803833247001
 40
2.0
 50
359.9999999999984
 51
90.0
  0
CIRCLE
  8
1
  6
CONTINUOUS
 10
491.3591282079
 20
154.8803833247
 40
3.25
  0
ARC
  8
1
  6
CONTINUOUS
 10
533.6591282079
 20
266.8803833247001
 40
1.600000000000023
 50
359.999999999998
 51
90.0
  0
LINE
  8
1
  6
CONTINUOUS
 10
535.2591282079001
 20
260.8803833247
 11
535.2591282079001
 21
266.8803833247
  0
ARC
  8
1
  6
CONTINUOUS
 10
533.6591282078999
 20
260.8803833247001
 40
1.600000000000193
 50
270.0
 51
359.9999999999959
  0
LINE
  8
1
  6
CONTINUOUS
 10
517.6591282079
 20
259.2803833247
 11
533.6591282079
 21
259.2803833247
  0
ARC
  8
1
  6
CONTINUOUS
 10
517.6591282079
 20
260.8803833247
 40
1.600000000000023
 50
179.999999999998
 51
270.0
  0
LINE
  8
1
  6
CONTINUOUS
 10
516.0591282079
 20
266.8803833247
 11
516.0591282079
 21
260.8803833247
  0
ARC
  8
1
  6
CONTINUOUS
 10
517.6591282079
 20
266.8803833247001
 40
1.599999999999966
 50
90.0
 51
180.000000000002
  0
LINE
  8
1
  6
CONTINUOUS
 10
533.6591282079
 20
268.4803833247
 11
517.6591282079
 21
268.4803833247
  0
LINE
  8
1
  6
CONTINUOUS
 10
489.1091282079
 20
154.6803833247
 11
491.1591282079
 21
154.6803833247
  0
LINE
  8
1
  6
CONTINUOUS
 10
489.1091282079
 20
154.2803833247
 11
489.1091282079
 21
154.6803833247
  0
LINE
  8
1
  6
CONTINUOUS
 10
493.6091282079
 20
154.2803833247
 11
489.1091282079
 21
154.2803833247
  0
LINE
  8
1
  6
CONTINUOUS
 10
493.6091282079
 20
154.6803833247
 11
493.6091282079
 21
154.2803833247
  0
LINE
  8
1
  6
CONTINUOUS
 10
491.5591282079
 20
154.6803833247
 11
493.6091282079
 21
154.6803833247
  0
LINE
  8
1
  6
CONTINUOUS
 10
491.5591282079
 20
157.7233571198
 11
491.5591282079
 21
154.6803833247
  0
ARC
  8
1
  6
CONTINUOUS
 10
491.3591282079
 20
154.8803833247
 40
2.850000000000037
 50
94.0240638894002
 51
85.9759361105998
  0
LINE
  8
1
  6
CONTINUOUS
 10
491.1591282079
 20
154.6803833247
 11
491.1591282079
 21
157.7233571198
  0
LINE
  8
1
  6
CONTINUOUS
 10
490.1091282079
 20
153.9303833247
 11
490.1091282079
 21
153.5303833247
  0
LINE
  8
1
  6
CONTINUOUS
 10
490.1091282079
 20
153.5303833247
 11
492.6091282079
 21
153.5303833247
  0
LINE
  8
1
  6
CONTINUOUS
 10
492.6091282079
 20
153.5303833247
 11
492.6091282079
 21
153.9303833247
  0
LINE
  8
1
  6
CONTINUOUS
 10
492.6091282079
 20
153.9303833247
 11
490.1091282079
 21
153.9303833247
  0
LINE
  8
1
  6
CONTINUOUS
 10
490.8591282079
 20
153.1803833247
 11
490.8591282079
 21
152.7803833247
  0
LINE
  8
1
  6
CONTINUOUS
 10
490.8591282079
 20
152.7803833247
 11
491.8591282079
 21
152.7803833247
  0
LINE
  8
1
  6
CONTINUOUS
 10
491.8591282079
 20
152.7803833247
 11
491.8591282079
 21
153.1803833247
  0
LINE
  8
1
  6
CONTINUOUS
 10
491.8591282079
 20
153.1803833247
 11
490.8591282079
 21
153.1803833247
  0
LINE
  8
1
  6
CONTINUOUS
 10
530.7865715255
 20
281.1303833247
 11
530.7865715255
 21
295.1303833247
  0
LINE
  8
1
  6
CONTINUOUS
 10
530.3491282079
 20
295.1303833247
 11
540.8491282079
 21
295.1303833247
  0
ARC
  8
1
  6
CONTINUOUS
 10
540.8491282079001
 20
291.1303833247001
 40
3.999999999999886
 50
359.9999999999992
 51
90.0
  0
LINE
  8
1
  6
CONTINUOUS
 10
544.8491282079
 20
291.1303833247
 11
544.8491282079
 21
281.1303833247
  0
LINE
  8
1
  6
CONTINUOUS
 10
530.3491282079
 20
281.1303833247
 11
530.3491282079
 21
296.1303833247
  0
LINE
  8
1
  6
CONTINUOUS
 10
494.9116848902
 20
295.1303833247
 11
494.9116848902
 21
281.1303833247
  0
LINE
  8
1
  6
CONTINUOUS
 10
480.8491282079
 20
281.1303833247
 11
480.8491282079
 21
291.1303833247
  0
ARC
  8
1
  6
CONTINUOUS
 10
484.8491282079
 20
291.1303833247001
 40
3.999999999999943
 50
90.0
 51
180.0000000000008
  0
LINE
  8
1
  6
CONTINUOUS
 10
484.8491282079
 20
295.1303833247
 11
495.3491282079
 21
295.1303833247
  0
LINE
  8
1
  6
CONTINUOUS
 10
495.3491282079
 20
281.1303833247
 11
495.3491282079
 21
296.1303833247
  0
CIRCLE
  8
1
  6
CONTINUOUS
 10
501.8491282079
 20
288.6303833247
 40
5.0
  0
CIRCLE
  8
1
  6
CONTINUOUS
 10
523.8491282079
 20
288.6303833247
 40
5.0
  0
LINE
  8
1
  6
CONTINUOUS
 10
495.3491282079
 20
296.1303833247
 11
530.3491282079
 21
296.1303833247
  0
LINE
  8
1
  6
CONTINUOUS
 10
480.8491282079
 20
281.1303833247
 11
544.8491282079
 21
281.1303833247
  0
LINE
  8
1
  6
CONTINUOUS
 10
530.7865715255
 20
137.1303833247
 11
530.7865715255
 21
151.1303833247
  0
LINE
  8
1
  6
CONTINUOUS
 10
544.8491282079
 20
151.1303833247
 11
544.8491282079
 21
141.1303833247
  0
ARC
  8
1
  6
CONTINUOUS
 10
540.8491282079
 20
141.1303833247
 40
3.999999999999943
 50
270.0
 51
8.142219984546834E-013
  0
LINE
  8
1
  6
CONTINUOUS
 10
530.3491282079
 20
137.1303833247
 11
540.8491282079
 21
137.1303833247
  0
LINE
  8
1
  6
CONTINUOUS
 10
530.3491282079
 20
136.1303833247
 11
530.3491282079
 21
151.1303833247
  0
LINE
  8
1
  6
CONTINUOUS
 10
494.9116848902
 20
151.1303833247
 11
494.9116848902
 21
137.1303833247
  0
LINE
  8
1
  6
CONTINUOUS
 10
495.3491282079
 20
136.1303833247
 11
495.3491282079
 21
151.1303833247
  0
ARC
  8
1
  6
CONTINUOUS
 10
484.8491282079001
 20
141.1303833247001
 40
4.000000000000114
 50
180.0000000000008
 51
270.0
  0
LINE
  8
1
  6
CONTINUOUS
 10
480.8491282079
 20
141.1303833247
 11
480.8491282079
 21
151.1303833247
  0
LINE
  8
1
  6
CONTINUOUS
 10
484.8491282079
 20
137.1303833247
 11
495.3491282079
 21
137.1303833247
  0
CIRCLE
  8
1
  6
CONTINUOUS
 10
501.8491282079
 20
143.6303833247
 40
5.0
  0
LINE
  8
1
  6
CONTINUOUS
 10
530.3491282079
 20
136.1303833247
 11
495.3491282079
 21
136.1303833247
  0
CIRCLE
  8
1
  6
CONTINUOUS
 10
523.8491282079
 20
143.6303833247
 40
5.0
  0
LINE
  8
1
  6
CONTINUOUS
 10
480.8491282079
 20
151.1303833247
 11
544.8491282079
 21
151.1303833247
  0
LINE
  8
1
  6
CONTINUOUS
 10
486.8591282079
 20
151.1303833247
 11
486.8591282079
 21
151.3803833247
  0
LINE
  8
1
  6
CONTINUOUS
 10
486.8591282079
 20
280.8803833247
 11
486.8591282079
 21
281.1303833247
  0
LINE
  8
1
  6
CONTINUOUS
 10
482.3591282079
 20
151.1303833247
 11
482.3591282079
 21
151.3803833247
  0
LINE
  8
1
  6
CONTINUOUS
 10
482.3591282079
 20
280.8803833247
 11
482.3591282079
 21
281.1303833247
  0
LINE
  8
1
  6
CONTINUOUS
 10
538.8391282079
 20
281.1303833247
 11
538.8391282079
 21
280.8803833247
  0
LINE
  8
1
  6
CONTINUOUS
 10
538.8391282079
 20
151.3803833247
 11
538.8391282079
 21
151.1303833247
  0
LINE
  8
1
  6
CONTINUOUS
 10
543.3391282079
 20
281.1303833247
 11
543.3391282079
 21
280.8803833247
  0
LINE
  8
1
  6
CONTINUOUS
 10
543.3391282079
 20
151.3803833247
 11
543.3391282079
 21
151.1303833247
  0
LINE
  8
1
  6
CONTINUOUS
 10
537.5991282079
 20
151.3803833247
 11
544.3491282079
 21
151.3803833247
  0
LINE
  8
1
  6
CONTINUOUS
 10
537.5991282079
 20
280.8803833247
 11
544.3491282079
 21
280.8803833247
  0
LINE
  8
1
  6
CONTINUOUS
 10
544.3491282079
 20
151.1303833247
 11
544.3491282079
 21
281.1303833247
  0
LINE
  8
1
  6
CONTINUOUS
 10
537.5991282079
 20
280.8803833247
 11
537.5991282079
 21
151.3803833247
  0
LINE
  8
1
  6
CONTINUOUS
 10
543.3491282079
 20
280.8803833247
 11
543.3491282079
 21
281.1303833247
  0
LINE
  8
1
  6
CONTINUOUS
 10
543.3491282079
 20
151.1303833247
 11
543.3491282079
 21
151.3803833247
  0
LINE
  8
1
  6
CONTINUOUS
 10
494.8491282079
 20
295.6303833247
 11
494.8491282079
 21
295.1303833247
  0
LINE
  8
1
  6
CONTINUOUS
 10
530.8491282079
 20
295.1303833247
 11
530.8491282079
 21
295.6303833247
  0
LINE
  8
1
  6
CONTINUOUS
 10
530.8491282079
 20
136.6303833247
 11
530.8491282079
 21
137.1303833247
  0
LINE
  8
1
  6
CONTINUOUS
 10
494.8491282079
 20
137.1303833247
 11
494.8491282079
 21
136.6303833247
  0
LINE
  8
1
  6
CONTINUOUS
 10
479.8491282079
 20
142.1303833247
 11
479.8491282079
 21
290.1303833247
  0
ARC
  8
1
  6
CONTINUOUS
 10
485.8491282079
 20
290.1303833247
 40
5.999999999999986
 50
113.5564643092001
 51
180.0
  0
ARC
  8
1
  6
CONTINUOUS
 10
539.8491282078999
 20
290.1303833247
 40
6.000000000000114
 50
5.428146656364299E-013
 51
66.44353569079986
  0
LINE
  8
1
  6
CONTINUOUS
 10
545.8491282079
 20
142.1303833247
 11
545.8491282079
 21
290.1303833247
  0
LINE
  8
1
  6
CONTINUOUS
 10
544.8491282079
 20
282.6303833247
 11
545.8491282079
 21
282.6303833247
  0
LINE
  8
1
  6
CONTINUOUS
 10
479.8491282079
 20
282.6303833247
 11
480.8491282079
 21
282.6303833247
  0
ARC
  8
1
  6
CONTINUOUS
 10
539.8491282079003
 20
142.1303833246998
 40
5.99999999999969
 50
293.5564643091984
 51
2.171258662545884E-012
  0
ARC
  8
1
  6
CONTINUOUS
 10
485.8491282079001
 20
142.1303833247
 40
6.000000000000114
 50
180.0000000000003
 51
246.4435356907999
  0
LINE
  8
1
  6
CONTINUOUS
 10
479.8491282079
 20
149.6303833247
 11
480.8491282079
 21
149.6303833247
  0
LINE
  8
1
  6
CONTINUOUS
 10
544.8491282079
 20
149.6303833247
 11
545.8491282079
 21
149.6303833247
  0
LINE
  8
1
  6
CONTINUOUS
 10
544.5991282079
 20
151.1303833247
 11
544.5991282079
 21
281.1303833247
  0
LINE
  8
1
  6
CONTINUOUS
 10
481.0991282079
 20
281.1303833247
 11
481.0991282079
 21
151.1303833247
  0
INSERT
  8
4
  6
CONTINUOUS
  2
COMP1
 10
0.0
 20
0.0
 41
1.0
 42
1.0
 50
0.0
  0
INSERT
  8
4
  6
CONTINUOUS
  2
COMP2
 10
0.0
 20
0.0
 41
1.0
 42
1.0
 50
0.0
  0
INSERT
  8
4
  6
CONTINUOUS
  2
COMP3
 10
0.0
 20
0.0
 41
1.0
 42
1.0
 50
0.0
  0
INSERT
  8
4
  6
CONTINUOUS
  2
COMP4
 10
0.0
 20
0.0
 41
1.0
 42
1.0
 50
0.0
  0
INSERT
  8
4
  6
CONTINUOUS
  2
COMP5
 10
0.0
 20
0.0
 41
1.0
 42
1.0
 50
0.0
  0
INSERT
  8
4
  6
CONTINUOUS
  2
COMP6
 10
0.0
 20
0.0
 41
1.0
 42
1.0
 50
0.0
  0
INSERT
  8
4
  6
CONTINUOUS
  2
COMP7
 10
0.0
 20
0.0
 41
1.0
 42
1.0
 50
0.0
  0
INSERT
  8
100
  6
CONTINUOUS
  2
NMB-WAKU_0001
 10
86.33591001267028
 20
152.7911960965649
 41
1.0
 42
1.0
 50
0.0
  0
INSERT
  8
4
  6
CONTINUOUS
  2
COMP8
 10
0.0
 20
0.0
 41
1.0
 42
1.0
 50
0.0
  0
INSERT
  8
4
  6
CONTINUOUS
  2
COMP9
 10
0.0
 20
0.0
 41
1.0
 42
1.0
 50
0.0
  0
INSERT
  8
4
  6
CONTINUOUS
  2
COMP10
 10
0.0
 20
0.0
 41
1.0
 42
1.0
 50
0.0
  0
INSERT
  8
4
  6
CONTINUOUS
  2
COMP11
 10
0.0
 20
0.0
 41
1.0
 42
1.0
 50
0.0
  0
ENDSEC
  0
EOF
